  0
SECTION
  2
HEADER
  9
$ACADVER
  1
AC1009
  9
$INSBASE
 10
0.0
 20
0.0
 30
0.0
  9
$EXTMIN
 10
0.0
 20
-2.960436562073669
 30
0.0
  9
$EXTMAX
 10
421.0
 20
610.62841151459429
 30
0.0
  9
$LIMMIN
 10
0.0
 20
0.0
  9
$LIMMAX
 10
1125.0
 20
810.0
  9
$ORTHOMODE
 70
     1
  9
$REGENMODE
 70
     1
  9
$FILLMODE
 70
     1
  9
$QTEXTMODE
 70
     0
  9
$MIRRTEXT
 70
     0
  9
$DRAGMODE
 70
     2
  9
$LTSCALE
 40
30.0
  9
$OSMODE
 70
    37
  9
$ATTMODE
 70
     1
  9
$TEXTSIZE
 40
0.2
  9
$TRACEWID
 40
0.05
  9
$TEXTSTYLE
  7
STANDARD
  9
$CLAYER
  8
0
  9
$CELTYPE
  6
BYLAYER
  9
$CECOLOR
 62
   256
  9
$DIMSCALE
 40
3.0
  9
$DIMASZ
 40
3.0
  9
$DIMEXO
 40
2.0
  9
$DIMDLI
 40
10.0
  9
$DIMRND
 40
0.0
  9
$DIMDLE
 40
0.0
  9
$DIMEXE
 40
2.0
  9
$DIMTP
 40
0.0
  9
$DIMTM
 40
0.0
  9
$DIMTXT
 40
3.2000000000000002
  9
$DIMCEN
 40
0.09
  9
$DIMTSZ
 40
0.0
  9
$DIMTOL
 70
     0
  9
$DIMLIM
 70
     0
  9
$DIMTIH
 70
     0
  9
$DIMTOH
 70
     0
  9
$DIMSE1
 70
     0
  9
$DIMSE2
 70
     0
  9
$DIMTAD
 70
     0
  9
$DIMZIN
 70
     0
  9
$DIMBLK
  1

  9
$DIMASO
 70
     1
  9
$DIMSHO
 70
     0
  9
$DIMPOST
  1

  9
$DIMAPOST
  1

  9
$DIMALT
 70
     0
  9
$DIMALTD
 70
     2
  9
$DIMALTF
 40
25.399999999999999
  9
$DIMLFAC
 40
1.0
  9
$DIMTOFL
 70
     1
  9
$DIMTVP
 40
1.0
  9
$DIMTIX
 70
     0
  9
$DIMSOXD
 70
     0
  9
$DIMSAH
 70
     0
  9
$DIMBLK1
  1

  9
$DIMBLK2
  1

  9
$DIMSTYLE
  2
STANDARD
  9
$DIMCLRD
 70
     0
  9
$DIMCLRE
 70
     0
  9
$DIMCLRT
 70
     0
  9
$DIMTFAC
 40
1.0
  9
$DIMGAP
 40
0.09
  9
$LUNITS
 70
     2
  9
$LUPREC
 70
     4
  9
$SKETCHINC
 40
0.1
  9
$FILLETRAD
 40
0.0
  9
$AUNITS
 70
     0
  9
$AUPREC
 70
     0
  9
$MENU
  1
E:\r13\win\SUPPORT\ACAD
  9
$ELEVATION
 40
0.0
  9
$PELEVATION
 40
0.0
  9
$THICKNESS
 40
0.0
  9
$LIMCHECK
 70
     0
  9
$BLIPMODE
 70
     0
  9
$CHAMFERA
 40
0.0
  9
$CHAMFERB
 40
0.0
  9
$SKPOLY
 70
     0
  9
$TDCREATE
 40
2449839.781261574
  9
$TDUPDATE
 40
2457064.569063195
  9
$TDINDWG
 40
0.0065430787
  9
$TDUSRTIMER
 40
0.0065430787
  9
$USRTIMER
 70
     1
  9
$ANGBASE
 50
0.0
  9
$ANGDIR
 70
     0
  9
$PDMODE
 70
     0
  9
$PDSIZE
 40
0.0
  9
$PLINEWID
 40
0.0
  9
$COORDS
 70
     1
  9
$SPLFRAME
 70
     0
  9
$SPLINETYPE
 70
     6
  9
$SPLINESEGS
 70
     8
  9
$ATTDIA
 70
     0
  9
$ATTREQ
 70
     1
  9
$HANDLING
 70
     1
  9
$HANDSEED
  5
43F
  9
$SURFTAB1
 70
     6
  9
$SURFTAB2
 70
     6
  9
$SURFTYPE
 70
     6
  9
$SURFU
 70
     6
  9
$SURFV
 70
     6
  9
$UCSNAME
  2

  9
$UCSORG
 10
0.0
 20
0.0
 30
0.0
  9
$UCSXDIR
 10
1.0
 20
0.0
 30
0.0
  9
$UCSYDIR
 10
0.0
 20
1.0
 30
0.0
  9
$PUCSNAME
  2

  9
$PUCSORG
 10
0.0
 20
0.0
 30
0.0
  9
$PUCSXDIR
 10
1.0
 20
0.0
 30
0.0
  9
$PUCSYDIR
 10
0.0
 20
1.0
 30
0.0
  9
$USERI1
 70
     0
  9
$USERI2
 70
     1
  9
$USERI3
 70
     1
  9
$USERI4
 70
     0
  9
$USERI5
 70
     0
  9
$USERR1
 40
0.0
  9
$USERR2
 40
0.0
  9
$USERR3
 40
0.0
  9
$USERR4
 40
0.0
  9
$USERR5
 40
0.0
  9
$WORLDVIEW
 70
     1
  9
$SHADEDGE
 70
     3
  9
$SHADEDIF
 70
    70
  9
$TILEMODE
 70
     1
  9
$MAXACTVP
 70
    16
  9
$PLIMCHECK
 70
     0
  9
$PEXTMIN
 10
1.0000000000000000E+020
 20
1.0000000000000000E+020
 30
1.0000000000000000E+020
  9
$PEXTMAX
 10
-1.0000000000000000E+020
 20
-1.0000000000000000E+020
 30
-1.0000000000000000E+020
  9
$PLIMMIN
 10
0.0
 20
0.0
  9
$PLIMMAX
 10
12.0
 20
9.0
  9
$UNITMODE
 70
     0
  9
$VISRETAIN
 70
     0
  9
$PLINEGEN
 70
     0
  9
$PSLTSCALE
 70
     0
  0
ENDSEC
  0
SECTION
  2
TABLES
  0
TABLE
  2
VPORT
 70
     1
  0
VPORT
  2
*ACTIVE
 70
     0
 10
0.0
 20
0.0
 11
1.0
 21
1.0
 12
567.2809457579973
 22
325.0
 13
0.0
 23
0.0
 14
30.0
 24
30.0
 15
30.0
 25
30.0
 16
0.0
 26
0.0
 36
1.0
 17
0.0
 27
0.0
 37
0.0
 40
650.0
 41
1.74547983310153
 42
50.0
 43
0.0
 44
0.0
 50
0.0
 51
0.0
 71
     0
 72
   500
 73
     1
 74
     0
 75
     0
 76
     0
 77
     0
 78
     0
  0
ENDTAB
  0
TABLE
  2
LTYPE
 70
     4
  0
LTYPE
  2
CONTINUOUS
 70
     0
  3
Solid Line
 72
    65
 73
     0
 40
0.0
  0
LTYPE
  2
CENTER
 70
     0
  3
____ _ ____ _ ____ _ ____ _ ____ _ ____ _ ____
 72
    65
 73
     4
 40
2.0
 49
1.25
 49
-0.25
 49
0.25
 49
-0.25
  0
LTYPE
  2
HIDDEN
 70
     0
  3
_ _ _ _ _ _ _ _ _ _ _ _ _ _ _ _ _ _ _ _ _ _ _
 72
    65
 73
     2
 40
0.375
 49
0.25
 49
-0.125
  0
LTYPE
  2
PHANTOM2
 70
     0
  3
___ _ _ ___ _ _ ___ _ _ ___ _ _
 72
    65
 73
     6
 40
1.25
 49
0.625
 49
-0.125
 49
0.125
 49
-0.125
 49
0.125
 49
-0.125
  0
ENDTAB
  0
TABLE
  2
LAYER
 70
     3
  0
LAYER
  2
0
 70
     0
 62
     7
  6
CONTINUOUS
  0
LAYER
  2
1
 70
     0
 62
     1
  6
CENTER
  0
LAYER
  2
2
 70
     0
 62
     2
  6
HIDDEN
  0
ENDTAB
  0
TABLE
  2
STYLE
 70
     2
  0
STYLE
  2
STANDARD
 70
     0
 40
0.0
 41
1.0
 50
0.0
 71
     0
 42
0.2
  3
TXT
  4
BIGFONT
  0
STYLE
  2
STANDARD1
 70
     0
 40
0.0
 41
1.0
 50
0.0
 71
     0
 42
3.0
  3
txt
  4

  0
ENDTAB
  0
TABLE
  2
VIEW
 70
     1
  0
VIEW
  2
ALL
 70
     0
 40
810.0
 10
662.97478991596643
 20
405.0
 41
0.0
 11
0.0
 21
0.0
 31
1.0
 12
0.0
 22
0.0
 32
0.0
 42
0.0
 43
0.0
 44
0.0
 50
0.0
 71
     0
  0
ENDTAB
  0
TABLE
  2
UCS
 70
     0
  0
ENDTAB
  0
TABLE
  2
APPID
 70
     4
  0
APPID
  2
ACAD
 70
     0
  0
APPID
  2
ACAD_MLEADERVER
 70
     0
  0
APPID
  2
ACAD_EXEMPT_FROM_CAD_STANDARDS
 70
     0
  0
APPID
  2
ACAD_NAV_VCDISPLAY
 70
     0
  0
ENDTAB
  0
TABLE
  2
DIMSTYLE
 70
     1
  0
DIMSTYLE
  2
STANDARD
 70
     0
  3

  4

  5

  6

  7

 40
1.0
 41
0.18
 42
0.0625
 43
0.38
 44
0.18
 45
0.0
 46
0.0
 47
0.0
 48
0.0
140
0.18
141
0.09
142
0.0
143
25.399999999999999
144
1.0
145
0.0
146
1.0
147
0.09
 71
     0
 72
     0
 73
     1
 74
     1
 75
     0
 76
     0
 77
     0
 78
     0
170
     0
171
     2
172
     0
173
     0
174
     0
175
     0
176
     0
177
     0
178
     0
  0
ENDTAB
  0
ENDSEC
  0
SECTION
  2
BLOCKS
  0
BLOCK
  8
0
  2
$MODEL_SPACE
 70
     0
 10
0.0
 20
0.0
 30
0.0
  3
$MODEL_SPACE
  1

  0
ENDBLK
  5
146
  8
0
  0
BLOCK
 67
     1
  8
0
  2
$PAPER_SPACE
 70
     0
 10
0.0
 20
0.0
 30
0.0
  3
$PAPER_SPACE
  1

  0
ENDBLK
  5
144
 67
     1
  8
0
  0
ENDSEC
  0
SECTION
  2
ENTITIES
  0
LINE
  5
35
  8
0
 10
232.5
 20
101.0
 30
0.0
 11
267.5
 21
101.0
 31
0.0
  0
LINE
  5
36
  8
0
 10
233.5
 20
100.0
 30
0.0
 11
232.5
 21
101.0
 31
0.0
  0
LINE
  5
37
  8
2
 10
267.5
 20
138.0
 30
0.0
 11
232.5
 21
138.0
 31
0.0
  0
LINE
  5
38
  8
2
 10
255.0
 20
138.0
 30
0.0
 11
255.0
 21
100.0
 31
0.0
  0
LINE
  5
39
  8
0
 10
267.5
 20
101.0
 30
0.0
 11
266.5
 21
100.0
 31
0.0
  0
LINE
  5
3A
  8
2
 10
266.5
 20
138.0
 30
0.0
 11
266.5
 21
142.00000000000011
 31
0.0
  0
LINE
  5
3B
  8
2
 10
267.5
 20
138.0
 30
0.0
 11
267.5
 21
103.0
 31
0.0
  0
ARC
  5
3C
  8
0
 10
250.0
 20
439.62841151459349
 30
0.0
 40
43.0
 50
190.7221524155396
 51
259.2778475844562
  0
ARC
  5
3D
  8
0
 10
110.4999999999994
 20
439.62840611979681
 30
0.0
 40
16.5
 50
87.817304633907028
 51
272.18269536609301
  0
ARC
  5
3E
  8
0
 10
131.9999999999994
 20
439.62840611979681
 30
0.0
 40
16.0
 50
321.31781254651099
 51
38.682187453488972
  0
ARC
  5
3F
  8
0
 10
108.9000498289268
 20
523.61566978763744
 30
0.0
 40
100.5
 50
271.27051362596552
 51
290.74006107436679
  0
ARC
  5
40
  8
0
 10
108.9000498289268
 20
355.6411424519564
 30
0.0
 40
100.5
 50
69.25993892563325
 51
88.729486374034366
  0
ARC
  5
41
  8
0
 10
197.8368907529545
 20
439.62841151459349
 30
0.0
 40
16.0
 50
329.99999999999949
 51
30.000000000000551
  0
LINE
  5
42
  8
0
 10
211.6932972135055
 20
431.62841151459349
 30
0.0
 11
145.856409575236
 21
431.62841151459349
 31
0.0
  0
LINE
  5
43
  8
0
 10
145.85640334586179
 20
447.62841151459361
 30
0.0
 11
211.6932972135055
 21
447.62841151459361
 31
0.0
  0
LINE
  5
44
  8
0
 10
354.14359353944889
 20
447.62841151459361
 30
0.0
 11
288.3067027864945
 21
447.62841151459361
 31
0.0
  0
LINE
  5
45
  8
0
 10
288.3067027864945
 20
431.62841151459349
 30
0.0
 11
354.14359353944889
 21
431.62841151459349
 31
0.0
  0
ARC
  5
46
  8
0
 10
302.1631092470455
 20
439.62841151459349
 30
0.0
 40
16.0
 50
149.9999999999994
 51
210.00000000000051
  0
ARC
  5
47
  8
0
 10
391.09995017107258
 20
355.64114784675297
 30
0.0
 40
100.5
 50
90.912181740130478
 51
110.74006107436669
  0
ARC
  5
48
  8
0
 10
391.09995017107269
 20
523.61567518243385
 30
0.0
 40
100.5
 50
249.25993892563321
 51
269.08781825986949
  0
ARC
  5
49
  8
0
 10
368.0
 20
439.62841151459338
 30
0.0
 40
16.0
 50
141.31781254651099
 51
218.68218745348889
  0
ARC
  5
4A
  8
0
 10
389.5
 20
439.62841151459338
 30
0.0
 40
16.5
 50
270.0000000000187
 51
89.999999999993491
  0
LINE
  5
4B
  8
0
 10
266.5
 20
100.0
 30
0.0
 11
233.5
 21
100.0
 31
0.0
  0
LINE
  5
4C
  8
0
 10
232.5
 20
101.0
 30
0.0
 11
232.5
 21
103.0
 31
0.0
  0
LINE
  5
4D
  8
0
 10
293.0
 20
103.0
 30
0.0
 11
207.0
 21
103.0
 31
0.0
  0
LINE
  5
4E
  8
0
 10
207.0
 20
103.0
 30
0.0
 11
207.0
 21
116.0
 31
0.0
  0
LINE
  5
4F
  8
0
 10
242.0
 20
142.0
 30
0.0
 11
216.4632260909213
 21
142.00000000000011
 31
0.0
  0
LINE
  5
50
  8
0
 10
207.0
 20
116.0
 30
0.0
 11
292.99999999999989
 21
116.0
 31
0.0
  0
ARC
  5
51
  8
0
 10
110.5000000000001
 20
163.5
 30
0.0
 40
16.5
 50
70.000000000311829
 51
249.99999999970191
  0
LINE
  5
52
  8
0
 10
207.0
 20
116.0
 30
0.0
 11
216.4632260909213
 21
142.00000000000011
 31
0.0
  0
ARC
  5
53
  8
0
 10
114.7286167935378
 20
161.960909355034
 30
0.0
 40
33.0
 50
322.36029860576281
 51
357.6397013942356
  0
ARC
  5
54
  8
0
 10
139.59598442385499
 20
242.3000550243674
 30
0.0
 40
100.5
 50
249.77761442842501
 51
270.72076714940852
  0
ARC
  5
55
  8
0
 10
82.137118172688986
 20
84.433117451827485
 30
0.0
 40
100.5
 50
49.279232850591178
 51
70.222385571573213
  0
LINE
  5
56
  8
0
 10
208.36456845974379
 20
119.7491210304462
 30
0.0
 11
142.28253208028309
 21
143.8010152922669
 31
0.0
  0
LINE
  5
57
  8
0
 10
147.58612112895281
 20
158.897511103385
 30
0.0
 11
213.83689075295459
 21
134.78420296302059
 31
0.0
  0
LINE
  5
58
  8
0
 10
352.41387887104668
 20
158.89751110338469
 30
0.0
 11
286.16310924704538
 21
134.78420296302059
 31
0.0
  0
LINE
  5
59
  8
0
 10
291.63543154025609
 20
119.7491210304462
 30
0.0
 11
357.7174679197185
 21
143.80101529226741
 31
0.0
  0
ARC
  5
5A
  8
0
 10
417.86288182731101
 20
84.433117451827542
 30
0.0
 40
100.5
 50
109.7776144284268
 51
130.7207671494088
  0
ARC
  5
5B
  8
0
 10
360.40401557614513
 20
242.3000550243674
 30
0.0
 40
100.5
 50
269.2792328505916
 51
290.22238557157499
  0
ARC
  5
5C
  8
0
 10
385.2713832064623
 20
161.960909355034
 30
0.0
 40
33.0
 50
182.36029860576431
 51
217.63970139423731
  0
LINE
  5
5D
  8
0
 10
293.0
 20
116.0
 30
0.0
 11
283.53677390907859
 21
142.00000000000011
 31
0.0
  0
ARC
  5
5E
  8
0
 10
389.5
 20
163.5
 30
0.0
 40
16.5
 50
290.00000000029809
 51
109.9999999996882
  0
LINE
  5
5F
  8
0
 10
293.0
 20
103.0
 30
0.0
 11
293.0
 21
116.0
 31
0.0
  0
LINE
  5
60
  8
0
 10
267.5
 20
101.0
 30
0.0
 11
267.5
 21
103.0
 31
0.0
  0
CIRCLE
  5
61
  8
0
 10
250.0
 20
439.62841151459349
 30
0.0
 40
5.0
  0
CIRCLE
  5
62
  8
0
 10
250.0
 20
439.62841151459349
 30
0.0
 40
16.5
  0
CIRCLE
  5
63
  8
0
 10
250.0
 20
439.62841151459349
 30
0.0
 40
33.536773909078647
  0
ARC
  5
64
  8
0
 10
250.0
 20
439.62841151459349
 30
0.0
 40
43.0
 50
10.7221524155396
 51
79.277847584462805
  0
LINE
  5
65
  8
1
 10
250.0
 20
195.00000000000259
 30
0.0
 11
250.0
 21
85.0
 31
0.0
  0
LINE
  5
66
  8
1
 10
250.0
 20
439.62841151459349
 30
0.0
 11
78.999999999999432
 21
439.62841151459349
 31
0.0
  0
LINE
  5
67
  8
1
 10
250.0
 20
610.62841151459429
 30
0.0
 11
250.0
 21
268.62841151459298
 31
0.0
  0
LINE
  5
68
  8
1
 10
250.0
 20
439.62841151459349
 30
0.0
 11
421.0
 21
439.62841151459349
 31
0.0
  0
LINE
  5
69
  8
1
 10
418.97551268601239
 20
174.6105423763515
 30
0.0
 11
282.89576680888348
 21
125.0815653905678
 31
0.0
  0
LINE
  5
6A
  8
1
 10
81.024487313987436
 20
174.61054237635179
 30
0.0
 11
218.05897123704099
 21
124.7340691603298
 31
0.0
  0
ARC
  5
6B
  8
0
 10
333.98726366783848
 20
298.52846134352001
 30
0.0
 40
100.5
 50
159.25993892563281
 51
178.7294863740324
  0
ARC
  5
6C
  8
0
 10
166.01273633215749
 20
298.52846134352012
 30
0.0
 40
100.5
 50
1.270513625961369
 51
20.740061074367979
  0
ARC
  5
6D
  8
0
 10
249.99999999999801
 20
300.12841151459259
 30
0.0
 40
16.5
 50
177.81730463390861
 51
2.182695366091346
  0
ARC
  5
6E
  8
0
 10
249.99999999999801
 20
321.62841151459259
 30
0.0
 40
16.0
 50
51.317812546510517
 51
128.68218745348941
  0
LINE
  5
6F
  8
0
 10
241.99999999999821
 20
401.32170872809809
 30
0.0
 11
241.99999999999821
 21
335.48481797514359
 31
0.0
  0
LINE
  5
70
  8
0
 10
257.99999999999818
 20
335.48481797514359
 30
0.0
 11
257.99999999999818
 21
401.32170872809809
 31
0.0
  0
ARC
  5
71
  8
0
 10
249.99999999999821
 20
387.4653022675472
 30
0.0
 40
16.0
 50
59.999999999999858
 51
120.0000000000001
  0
ARC
  5
72
  8
0
 10
333.98726366783848
 20
580.72836168566675
 30
0.0
 40
100.5
 50
181.2705136259635
 51
200.74006107436719
  0
LINE
  5
73
  8
0
 10
241.99999999999821
 20
477.9351143010889
 30
0.0
 11
241.99999999999821
 21
543.77200505404335
 31
0.0
  0
ARC
  5
74
  8
0
 10
249.99999999999821
 20
491.7915207616399
 30
0.0
 40
16.0
 50
239.99999999999989
 51
300.00000000000011
  0
LINE
  5
75
  8
0
 10
257.99999999999818
 20
543.77200505404335
 30
0.0
 11
257.99999999999818
 21
477.9351143010889
 31
0.0
  0
ARC
  5
76
  8
0
 10
249.9999999999981
 20
557.62841151459418
 30
0.0
 40
16.0
 50
231.31781254651059
 51
308.68218745348952
  0
ARC
  5
77
  8
0
 10
166.0127363321576
 20
580.72836168566675
 30
0.0
 40
100.5
 50
339.25993892563281
 51
358.72948637403641
  0
ARC
  5
78
  8
0
 10
249.9999999999981
 20
579.12841151459418
 30
0.0
 40
16.5
 50
357.81730463390858
 51
182.18269536609131
  0
ARC
  5
79
  8
0
 10
250.0
 20
439.62841151459349
 30
0.0
 40
43.0
 50
280.72215241553721
 51
349.2778475844604
  0
ARC
  5
7A
  8
0
 10
250.0
 20
439.62841151459349
 30
0.0
 40
43.0
 50
100.7221524155437
 51
169.2778475844604
  0
ARC
  5
7B
  8
0
 10
250.0
 20
163.50000000000171
 30
0.0
 40
16.5
 50
332.33502028188968
 51
207.66501290139939
  0
ARC
  5
7C
  8
0
 10
250.0
 20
131.74912103044599
 30
0.0
 40
12.0
 50
228.18968510421121
 51
311.8103148957847
  0
ARC
  5
7D
  8
0
 10
250.0
 20
153.80800700004079
 30
0.0
 40
12.0
 50
207.6649797180942
 51
332.3350202818927
  0
LINE
  5
7E
  8
0
 10
242.0
 20
122.8048491204468
 30
0.0
 11
242.0
 21
144.86373509004159
 31
0.0
  0
LINE
  5
7F
  8
0
 10
239.37186903106519
 20
148.23639752815831
 30
0.0
 11
239.37186903106519
 21
148.2368246963301
 31
0.0
  0
LINE
  5
80
  8
0
 10
235.3863243546221
 20
155.8390285125391
 30
0.0
 11
239.37186903106519
 21
148.23639752815831
 31
0.0
  0
LINE
  5
81
  8
0
 10
257.99999999999989
 20
142.0
 30
0.0
 11
283.53677390907859
 21
142.00000000000011
 31
0.0
  0
LINE
  5
82
  8
2
 10
245.0
 20
138.0
 30
0.0
 11
245.0
 21
100.0
 31
0.0
  0
LINE
  5
83
  8
2
 10
233.5
 20
138.0
 30
0.0
 11
233.5
 21
142.00000000000011
 31
0.0
  0
LINE
  5
84
  8
2
 10
232.5
 20
138.0
 30
0.0
 11
232.5
 21
103.0
 31
0.0
  0
LINE
  5
85
  8
0
 10
264.6136756453779
 20
155.8390285125391
 30
0.0
 11
260.62813096893478
 21
148.23639752815831
 31
0.0
  0
LINE
  5
86
  8
0
 10
258.0
 20
122.8048491204468
 30
0.0
 11
258.0
 21
144.86373509004159
 31
0.0
  0
TEXT
  5
271
  8
0
 62
     3
 10
0.0
 20
0.0
 30
0.0
 40
10.0
  1
FA310
  7
STANDARD1
  0
ENDSEC
  0
EOF
