  0
SECTION
  2
HEADER
  9
$ACADVER
  1
AC1009
  9
$INSBASE
 10
0.0
 20
0.0
 30
0.0
  9
$EXTMIN
 10
0.0
 20
-2.960436562073669
 30
0.0
  9
$EXTMAX
 10
402.0
 20
621.62841151459327
 30
0.0
  9
$LIMMIN
 10
0.0
 20
0.0
  9
$LIMMAX
 10
1125.0
 20
810.0
  9
$ORTHOMODE
 70
     1
  9
$REGENMODE
 70
     1
  9
$FILLMODE
 70
     1
  9
$QTEXTMODE
 70
     0
  9
$MIRRTEXT
 70
     0
  9
$DRAGMODE
 70
     2
  9
$LTSCALE
 40
30.0
  9
$OSMODE
 70
    37
  9
$ATTMODE
 70
     1
  9
$TEXTSIZE
 40
0.2
  9
$TRACEWID
 40
0.05
  9
$TEXTSTYLE
  7
STANDARD
  9
$CLAYER
  8
0
  9
$CELTYPE
  6
BYLAYER
  9
$CECOLOR
 62
   256
  9
$DIMSCALE
 40
3.0
  9
$DIMASZ
 40
3.0
  9
$DIMEXO
 40
2.0
  9
$DIMDLI
 40
0.3799999999999999
  9
$DIMRND
 40
0.0
  9
$DIMDLE
 40
0.0
  9
$DIMEXE
 40
2.0
  9
$DIMTP
 40
0.0
  9
$DIMTM
 40
0.0
  9
$DIMTXT
 40
3.2000000000000002
  9
$DIMCEN
 40
0.09
  9
$DIMTSZ
 40
0.0
  9
$DIMTOL
 70
     0
  9
$DIMLIM
 70
     0
  9
$DIMTIH
 70
     0
  9
$DIMTOH
 70
     0
  9
$DIMSE1
 70
     0
  9
$DIMSE2
 70
     0
  9
$DIMTAD
 70
     1
  9
$DIMZIN
 70
     0
  9
$DIMBLK
  1

  9
$DIMASO
 70
     1
  9
$DIMSHO
 70
     0
  9
$DIMPOST
  1

  9
$DIMAPOST
  1

  9
$DIMALT
 70
     0
  9
$DIMALTD
 70
     2
  9
$DIMALTF
 40
25.399999999999999
  9
$DIMLFAC
 40
1.0
  9
$DIMTOFL
 70
     0
  9
$DIMTVP
 40
1.6000000000000001
  9
$DIMTIX
 70
     1
  9
$DIMSOXD
 70
     0
  9
$DIMSAH
 70
     0
  9
$DIMBLK1
  1

  9
$DIMBLK2
  1

  9
$DIMSTYLE
  2
STANDARD
  9
$DIMCLRD
 70
     0
  9
$DIMCLRE
 70
     0
  9
$DIMCLRT
 70
     0
  9
$DIMTFAC
 40
1.0
  9
$DIMGAP
 40
0.09
  9
$LUNITS
 70
     2
  9
$LUPREC
 70
     4
  9
$SKETCHINC
 40
0.1
  9
$FILLETRAD
 40
0.0
  9
$AUNITS
 70
     0
  9
$AUPREC
 70
     0
  9
$MENU
  1
E:\r13\win\SUPPORT\ACAD
  9
$ELEVATION
 40
0.0
  9
$PELEVATION
 40
0.0
  9
$THICKNESS
 40
0.0
  9
$LIMCHECK
 70
     0
  9
$BLIPMODE
 70
     0
  9
$CHAMFERA
 40
0.0
  9
$CHAMFERB
 40
0.0
  9
$SKPOLY
 70
     0
  9
$TDCREATE
 40
2449839.781238426
  9
$TDUPDATE
 40
2457064.5690554278
  9
$TDINDWG
 40
0.0054203704
  9
$TDUSRTIMER
 40
0.0054203704
  9
$USRTIMER
 70
     1
  9
$ANGBASE
 50
0.0
  9
$ANGDIR
 70
     0
  9
$PDMODE
 70
     0
  9
$PDSIZE
 40
0.0
  9
$PLINEWID
 40
0.0
  9
$COORDS
 70
     1
  9
$SPLFRAME
 70
     0
  9
$SPLINETYPE
 70
     6
  9
$SPLINESEGS
 70
     8
  9
$ATTDIA
 70
     0
  9
$ATTREQ
 70
     1
  9
$HANDLING
 70
     1
  9
$HANDSEED
  5
3FA
  9
$SURFTAB1
 70
     6
  9
$SURFTAB2
 70
     6
  9
$SURFTYPE
 70
     6
  9
$SURFU
 70
     6
  9
$SURFV
 70
     6
  9
$UCSNAME
  2

  9
$UCSORG
 10
0.0
 20
0.0
 30
0.0
  9
$UCSXDIR
 10
1.0
 20
0.0
 30
0.0
  9
$UCSYDIR
 10
0.0
 20
1.0
 30
0.0
  9
$PUCSNAME
  2

  9
$PUCSORG
 10
0.0
 20
0.0
 30
0.0
  9
$PUCSXDIR
 10
1.0
 20
0.0
 30
0.0
  9
$PUCSYDIR
 10
0.0
 20
1.0
 30
0.0
  9
$USERI1
 70
     0
  9
$USERI2
 70
     1
  9
$USERI3
 70
     1
  9
$USERI4
 70
     0
  9
$USERI5
 70
     0
  9
$USERR1
 40
0.0
  9
$USERR2
 40
0.0
  9
$USERR3
 40
0.0
  9
$USERR4
 40
0.0
  9
$USERR5
 40
0.0
  9
$WORLDVIEW
 70
     1
  9
$SHADEDGE
 70
     3
  9
$SHADEDIF
 70
    70
  9
$TILEMODE
 70
     1
  9
$MAXACTVP
 70
    16
  9
$PLIMCHECK
 70
     0
  9
$PEXTMIN
 10
1.0000000000000000E+020
 20
1.0000000000000000E+020
 30
1.0000000000000000E+020
  9
$PEXTMAX
 10
-1.0000000000000000E+020
 20
-1.0000000000000000E+020
 30
-1.0000000000000000E+020
  9
$PLIMMIN
 10
0.0
 20
0.0
  9
$PLIMMAX
 10
12.0
 20
9.0
  9
$UNITMODE
 70
     0
  9
$VISRETAIN
 70
     0
  9
$PLINEGEN
 70
     0
  9
$PSLTSCALE
 70
     0
  0
ENDSEC
  0
SECTION
  2
TABLES
  0
TABLE
  2
VPORT
 70
     1
  0
VPORT
  2
*ACTIVE
 70
     0
 10
0.0
 20
0.0
 11
1.0
 21
1.0
 12
567.2809457579973
 22
325.0
 13
0.0
 23
0.0
 14
30.0
 24
30.0
 15
30.0
 25
30.0
 16
0.0
 26
0.0
 36
1.0
 17
0.0
 27
0.0
 37
0.0
 40
650.0
 41
1.74547983310153
 42
50.0
 43
0.0
 44
0.0
 50
0.0
 51
0.0
 71
     0
 72
   500
 73
     1
 74
     0
 75
     0
 76
     0
 77
     0
 78
     2
  0
ENDTAB
  0
TABLE
  2
LTYPE
 70
     4
  0
LTYPE
  2
CONTINUOUS
 70
     0
  3
Solid Line
 72
    65
 73
     0
 40
0.0
  0
LTYPE
  2
CENTER
 70
     0
  3
____ _ ____ _ ____ _ ____ _ ____ _ ____ _ ____
 72
    65
 73
     4
 40
2.0
 49
1.25
 49
-0.25
 49
0.25
 49
-0.25
  0
LTYPE
  2
HIDDEN
 70
     0
  3
_ _ _ _ _ _ _ _ _ _ _ _ _ _ _ _ _ _ _ _ _ _ _
 72
    65
 73
     2
 40
0.375
 49
0.25
 49
-0.125
  0
LTYPE
  2
PHANTOM2
 70
     0
  3
___ _ _ ___ _ _ ___ _ _ ___ _ _
 72
    65
 73
     6
 40
1.25
 49
0.625
 49
-0.125
 49
0.125
 49
-0.125
 49
0.125
 49
-0.125
  0
ENDTAB
  0
TABLE
  2
LAYER
 70
     3
  0
LAYER
  2
0
 70
     0
 62
     7
  6
CONTINUOUS
  0
LAYER
  2
1
 70
     0
 62
     1
  6
CENTER
  0
LAYER
  2
2
 70
     0
 62
     2
  6
HIDDEN
  0
ENDTAB
  0
TABLE
  2
STYLE
 70
     2
  0
STYLE
  2
STANDARD
 70
     0
 40
0.0
 41
1.0
 50
0.0
 71
     0
 42
0.2
  3
TXT
  4
BIGFONT
  0
STYLE
  2
STANDARD1
 70
     0
 40
0.0
 41
1.0
 50
0.0
 71
     0
 42
3.0
  3
txt
  4

  0
ENDTAB
  0
TABLE
  2
VIEW
 70
     1
  0
VIEW
  2
ALL
 70
     0
 40
810.0
 10
662.97478991596643
 20
405.0
 41
0.0
 11
0.0
 21
0.0
 31
1.0
 12
0.0
 22
0.0
 32
0.0
 42
0.0
 43
0.0
 44
0.0
 50
0.0
 71
     0
  0
ENDTAB
  0
TABLE
  2
UCS
 70
     0
  0
ENDTAB
  0
TABLE
  2
APPID
 70
     4
  0
APPID
  2
ACAD
 70
     0
  0
APPID
  2
ACAD_MLEADERVER
 70
     0
  0
APPID
  2
ACAD_EXEMPT_FROM_CAD_STANDARDS
 70
     0
  0
APPID
  2
ACAD_NAV_VCDISPLAY
 70
     0
  0
ENDTAB
  0
TABLE
  2
DIMSTYLE
 70
     1
  0
DIMSTYLE
  2
STANDARD
 70
     0
  3

  4

  5

  6

  7

 40
1.0
 41
0.18
 42
0.0625
 43
0.38
 44
0.18
 45
0.0
 46
0.0
 47
0.0
 48
0.0
140
0.18
141
0.09
142
0.0
143
25.399999999999999
144
1.0
145
0.0
146
1.0
147
0.09
 71
     0
 72
     0
 73
     1
 74
     1
 75
     0
 76
     0
 77
     0
 78
     0
170
     0
171
     2
172
     0
173
     0
174
     0
175
     0
176
     0
177
     0
178
     0
  0
ENDTAB
  0
ENDSEC
  0
SECTION
  2
BLOCKS
  0
BLOCK
  8
0
  2
$MODEL_SPACE
 70
     0
 10
0.0
 20
0.0
 30
0.0
  3
$MODEL_SPACE
  1

  0
ENDBLK
  5
145
  8
0
  0
BLOCK
 67
     1
  8
0
  2
$PAPER_SPACE
 70
     0
 10
0.0
 20
0.0
 30
0.0
  3
$PAPER_SPACE
  1

  0
ENDBLK
  5
143
 67
     1
  8
0
  0
ENDSEC
  0
SECTION
  2
ENTITIES
  0
LINE
  5
35
  8
0
 10
232.5
 20
101.0
 30
0.0
 11
267.5
 21
101.0
 31
0.0
  0
LINE
  5
36
  8
0
 10
233.5
 20
100.0
 30
0.0
 11
232.5
 21
101.0
 31
0.0
  0
LINE
  5
37
  8
2
 10
267.5
 20
138.0
 30
0.0
 11
232.5
 21
138.0
 31
0.0
  0
LINE
  5
38
  8
2
 10
255.0
 20
138.0
 30
0.0
 11
255.0
 21
100.0
 31
0.0
  0
LINE
  5
39
  8
0
 10
267.5
 20
101.0
 30
0.0
 11
266.5
 21
100.0
 31
0.0
  0
LINE
  5
3A
  8
2
 10
266.5
 20
138.0
 30
0.0
 11
266.5
 21
142.00000000000011
 31
0.0
  0
LINE
  5
3B
  8
2
 10
267.5
 20
138.0
 30
0.0
 11
267.5
 21
103.0
 31
0.0
  0
ARC
  5
3C
  8
0
 10
250.0
 20
469.62841151459349
 30
0.0
 40
43.0
 50
190.7221524155396
 51
259.27784758445938
  0
ARC
  5
3D
  8
0
 10
129.5000000000002
 20
469.62841151459349
 30
0.0
 40
16.5
 50
87.817304633907028
 51
272.18269536609301
  0
ARC
  5
3E
  8
0
 10
151.0000000000002
 20
469.62841151459349
 30
0.0
 40
16.0
 50
321.31781254651099
 51
38.682187453488972
  0
ARC
  5
3F
  8
0
 10
127.90004982892761
 20
553.61567518243385
 30
0.0
 40
100.5
 50
271.27051362596143
 51
290.74006107436679
  0
ARC
  5
40
  8
0
 10
127.90004982892761
 20
385.64114784675297
 30
0.0
 40
100.5
 50
69.25993892563325
 51
88.729486374034536
  0
ARC
  5
41
  8
0
 10
197.8368907529545
 20
469.62841151459349
 30
0.0
 40
16.0
 50
329.99999999999949
 51
30.000000000000551
  0
LINE
  5
42
  8
0
 10
211.6932972135055
 20
461.62841151459349
 30
0.0
 11
164.85640646055151
 21
461.62841151459349
 31
0.0
  0
LINE
  5
43
  8
0
 10
164.85640646055151
 20
477.62841151459349
 30
0.0
 11
211.6932972135055
 21
477.62841151459349
 31
0.0
  0
LINE
  5
44
  8
0
 10
335.14359353944889
 20
477.62841151459349
 30
0.0
 11
288.3067027864945
 21
477.62841151459349
 31
0.0
  0
LINE
  5
45
  8
0
 10
288.3067027864945
 20
461.62841151459349
 30
0.0
 11
335.14359353944889
 21
461.62841151459349
 31
0.0
  0
ARC
  5
46
  8
0
 10
302.1631092470455
 20
469.62841151459349
 30
0.0
 40
16.0
 50
149.9999999999994
 51
210.00000000000051
  0
ARC
  5
47
  8
0
 10
372.09995017107258
 20
385.64114784675297
 30
0.0
 40
100.5
 50
91.270513625965492
 51
110.74006107436669
  0
ARC
  5
48
  8
0
 10
372.09995017107258
 20
553.61567518243385
 30
0.0
 40
100.5
 50
249.25993892563321
 51
268.72948637403857
  0
ARC
  5
49
  8
0
 10
349.0
 20
469.62841151459349
 30
0.0
 40
16.0
 50
141.31781254651099
 51
218.68218745348889
  0
ARC
  5
4A
  8
0
 10
370.5
 20
469.62841151459349
 30
0.0
 40
16.5
 50
267.81730463390699
 51
92.182695366092958
  0
LINE
  5
4B
  8
0
 10
266.5
 20
100.0
 30
0.0
 11
233.5
 21
100.0
 31
0.0
  0
LINE
  5
4C
  8
0
 10
232.5
 20
101.0
 30
0.0
 11
232.5
 21
103.0
 31
0.0
  0
LINE
  5
4D
  8
0
 10
293.0
 20
103.0
 30
0.0
 11
207.0
 21
103.0
 31
0.0
  0
LINE
  5
4E
  8
0
 10
207.0
 20
103.0
 30
0.0
 11
207.0
 21
116.0
 31
0.0
  0
LINE
  5
4F
  8
0
 10
283.53677390907859
 20
142.00000000000011
 30
0.0
 11
260.5008120965694
 21
142.00000000000011
 31
0.0
  0
LINE
  5
50
  8
0
 10
207.0
 20
116.0
 30
0.0
 11
293.0
 21
116.0
 31
0.0
  0
LINE
  5
51
  8
0
 10
207.0
 20
116.0
 30
0.0
 11
216.4632260909213
 21
142.00000000000011
 31
0.0
  0
LINE
  5
52
  8
0
 10
208.36456845974379
 20
119.7491210304462
 30
0.0
 11
160.7844070726762
 21
137.06688351692139
 31
0.0
  0
LINE
  5
53
  8
0
 10
166.49201528804721
 20
152.01632837728721
 30
0.0
 11
213.83689075295459
 21
134.78420296302059
 31
0.0
  0
LINE
  5
54
  8
0
 10
333.50798471195321
 20
152.01632837728729
 30
0.0
 11
286.16310924704538
 21
134.78420296302059
 31
0.0
  0
LINE
  5
55
  8
0
 10
291.63543154025609
 20
119.7491210304462
 30
0.0
 11
339.21559292732439
 21
137.06688351692151
 31
0.0
  0
ARC
  5
56
  8
0
 10
398.86288182731113
 20
78.433117451827314
 30
0.0
 40
100.5
 50
109.7776144284268
 51
130.7207671494088
  0
ARC
  5
57
  8
0
 10
341.40401557614513
 20
236.3000550243672
 30
0.0
 40
100.5
 50
269.2792328505916
 51
290.22238557157499
  0
ARC
  5
58
  8
0
 10
366.2713832064623
 20
155.96090935503381
 30
0.0
 40
33.0
 50
182.36029860576431
 51
217.63970139423731
  0
LINE
  5
59
  8
0
 10
293.0
 20
116.0
 30
0.0
 11
283.53677390907859
 21
142.00000000000011
 31
0.0
  0
ARC
  5
5A
  8
0
 10
370.5
 20
157.4999999999998
 30
0.0
 40
16.5
 50
290.00000000029809
 51
109.9999999996882
  0
LINE
  5
5B
  8
0
 10
293.0
 20
103.0
 30
0.0
 11
293.0
 21
116.0
 31
0.0
  0
LINE
  5
5C
  8
0
 10
267.5
 20
101.0
 30
0.0
 11
267.5
 21
103.0
 31
0.0
  0
CIRCLE
  5
5D
  8
0
 10
250.0
 20
469.62841151459349
 30
0.0
 40
5.0
  0
CIRCLE
  5
5E
  8
0
 10
250.0
 20
469.62841151459349
 30
0.0
 40
16.5
  0
CIRCLE
  5
5F
  8
0
 10
250.0
 20
469.62841151459349
 30
0.0
 40
33.536773909078647
  0
ARC
  5
60
  8
0
 10
250.0
 20
469.62841151459349
 30
0.0
 40
43.0
 50
10.7221524155396
 51
79.277847584459437
  0
LINE
  5
61
  8
1
 10
250.0
 20
189.0000000000006
 30
0.0
 11
250.0
 21
85.0
 31
0.0
  0
LINE
  5
62
  8
1
 10
250.00000000000011
 20
621.62841151459327
 30
0.0
 11
250.0
 21
317.62841151459349
 31
0.0
  0
LINE
  5
63
  8
1
 10
98.000000000000682
 20
469.62841151459349
 30
0.0
 11
402.0
 21
469.62841151459349
 31
0.0
  0
LINE
  5
64
  8
1
 10
400.26790964041891
 20
167.801531713288
 30
0.0
 11
282.89576680888348
 21
125.0815653905678
 31
0.0
  0
ARC
  5
65
  8
0
 10
133.72861679353761
 20
155.96090935503381
 30
0.0
 40
33.0
 50
322.36029860576281
 51
357.6397013942356
  0
ARC
  5
66
  8
0
 10
158.5959844238549
 20
236.3000550243672
 30
0.0
 40
100.5
 50
249.77761442842501
 51
270.72076714940852
  0
ARC
  5
67
  8
0
 10
101.1371181726888
 20
78.433117451827371
 30
0.0
 40
100.5
 50
49.279232850591178
 51
70.222385571573213
  0
ARC
  5
68
  8
0
 10
129.49999999999989
 20
157.4999999999998
 30
0.0
 40
16.5
 50
70.000000000311829
 51
249.99999999970191
  0
ARC
  5
69
  8
0
 10
333.9872636678403
 20
347.52846134352092
 30
0.0
 40
100.5
 50
159.25993892563281
 51
178.72948637404059
  0
ARC
  5
6A
  8
0
 10
249.99999999999989
 20
349.12841151459349
 30
0.0
 40
16.5
 50
177.81730463390861
 51
2.182695366091346
  0
ARC
  5
6B
  8
0
 10
166.01273633215939
 20
347.52846134352092
 30
0.0
 40
100.5
 50
1.2705136259635741
 51
20.740061074367979
  0
ARC
  5
6C
  8
0
 10
249.99999999999989
 20
370.62841151459349
 30
0.0
 40
16.0
 50
51.317812546510517
 51
128.68218745348941
  0
LINE
  5
6D
  8
0
 10
257.99999999999989
 20
384.48481797514461
 30
0.0
 11
257.99999999999989
 21
431.321708728099
 31
0.0
  0
LINE
  5
6E
  8
0
 10
241.99999999999989
 20
431.321708728099
 30
0.0
 11
241.99999999999989
 21
384.48481797514461
 31
0.0
  0
ARC
  5
6F
  8
0
 10
249.99999999999989
 20
417.465302267548
 30
0.0
 40
16.0
 50
59.999999999999858
 51
120.0000000000001
  0
ARC
  5
70
  8
0
 10
249.99999999999989
 20
521.79152076163882
 30
0.0
 40
16.0
 50
239.99999999999989
 51
300.00000000000011
  0
LINE
  5
71
  8
0
 10
241.99999999999989
 20
507.93511430108788
 30
0.0
 11
242.0
 21
554.77200505404244
 31
0.0
  0
LINE
  5
72
  8
0
 10
258.0
 20
554.77200505404244
 30
0.0
 11
257.99999999999989
 21
507.93511430108788
 31
0.0
  0
ARC
  5
73
  8
0
 10
250.0
 20
568.62841151459338
 30
0.0
 40
16.0
 50
231.31781254651059
 51
308.68218745348952
  0
ARC
  5
74
  8
0
 10
166.01273633215939
 20
591.72836168566585
 30
0.0
 40
100.5
 50
339.25993892563281
 51
358.72948637403448
  0
ARC
  5
75
  8
0
 10
250.0
 20
590.12841151459338
 30
0.0
 40
16.5
 50
357.81730463390858
 51
182.18269536609131
  0
ARC
  5
76
  8
0
 10
333.9872636678403
 20
591.72836168566585
 30
0.0
 40
100.5
 50
181.27051362595941
 51
200.74006107436719
  0
ARC
  5
77
  8
0
 10
250.0
 20
469.62841151459349
 30
0.0
 40
43.0
 50
280.72215241554051
 51
349.2778475844604
  0
ARC
  5
78
  8
0
 10
250.0
 20
469.62841151459349
 30
0.0
 40
43.0
 50
100.72215241554051
 51
169.2778475844604
  0
ARC
  5
79
  8
0
 10
250.0
 20
157.50000000000091
 30
0.0
 40
16.5
 50
332.33499681775493
 51
207.66497971810659
  0
ARC
  5
7A
  8
0
 10
250.0
 20
147.80800700004289
 30
0.0
 40
12.0
 50
331.05298591915761
 51
332.33502028188241
  0
ARC
  5
7B
  8
0
 10
250.0
 20
131.74912103044619
 30
0.0
 40
12.0
 50
228.1896851042203
 51
311.81031489577612
  0
LINE
  5
7C
  8
0
 10
242.0
 20
122.804849120447
 30
0.0
 11
242.0
 21
138.86373509004699
 31
0.0
  0
LINE
  5
7D
  8
0
 10
239.37186459416111
 20
142.2364059917831
 30
0.0
 11
235.38631991770939
 21
149.83903697616029
 31
0.0
  0
ARC
  5
7E
  8
0
 10
250.0
 20
147.80800700004289
 30
0.0
 40
12.0
 50
207.66493409109739
 51
331.05298591915181
  0
LINE
  5
7F
  8
2
 10
233.5
 20
138.0
 30
0.0
 11
233.5
 21
142.00000000000011
 31
0.0
  0
LINE
  5
80
  8
2
 10
232.5
 20
138.0
 30
0.0
 11
232.5
 21
103.0
 31
0.0
  0
LINE
  5
81
  8
2
 10
245.0
 20
138.0
 30
0.0
 11
245.0
 21
100.0
 31
0.0
  0
LINE
  5
82
  8
1
 10
99.732090359581846
 20
167.8015317132876
 30
0.0
 11
217.10423319111649
 21
125.0815653905678
 31
0.0
  0
LINE
  5
83
  8
0
 10
258.0
 20
122.804849120447
 30
0.0
 11
258.0
 21
138.86373509004699
 31
0.0
  0
LINE
  5
84
  8
0
 10
260.6281354058388
 20
142.2364059917831
 30
0.0
 11
264.61368008229027
 21
149.83903697616029
 31
0.0
  0
LINE
  5
85
  8
0
 10
239.49918790343051
 20
142.00000000000011
 30
0.0
 11
216.4632260909213
 21
142.00000000000011
 31
0.0
  0
TEXT
  5
270
  8
0
 62
     3
 10
0.0
 20
0.0
 30
0.0
 40
10.0
  1
FA270
  7
STANDARD1
  0
ENDSEC
  0
EOF
