  0
SECTION
  2
HEADER
  9
$ACADVER
  1
AC1009
  9
$INSBASE
 10
0.0
 20
0.0
 30
0.0
  9
$EXTMIN
 10
0.0
 20
-2.960436562073669
 30
0.0
  9
$EXTMAX
 10
135.08867667121419
 20
135.20004442655869
 30
0.0
  9
$LIMMIN
 10
0.0
 20
0.0
  9
$LIMMAX
 10
187.5
 20
135.0
  9
$ORTHOMODE
 70
     1
  9
$REGENMODE
 70
     1
  9
$FILLMODE
 70
     1
  9
$QTEXTMODE
 70
     0
  9
$MIRRTEXT
 70
     0
  9
$DRAGMODE
 70
     2
  9
$LTSCALE
 40
5.0
  9
$OSMODE
 70
    37
  9
$ATTMODE
 70
     1
  9
$TEXTSIZE
 40
0.2
  9
$TRACEWID
 40
0.05
  9
$TEXTSTYLE
  7
STANDARD
  9
$CLAYER
  8
0
  9
$CELTYPE
  6
BYLAYER
  9
$CECOLOR
 62
     6
  9
$DIMSCALE
 40
1.0
  9
$DIMASZ
 40
3.0
  9
$DIMEXO
 40
2.0
  9
$DIMDLI
 40
0.3799999999999999
  9
$DIMRND
 40
0.0
  9
$DIMDLE
 40
0.0
  9
$DIMEXE
 40
2.0
  9
$DIMTP
 40
0.0
  9
$DIMTM
 40
0.0
  9
$DIMTXT
 40
3.2000000000000002
  9
$DIMCEN
 40
0.09
  9
$DIMTSZ
 40
0.0
  9
$DIMTOL
 70
     0
  9
$DIMLIM
 70
     0
  9
$DIMTIH
 70
     0
  9
$DIMTOH
 70
     0
  9
$DIMSE1
 70
     0
  9
$DIMSE2
 70
     0
  9
$DIMTAD
 70
     1
  9
$DIMZIN
 70
     8
  9
$DIMBLK
  1

  9
$DIMASO
 70
     0
  9
$DIMSHO
 70
     0
  9
$DIMPOST
  1

  9
$DIMAPOST
  1

  9
$DIMALT
 70
     0
  9
$DIMALTD
 70
     2
  9
$DIMALTF
 40
25.399999999999999
  9
$DIMLFAC
 40
1.0
  9
$DIMTOFL
 70
     0
  9
$DIMTVP
 40
1.6000000000000001
  9
$DIMTIX
 70
     1
  9
$DIMSOXD
 70
     0
  9
$DIMSAH
 70
     0
  9
$DIMBLK1
  1

  9
$DIMBLK2
  1

  9
$DIMSTYLE
  2
STANDARD
  9
$DIMCLRD
 70
     0
  9
$DIMCLRE
 70
     0
  9
$DIMCLRT
 70
     0
  9
$DIMTFAC
 40
1.0
  9
$DIMGAP
 40
1.0
  9
$LUNITS
 70
     2
  9
$LUPREC
 70
     4
  9
$SKETCHINC
 40
0.1
  9
$FILLETRAD
 40
0.4
  9
$AUNITS
 70
     0
  9
$AUPREC
 70
     0
  9
$MENU
  1
E:\r13\win\SUPPORT\ACAD
  9
$ELEVATION
 40
0.0
  9
$PELEVATION
 40
0.0
  9
$THICKNESS
 40
0.0
  9
$LIMCHECK
 70
     0
  9
$BLIPMODE
 70
     0
  9
$CHAMFERA
 40
0.0
  9
$CHAMFERB
 40
0.0
  9
$SKPOLY
 70
     0
  9
$TDCREATE
 40
2456129.6740617128
  9
$TDUPDATE
 40
2459429.574151563
  9
$TDINDWG
 40
0.5143307755
  9
$TDUSRTIMER
 40
0.5143306019
  9
$USRTIMER
 70
     1
  9
$ANGBASE
 50
0.0
  9
$ANGDIR
 70
     0
  9
$PDMODE
 70
     0
  9
$PDSIZE
 40
0.0
  9
$PLINEWID
 40
0.0
  9
$COORDS
 70
     1
  9
$SPLFRAME
 70
     0
  9
$SPLINETYPE
 70
     6
  9
$SPLINESEGS
 70
     8
  9
$ATTDIA
 70
     0
  9
$ATTREQ
 70
     1
  9
$HANDLING
 70
     1
  9
$HANDSEED
  5
A86F
  9
$SURFTAB1
 70
     6
  9
$SURFTAB2
 70
     6
  9
$SURFTYPE
 70
     6
  9
$SURFU
 70
     6
  9
$SURFV
 70
     6
  9
$UCSNAME
  2

  9
$UCSORG
 10
0.0
 20
0.0
 30
0.0
  9
$UCSXDIR
 10
1.0
 20
0.0
 30
0.0
  9
$UCSYDIR
 10
0.0
 20
1.0
 30
0.0
  9
$PUCSNAME
  2

  9
$PUCSORG
 10
0.0
 20
0.0
 30
0.0
  9
$PUCSXDIR
 10
1.0
 20
0.0
 30
0.0
  9
$PUCSYDIR
 10
0.0
 20
1.0
 30
0.0
  9
$USERI1
 70
     0
  9
$USERI2
 70
     1
  9
$USERI3
 70
     0
  9
$USERI4
 70
     0
  9
$USERI5
 70
     0
  9
$USERR1
 40
0.0
  9
$USERR2
 40
0.0
  9
$USERR3
 40
0.0
  9
$USERR4
 40
0.0
  9
$USERR5
 40
0.0
  9
$WORLDVIEW
 70
     1
  9
$SHADEDGE
 70
     3
  9
$SHADEDIF
 70
    70
  9
$TILEMODE
 70
     1
  9
$MAXACTVP
 70
    16
  9
$PLIMCHECK
 70
     0
  9
$PEXTMIN
 10
1.0000000000000000E+020
 20
1.0000000000000000E+020
 30
1.0000000000000000E+020
  9
$PEXTMAX
 10
-1.0000000000000000E+020
 20
-1.0000000000000000E+020
 30
-1.0000000000000000E+020
  9
$PLIMMIN
 10
0.0
 20
0.0
  9
$PLIMMAX
 10
12.0
 20
9.0
  9
$UNITMODE
 70
     0
  9
$VISRETAIN
 70
     0
  9
$PLINEGEN
 70
     0
  9
$PSLTSCALE
 70
     0
  0
ENDSEC
  0
SECTION
  2
TABLES
  0
TABLE
  2
VPORT
 70
     1
  0
VPORT
  2
*ACTIVE
 70
     0
 10
0.0
 20
0.0
 11
1.0
 21
1.0
 12
135.5688017215592
 22
66.123818984323705
 13
0.0
 23
0.0
 14
5.0
 24
5.0
 15
5.0
 25
5.0
 16
0.0
 26
0.0
 36
1.0
 17
0.0
 27
0.0
 37
0.0
 40
139.36895908156509
 41
2.3805970149253728
 42
50.0
 43
0.0
 44
0.0
 50
0.0
 51
0.0
 71
     0
 72
   500
 73
     1
 74
     0
 75
     0
 76
     0
 77
     0
 78
     2
  0
ENDTAB
  0
TABLE
  2
LTYPE
 70
     3
  0
LTYPE
  2
CONTINUOUS
 70
     0
  3
Solid Line
 72
    65
 73
     0
 40
0.0
  0
LTYPE
  2
CENTER
 70
     0
  3
____ _ ____ _ ____ _ ____ _ ____ _ ____ _ ____
 72
    65
 73
     4
 40
2.0
 49
1.25
 49
-0.25
 49
0.25
 49
-0.25
  0
LTYPE
  2
PHANTOM2
 70
     0
  3
___ _ _ ___ _ _ ___ _ _ ___ _ _
 72
    65
 73
     6
 40
1.25
 49
0.625
 49
-0.125
 49
0.125
 49
-0.125
 49
0.125
 49
-0.125
  0
ENDTAB
  0
TABLE
  2
LAYER
 70
     4
  0
LAYER
  2
0
 70
     0
 62
     7
  6
CONTINUOUS
  0
LAYER
  2
1
 70
     0
 62
     1
  6
CENTER
  0
LAYER
  2
DEFPOINTS
 70
     0
 62
     7
  6
CONTINUOUS
  0
LAYER
  2
3
 70
     0
 62
     3
  6
CONTINUOUS
  0
ENDTAB
  0
TABLE
  2
STYLE
 70
     2
  0
STYLE
  2
STANDARD
 70
     0
 40
0.0
 41
1.0
 50
0.0
 71
     0
 42
0.2
  3
TXT
  4
BIGFONT
  0
STYLE
  2
STANDARD1
 70
     0
 40
0.0
 41
1.0
 50
0.0
 71
     0
 42
3.0
  3
txt
  4

  0
ENDTAB
  0
TABLE
  2
VIEW
 70
     0
  0
ENDTAB
  0
TABLE
  2
UCS
 70
     0
  0
ENDTAB
  0
TABLE
  2
APPID
 70
     7
  0
APPID
  2
ACAD
 70
     0
  0
APPID
  2
ACAD_MLEADERVER
 70
     0
  0
APPID
  2
ACAD_PSEXT
 70
     0
  0
APPID
  2
ACAD_EXEMPT_FROM_CAD_STANDARDS
 70
     0
  0
APPID
  2
ACAD_DSTYLE_DIMJAG
 70
     0
  0
APPID
  2
ACAD_DSTYLE_DIMTALN
 70
     0
  0
APPID
  2
ACAD_NAV_VCDISPLAY
 70
     0
  0
ENDTAB
  0
TABLE
  2
DIMSTYLE
 70
     1
  0
DIMSTYLE
  2
STANDARD
 70
     0
  3

  4

  5

  6

  7

 40
1.0
 41
0.18
 42
0.0625
 43
0.38
 44
0.18
 45
0.0
 46
0.0
 47
0.0
 48
0.0
140
0.18
141
0.09
142
0.0
143
25.399999999999999
144
1.0
145
0.0
146
1.0
147
0.09
 71
     0
 72
     0
 73
     1
 74
     1
 75
     0
 76
     0
 77
     0
 78
     0
170
     0
171
     2
172
     0
173
     0
174
     0
175
     0
176
     0
177
     0
178
     0
  0
ENDTAB
  0
ENDSEC
  0
SECTION
  2
BLOCKS
  0
BLOCK
  8
0
  2
$MODEL_SPACE
 70
     0
 10
0.0
 20
0.0
 30
0.0
  3
$MODEL_SPACE
  1

  0
ENDBLK
  5
9
  8
0
  0
BLOCK
 67
     1
  8
0
  2
$PAPER_SPACE
 70
     0
 10
0.0
 20
0.0
 30
0.0
  3
$PAPER_SPACE
  1

  0
ENDBLK
  5
E
 67
     1
  8
0
  0
ENDSEC
  0
SECTION
  2
ENTITIES
  0
TEXT
  5
9E1A
  8
0
 62
     3
 10
0.0
 20
0.0
 30
0.0
 40
10.0
  1
EWN40AX20SUS-BR
  7
STANDARD1
  0
ARC
  5
9F56
  8
0
 10
96.502543400617427
 20
88.494900702837299
 30
0.0
 40
6.2500000000000107
 50
35.997820554061747
 51
83.131382730463358
  0
ARC
  5
9F57
  8
0
 10
96.997456599382886
 20
88.494900702837299
 30
0.0
 40
6.25
 50
96.868617269536614
 51
144.0021794459382
  0
LINE
  5
9F58
  8
0
 10
97.250000000000242
 20
94.700044426558719
 30
0.0
 11
96.250000000000142
 21
94.700044426558719
 31
0.0
  0
LINE
  5
9F5A
  8
0
 10
91.750000000000128
 20
91.580611712695514
 30
0.0
 11
91.750000000000128
 21
91.503924265143198
 31
0.0
  0
LINE
  5
9F5B
  8
0
 10
101.7500000000001
 20
91.503924265143198
 30
0.0
 11
101.7500000000001
 21
91.580611712695514
 31
0.0
  0
ARC
  5
9F5C
  8
0
 10
92.750000000000114
 20
91.580611712695514
 30
0.0
 40
0.9999999999999836
 50
144.0021794459382
 51
180.0
  0
ARC
  5
9F5D
  8
0
 10
100.7500000000002
 20
91.580611712695514
 30
0.0
 40
0.9999999999999822
 50
0.0
 51
35.997820554061747
  0
LINE
  5
9F73
  8
1
 10
96.750000000000128
 20
50.0
 30
0.0
 11
96.750000000000128
 21
97.700044426558719
 31
0.0
  0
POLYLINE
  5
9F74
  8
0
 10
83.02303422097647
 20
83.102564946018987
 30
0.0
 66
     1
 70
     8
  0
VERTEX
  8
0
  5
A45F
 10
83.0230
 20
83.1026
 30
0.000000
  70
    32
  0
VERTEX
  8
0
  5
A460
 10
83.2138
 20
83.1073
 30
0.000000
  70
    32
  0
VERTEX
  8
0
  5
A461
 10
83.4040
 20
83.1213
 30
0.000000
  70
    32
  0
VERTEX
  8
0
  5
A462
 10
83.5934
 20
83.1447
 30
0.000000
  70
    32
  0
VERTEX
  8
0
  5
A463
 10
83.7814
 20
83.1775
 30
0.000000
  70
    32
  0
VERTEX
  8
0
  5
A464
 10
83.9675
 20
83.2194
 30
0.000000
  70
    32
  0
VERTEX
  8
0
  5
A465
 10
84.1514
 20
83.2704
 30
0.000000
  70
    32
  0
VERTEX
  8
0
  5
A466
 10
84.3325
 20
83.3304
 30
0.000000
  70
    32
  0
VERTEX
  8
0
  5
A467
 10
84.5105
 20
83.3992
 30
0.000000
  70
    32
  0
VERTEX
  8
0
  5
A468
 10
84.6850
 20
83.4768
 30
0.000000
  70
    32
  0
VERTEX
  8
0
  5
A469
 10
84.8554
 20
83.5628
 30
0.000000
  70
    32
  0
VERTEX
  8
0
  5
A46A
 10
85.0214
 20
83.6571
 30
0.000000
  70
    32
  0
VERTEX
  8
0
  5
A46B
 10
85.1826
 20
83.7594
 30
0.000000
  70
    32
  0
VERTEX
  8
0
  5
A46C
 10
85.3385
 20
83.8696
 30
0.000000
  70
    32
  0
VERTEX
  8
0
  5
A46D
 10
85.4889
 20
83.9872
 30
0.000000
  70
    32
  0
VERTEX
  8
0
  5
A46E
 10
85.6334
 20
84.1122
 30
0.000000
  70
    32
  0
VERTEX
  8
0
  5
A46F
 10
85.7716
 20
84.2441
 30
0.000000
  70
    32
  0
VERTEX
  8
0
  5
A470
 10
85.9031
 20
84.3826
 30
0.000000
  70
    32
  0
VERTEX
  8
0
  5
A471
 10
86.0278
 20
84.5275
 30
0.000000
  70
    32
  0
VERTEX
  8
0
  5
A472
 10
86.1451
 20
84.6783
 30
0.000000
  70
    32
  0
VERTEX
  8
0
  5
A473
 10
86.2550
 20
84.8347
 30
0.000000
  70
    32
  0
VERTEX
  8
0
  5
A474
 10
86.3571
 20
84.9963
 30
0.000000
  70
    32
  0
VERTEX
  8
0
  5
A475
 10
86.4511
 20
85.1628
 30
0.000000
  70
    32
  0
VERTEX
  8
0
  5
A476
 10
86.5369
 20
85.3336
 30
0.000000
  70
    32
  0
VERTEX
  8
0
  5
A477
 10
86.6142
 20
85.5085
 30
0.000000
  70
    32
  0
VERTEX
  8
0
  5
A478
 10
86.6829
 20
85.6870
 30
0.000000
  70
    32
  0
VERTEX
  8
0
  5
A479
 10
86.7427
 20
85.8686
 30
0.000000
  70
    32
  0
VERTEX
  8
0
  5
A47A
 10
86.7936
 20
86.0530
 30
0.000000
  70
    32
  0
VERTEX
  8
0
  5
A47B
 10
86.8354
 20
86.2396
 30
0.000000
  70
    32
  0
VERTEX
  8
0
  5
A47C
 10
86.8680
 20
86.4281
 30
0.000000
  70
    32
  0
VERTEX
  8
0
  5
A47D
 10
86.8914
 20
86.6180
 30
0.000000
  70
    32
  0
VERTEX
  8
0
  5
A47E
 10
86.9054
 20
86.8088
 30
0.000000
  70
    32
  0
VERTEX
  8
0
  5
A47F
 10
86.9101
 20
87.0000
 30
0.000000
  70
    32
  0
VERTEX
  8
0
  5
A480
 10
86.9054
 20
87.1912
 30
0.000000
  70
    32
  0
VERTEX
  8
0
  5
A481
 10
86.8914
 20
87.3820
 30
0.000000
  70
    32
  0
VERTEX
  8
0
  5
A482
 10
86.8680
 20
87.5719
 30
0.000000
  70
    32
  0
VERTEX
  8
0
  5
A483
 10
86.8354
 20
87.7604
 30
0.000000
  70
    32
  0
VERTEX
  8
0
  5
A484
 10
86.7936
 20
87.9470
 30
0.000000
  70
    32
  0
VERTEX
  8
0
  5
A485
 10
86.7427
 20
88.1314
 30
0.000000
  70
    32
  0
VERTEX
  8
0
  5
A486
 10
86.6829
 20
88.3130
 30
0.000000
  70
    32
  0
VERTEX
  8
0
  5
A487
 10
86.6142
 20
88.4915
 30
0.000000
  70
    32
  0
VERTEX
  8
0
  5
A488
 10
86.5369
 20
88.6664
 30
0.000000
  70
    32
  0
VERTEX
  8
0
  5
A489
 10
86.4511
 20
88.8372
 30
0.000000
  70
    32
  0
VERTEX
  8
0
  5
A48A
 10
86.3571
 20
89.0037
 30
0.000000
  70
    32
  0
VERTEX
  8
0
  5
A48B
 10
86.2550
 20
89.1653
 30
0.000000
  70
    32
  0
VERTEX
  8
0
  5
A48C
 10
86.1451
 20
89.3217
 30
0.000000
  70
    32
  0
VERTEX
  8
0
  5
A48D
 10
86.0278
 20
89.4725
 30
0.000000
  70
    32
  0
VERTEX
  8
0
  5
A48E
 10
85.9031
 20
89.6174
 30
0.000000
  70
    32
  0
VERTEX
  8
0
  5
A48F
 10
85.7716
 20
89.7559
 30
0.000000
  70
    32
  0
VERTEX
  8
0
  5
A490
 10
85.6334
 20
89.8878
 30
0.000000
  70
    32
  0
VERTEX
  8
0
  5
A491
 10
85.4889
 20
90.0128
 30
0.000000
  70
    32
  0
VERTEX
  8
0
  5
A492
 10
85.3385
 20
90.1304
 30
0.000000
  70
    32
  0
VERTEX
  8
0
  5
A493
 10
85.1826
 20
90.2406
 30
0.000000
  70
    32
  0
VERTEX
  8
0
  5
A494
 10
85.0214
 20
90.3429
 30
0.000000
  70
    32
  0
VERTEX
  8
0
  5
A495
 10
84.8554
 20
90.4372
 30
0.000000
  70
    32
  0
VERTEX
  8
0
  5
A496
 10
84.6850
 20
90.5232
 30
0.000000
  70
    32
  0
VERTEX
  8
0
  5
A497
 10
84.5105
 20
90.6008
 30
0.000000
  70
    32
  0
VERTEX
  8
0
  5
A498
 10
84.3325
 20
90.6696
 30
0.000000
  70
    32
  0
VERTEX
  8
0
  5
A499
 10
84.1514
 20
90.7296
 30
0.000000
  70
    32
  0
VERTEX
  8
0
  5
A49A
 10
83.9675
 20
90.7806
 30
0.000000
  70
    32
  0
VERTEX
  8
0
  5
A49B
 10
83.7814
 20
90.8225
 30
0.000000
  70
    32
  0
VERTEX
  8
0
  5
A49C
 10
83.5934
 20
90.8553
 30
0.000000
  70
    32
  0
VERTEX
  8
0
  5
A49D
 10
83.4040
 20
90.8787
 30
0.000000
  70
    32
  0
VERTEX
  8
0
  5
A49E
 10
83.2138
 20
90.8927
 30
0.000000
  70
    32
  0
VERTEX
  8
0
  5
A49F
 10
83.0230
 20
90.8974
 30
0.000000
  70
    32
  0
VERTEX
  8
0
  5
A4A0
 10
82.8323
 20
90.8927
 30
0.000000
  70
    32
  0
VERTEX
  8
0
  5
A4A1
 10
82.6420
 20
90.8787
 30
0.000000
  70
    32
  0
VERTEX
  8
0
  5
A4A2
 10
82.4527
 20
90.8553
 30
0.000000
  70
    32
  0
VERTEX
  8
0
  5
A4A3
 10
82.2647
 20
90.8225
 30
0.000000
  70
    32
  0
VERTEX
  8
0
  5
A4A4
 10
82.0786
 20
90.7806
 30
0.000000
  70
    32
  0
VERTEX
  8
0
  5
A4A5
 10
81.8947
 20
90.7296
 30
0.000000
  70
    32
  0
VERTEX
  8
0
  5
A4A6
 10
81.7135
 20
90.6696
 30
0.000000
  70
    32
  0
VERTEX
  8
0
  5
A4A7
 10
81.5355
 20
90.6008
 30
0.000000
  70
    32
  0
VERTEX
  8
0
  5
A4A8
 10
81.3611
 20
90.5232
 30
0.000000
  70
    32
  0
VERTEX
  8
0
  5
A4A9
 10
81.1907
 20
90.4372
 30
0.000000
  70
    32
  0
VERTEX
  8
0
  5
A4AA
 10
81.0247
 20
90.3429
 30
0.000000
  70
    32
  0
VERTEX
  8
0
  5
A4AB
 10
80.8635
 20
90.2406
 30
0.000000
  70
    32
  0
VERTEX
  8
0
  5
A4AC
 10
80.7075
 20
90.1304
 30
0.000000
  70
    32
  0
VERTEX
  8
0
  5
A4AD
 10
80.5571
 20
90.0128
 30
0.000000
  70
    32
  0
VERTEX
  8
0
  5
A4AE
 10
80.4127
 20
89.8878
 30
0.000000
  70
    32
  0
VERTEX
  8
0
  5
A4AF
 10
80.2745
 20
89.7559
 30
0.000000
  70
    32
  0
VERTEX
  8
0
  5
A4B0
 10
80.1429
 20
89.6174
 30
0.000000
  70
    32
  0
VERTEX
  8
0
  5
A4B1
 10
80.0183
 20
89.4725
 30
0.000000
  70
    32
  0
VERTEX
  8
0
  5
A4B2
 10
79.9009
 20
89.3217
 30
0.000000
  70
    32
  0
VERTEX
  8
0
  5
A4B3
 10
79.7911
 20
89.1653
 30
0.000000
  70
    32
  0
VERTEX
  8
0
  5
A4B4
 10
79.6890
 20
89.0037
 30
0.000000
  70
    32
  0
VERTEX
  8
0
  5
A4B5
 10
79.5950
 20
88.8372
 30
0.000000
  70
    32
  0
VERTEX
  8
0
  5
A4B6
 10
79.5092
 20
88.6664
 30
0.000000
  70
    32
  0
VERTEX
  8
0
  5
A4B7
 10
79.4319
 20
88.4915
 30
0.000000
  70
    32
  0
VERTEX
  8
0
  5
A4B8
 10
79.3632
 20
88.3130
 30
0.000000
  70
    32
  0
VERTEX
  8
0
  5
A4B9
 10
79.3034
 20
88.1314
 30
0.000000
  70
    32
  0
VERTEX
  8
0
  5
A4BA
 10
79.2525
 20
87.9470
 30
0.000000
  70
    32
  0
VERTEX
  8
0
  5
A4BB
 10
79.2107
 20
87.7604
 30
0.000000
  70
    32
  0
VERTEX
  8
0
  5
A4BC
 10
79.1781
 20
87.5719
 30
0.000000
  70
    32
  0
VERTEX
  8
0
  5
A4BD
 10
79.1547
 20
87.3820
 30
0.000000
  70
    32
  0
VERTEX
  8
0
  5
A4BE
 10
79.1407
 20
87.1912
 30
0.000000
  70
    32
  0
VERTEX
  8
0
  5
A4BF
 10
79.1360
 20
87.0000
 30
0.000000
  70
    32
  0
VERTEX
  8
0
  5
A4C0
 10
79.1407
 20
86.8088
 30
0.000000
  70
    32
  0
VERTEX
  8
0
  5
A4C1
 10
79.1547
 20
86.6180
 30
0.000000
  70
    32
  0
VERTEX
  8
0
  5
A4C2
 10
79.1781
 20
86.4281
 30
0.000000
  70
    32
  0
VERTEX
  8
0
  5
A4C3
 10
79.2107
 20
86.2396
 30
0.000000
  70
    32
  0
VERTEX
  8
0
  5
A4C4
 10
79.2525
 20
86.0530
 30
0.000000
  70
    32
  0
VERTEX
  8
0
  5
A4C5
 10
79.3034
 20
85.8686
 30
0.000000
  70
    32
  0
VERTEX
  8
0
  5
A4C6
 10
79.3632
 20
85.6870
 30
0.000000
  70
    32
  0
VERTEX
  8
0
  5
A4C7
 10
79.4319
 20
85.5085
 30
0.000000
  70
    32
  0
VERTEX
  8
0
  5
A4C8
 10
79.5092
 20
85.3336
 30
0.000000
  70
    32
  0
VERTEX
  8
0
  5
A4C9
 10
79.5950
 20
85.1628
 30
0.000000
  70
    32
  0
VERTEX
  8
0
  5
A4CA
 10
79.6890
 20
84.9963
 30
0.000000
  70
    32
  0
VERTEX
  8
0
  5
A4CB
 10
79.7911
 20
84.8347
 30
0.000000
  70
    32
  0
VERTEX
  8
0
  5
A4CC
 10
79.9009
 20
84.6783
 30
0.000000
  70
    32
  0
VERTEX
  8
0
  5
A4CD
 10
80.0183
 20
84.5275
 30
0.000000
  70
    32
  0
VERTEX
  8
0
  5
A4CE
 10
80.1429
 20
84.3826
 30
0.000000
  70
    32
  0
VERTEX
  8
0
  5
A4CF
 10
80.2745
 20
84.2441
 30
0.000000
  70
    32
  0
VERTEX
  8
0
  5
A4D0
 10
80.4127
 20
84.1122
 30
0.000000
  70
    32
  0
VERTEX
  8
0
  5
A4D1
 10
80.5571
 20
83.9872
 30
0.000000
  70
    32
  0
VERTEX
  8
0
  5
A4D2
 10
80.7075
 20
83.8696
 30
0.000000
  70
    32
  0
VERTEX
  8
0
  5
A4D3
 10
80.8635
 20
83.7594
 30
0.000000
  70
    32
  0
VERTEX
  8
0
  5
A4D4
 10
81.0247
 20
83.6571
 30
0.000000
  70
    32
  0
VERTEX
  8
0
  5
A4D5
 10
81.1907
 20
83.5628
 30
0.000000
  70
    32
  0
VERTEX
  8
0
  5
A4D6
 10
81.3611
 20
83.4768
 30
0.000000
  70
    32
  0
VERTEX
  8
0
  5
A4D7
 10
81.5355
 20
83.3992
 30
0.000000
  70
    32
  0
VERTEX
  8
0
  5
A4D8
 10
81.7135
 20
83.3304
 30
0.000000
  70
    32
  0
VERTEX
  8
0
  5
A4D9
 10
81.8947
 20
83.2704
 30
0.000000
  70
    32
  0
VERTEX
  8
0
  5
A4DA
 10
82.0786
 20
83.2194
 30
0.000000
  70
    32
  0
VERTEX
  8
0
  5
A4DB
 10
82.2647
 20
83.1775
 30
0.000000
  70
    32
  0
VERTEX
  8
0
  5
A4DC
 10
82.4527
 20
83.1447
 30
0.000000
  70
    32
  0
VERTEX
  8
0
  5
A4DD
 10
82.6420
 20
83.1213
 30
0.000000
  70
    32
  0
VERTEX
  8
0
  5
A4DE
 10
82.8323
 20
83.1073
 30
0.000000
  70
    32
  0
VERTEX
  8
0
  5
A4DF
 10
83.0230
 20
83.1026
 30
0.000000
  70
    32
  0
SEQEND
  8
0
  5
A4E0
  0
POLYLINE
  5
9F75
  8
0
 10
110.4769657790238
 20
83.102564946018987
 30
0.0
 66
     1
 70
     8
  0
VERTEX
  8
0
  5
A4E1
 10
110.477
 20
83.1026
 30
0.000000
  70
    32
  0
VERTEX
  8
0
  5
A4E2
 10
110.668
 20
83.1073
 30
0.000000
  70
    32
  0
VERTEX
  8
0
  5
A4E3
 10
110.858
 20
83.1213
 30
0.000000
  70
    32
  0
VERTEX
  8
0
  5
A4E4
 10
111.047
 20
83.1447
 30
0.000000
  70
    32
  0
VERTEX
  8
0
  5
A4E5
 10
111.235
 20
83.1775
 30
0.000000
  70
    32
  0
VERTEX
  8
0
  5
A4E6
 10
111.421
 20
83.2194
 30
0.000000
  70
    32
  0
VERTEX
  8
0
  5
A4E7
 10
111.605
 20
83.2704
 30
0.000000
  70
    32
  0
VERTEX
  8
0
  5
A4E8
 10
111.786
 20
83.3304
 30
0.000000
  70
    32
  0
VERTEX
  8
0
  5
A4E9
 10
111.964
 20
83.3992
 30
0.000000
  70
    32
  0
VERTEX
  8
0
  5
A4EA
 10
112.139
 20
83.4768
 30
0.000000
  70
    32
  0
VERTEX
  8
0
  5
A4EB
 10
112.309
 20
83.5628
 30
0.000000
  70
    32
  0
VERTEX
  8
0
  5
A4EC
 10
112.475
 20
83.6571
 30
0.000000
  70
    32
  0
VERTEX
  8
0
  5
A4ED
 10
112.636
 20
83.7594
 30
0.000000
  70
    32
  0
VERTEX
  8
0
  5
A4EE
 10
112.792
 20
83.8696
 30
0.000000
  70
    32
  0
VERTEX
  8
0
  5
A4EF
 10
112.943
 20
83.9872
 30
0.000000
  70
    32
  0
VERTEX
  8
0
  5
A4F0
 10
113.087
 20
84.1122
 30
0.000000
  70
    32
  0
VERTEX
  8
0
  5
A4F1
 10
113.226
 20
84.2441
 30
0.000000
  70
    32
  0
VERTEX
  8
0
  5
A4F2
 10
113.357
 20
84.3826
 30
0.000000
  70
    32
  0
VERTEX
  8
0
  5
A4F3
 10
113.482
 20
84.5275
 30
0.000000
  70
    32
  0
VERTEX
  8
0
  5
A4F4
 10
113.599
 20
84.6783
 30
0.000000
  70
    32
  0
VERTEX
  8
0
  5
A4F5
 10
113.709
 20
84.8347
 30
0.000000
  70
    32
  0
VERTEX
  8
0
  5
A4F6
 10
113.811
 20
84.9963
 30
0.000000
  70
    32
  0
VERTEX
  8
0
  5
A4F7
 10
113.905
 20
85.1628
 30
0.000000
  70
    32
  0
VERTEX
  8
0
  5
A4F8
 10
113.991
 20
85.3336
 30
0.000000
  70
    32
  0
VERTEX
  8
0
  5
A4F9
 10
114.068
 20
85.5085
 30
0.000000
  70
    32
  0
VERTEX
  8
0
  5
A4FA
 10
114.137
 20
85.6870
 30
0.000000
  70
    32
  0
VERTEX
  8
0
  5
A4FB
 10
114.197
 20
85.8686
 30
0.000000
  70
    32
  0
VERTEX
  8
0
  5
A4FC
 10
114.248
 20
86.0530
 30
0.000000
  70
    32
  0
VERTEX
  8
0
  5
A4FD
 10
114.289
 20
86.2396
 30
0.000000
  70
    32
  0
VERTEX
  8
0
  5
A4FE
 10
114.322
 20
86.4281
 30
0.000000
  70
    32
  0
VERTEX
  8
0
  5
A4FF
 10
114.345
 20
86.6180
 30
0.000000
  70
    32
  0
VERTEX
  8
0
  5
A500
 10
114.359
 20
86.8088
 30
0.000000
  70
    32
  0
VERTEX
  8
0
  5
A501
 10
114.364
 20
87.0000
 30
0.000000
  70
    32
  0
VERTEX
  8
0
  5
A502
 10
114.359
 20
87.1912
 30
0.000000
  70
    32
  0
VERTEX
  8
0
  5
A503
 10
114.345
 20
87.3820
 30
0.000000
  70
    32
  0
VERTEX
  8
0
  5
A504
 10
114.322
 20
87.5719
 30
0.000000
  70
    32
  0
VERTEX
  8
0
  5
A505
 10
114.289
 20
87.7604
 30
0.000000
  70
    32
  0
VERTEX
  8
0
  5
A506
 10
114.248
 20
87.9470
 30
0.000000
  70
    32
  0
VERTEX
  8
0
  5
A507
 10
114.197
 20
88.1314
 30
0.000000
  70
    32
  0
VERTEX
  8
0
  5
A508
 10
114.137
 20
88.3130
 30
0.000000
  70
    32
  0
VERTEX
  8
0
  5
A509
 10
114.068
 20
88.4915
 30
0.000000
  70
    32
  0
VERTEX
  8
0
  5
A50A
 10
113.991
 20
88.6664
 30
0.000000
  70
    32
  0
VERTEX
  8
0
  5
A50B
 10
113.905
 20
88.8372
 30
0.000000
  70
    32
  0
VERTEX
  8
0
  5
A50C
 10
113.811
 20
89.0037
 30
0.000000
  70
    32
  0
VERTEX
  8
0
  5
A50D
 10
113.709
 20
89.1653
 30
0.000000
  70
    32
  0
VERTEX
  8
0
  5
A50E
 10
113.599
 20
89.3217
 30
0.000000
  70
    32
  0
VERTEX
  8
0
  5
A50F
 10
113.482
 20
89.4725
 30
0.000000
  70
    32
  0
VERTEX
  8
0
  5
A510
 10
113.357
 20
89.6174
 30
0.000000
  70
    32
  0
VERTEX
  8
0
  5
A511
 10
113.226
 20
89.7559
 30
0.000000
  70
    32
  0
VERTEX
  8
0
  5
A512
 10
113.087
 20
89.8878
 30
0.000000
  70
    32
  0
VERTEX
  8
0
  5
A513
 10
112.943
 20
90.0128
 30
0.000000
  70
    32
  0
VERTEX
  8
0
  5
A514
 10
112.792
 20
90.1304
 30
0.000000
  70
    32
  0
VERTEX
  8
0
  5
A515
 10
112.636
 20
90.2406
 30
0.000000
  70
    32
  0
VERTEX
  8
0
  5
A516
 10
112.475
 20
90.3429
 30
0.000000
  70
    32
  0
VERTEX
  8
0
  5
A517
 10
112.309
 20
90.4372
 30
0.000000
  70
    32
  0
VERTEX
  8
0
  5
A518
 10
112.139
 20
90.5232
 30
0.000000
  70
    32
  0
VERTEX
  8
0
  5
A519
 10
111.964
 20
90.6008
 30
0.000000
  70
    32
  0
VERTEX
  8
0
  5
A51A
 10
111.786
 20
90.6696
 30
0.000000
  70
    32
  0
VERTEX
  8
0
  5
A51B
 10
111.605
 20
90.7296
 30
0.000000
  70
    32
  0
VERTEX
  8
0
  5
A51C
 10
111.421
 20
90.7806
 30
0.000000
  70
    32
  0
VERTEX
  8
0
  5
A51D
 10
111.235
 20
90.8225
 30
0.000000
  70
    32
  0
VERTEX
  8
0
  5
A51E
 10
111.047
 20
90.8553
 30
0.000000
  70
    32
  0
VERTEX
  8
0
  5
A51F
 10
110.858
 20
90.8787
 30
0.000000
  70
    32
  0
VERTEX
  8
0
  5
A520
 10
110.668
 20
90.8927
 30
0.000000
  70
    32
  0
VERTEX
  8
0
  5
A521
 10
110.477
 20
90.8974
 30
0.000000
  70
    32
  0
VERTEX
  8
0
  5
A522
 10
110.286
 20
90.8927
 30
0.000000
  70
    32
  0
VERTEX
  8
0
  5
A523
 10
110.096
 20
90.8787
 30
0.000000
  70
    32
  0
VERTEX
  8
0
  5
A524
 10
109.907
 20
90.8553
 30
0.000000
  70
    32
  0
VERTEX
  8
0
  5
A525
 10
109.719
 20
90.8225
 30
0.000000
  70
    32
  0
VERTEX
  8
0
  5
A526
 10
109.532
 20
90.7806
 30
0.000000
  70
    32
  0
VERTEX
  8
0
  5
A527
 10
109.349
 20
90.7296
 30
0.000000
  70
    32
  0
VERTEX
  8
0
  5
A528
 10
109.167
 20
90.6696
 30
0.000000
  70
    32
  0
VERTEX
  8
0
  5
A529
 10
108.989
 20
90.6008
 30
0.000000
  70
    32
  0
VERTEX
  8
0
  5
A52A
 10
108.815
 20
90.5232
 30
0.000000
  70
    32
  0
VERTEX
  8
0
  5
A52B
 10
108.645
 20
90.4372
 30
0.000000
  70
    32
  0
VERTEX
  8
0
  5
A52C
 10
108.479
 20
90.3429
 30
0.000000
  70
    32
  0
VERTEX
  8
0
  5
A52D
 10
108.317
 20
90.2406
 30
0.000000
  70
    32
  0
VERTEX
  8
0
  5
A52E
 10
108.161
 20
90.1304
 30
0.000000
  70
    32
  0
VERTEX
  8
0
  5
A52F
 10
108.011
 20
90.0128
 30
0.000000
  70
    32
  0
VERTEX
  8
0
  5
A530
 10
107.867
 20
89.8878
 30
0.000000
  70
    32
  0
VERTEX
  8
0
  5
A531
 10
107.728
 20
89.7559
 30
0.000000
  70
    32
  0
VERTEX
  8
0
  5
A532
 10
107.597
 20
89.6174
 30
0.000000
  70
    32
  0
VERTEX
  8
0
  5
A533
 10
107.472
 20
89.4725
 30
0.000000
  70
    32
  0
VERTEX
  8
0
  5
A534
 10
107.355
 20
89.3217
 30
0.000000
  70
    32
  0
VERTEX
  8
0
  5
A535
 10
107.245
 20
89.1653
 30
0.000000
  70
    32
  0
VERTEX
  8
0
  5
A536
 10
107.143
 20
89.0037
 30
0.000000
  70
    32
  0
VERTEX
  8
0
  5
A537
 10
107.049
 20
88.8372
 30
0.000000
  70
    32
  0
VERTEX
  8
0
  5
A538
 10
106.963
 20
88.6664
 30
0.000000
  70
    32
  0
VERTEX
  8
0
  5
A539
 10
106.886
 20
88.4915
 30
0.000000
  70
    32
  0
VERTEX
  8
0
  5
A53A
 10
106.817
 20
88.3130
 30
0.000000
  70
    32
  0
VERTEX
  8
0
  5
A53B
 10
106.757
 20
88.1314
 30
0.000000
  70
    32
  0
VERTEX
  8
0
  5
A53C
 10
106.706
 20
87.9470
 30
0.000000
  70
    32
  0
VERTEX
  8
0
  5
A53D
 10
106.665
 20
87.7604
 30
0.000000
  70
    32
  0
VERTEX
  8
0
  5
A53E
 10
106.632
 20
87.5719
 30
0.000000
  70
    32
  0
VERTEX
  8
0
  5
A53F
 10
106.609
 20
87.3820
 30
0.000000
  70
    32
  0
VERTEX
  8
0
  5
A540
 10
106.595
 20
87.1912
 30
0.000000
  70
    32
  0
VERTEX
  8
0
  5
A541
 10
106.590
 20
87.0000
 30
0.000000
  70
    32
  0
VERTEX
  8
0
  5
A542
 10
106.595
 20
86.8088
 30
0.000000
  70
    32
  0
VERTEX
  8
0
  5
A543
 10
106.609
 20
86.6180
 30
0.000000
  70
    32
  0
VERTEX
  8
0
  5
A544
 10
106.632
 20
86.4281
 30
0.000000
  70
    32
  0
VERTEX
  8
0
  5
A545
 10
106.665
 20
86.2396
 30
0.000000
  70
    32
  0
VERTEX
  8
0
  5
A546
 10
106.706
 20
86.0530
 30
0.000000
  70
    32
  0
VERTEX
  8
0
  5
A547
 10
106.757
 20
85.8686
 30
0.000000
  70
    32
  0
VERTEX
  8
0
  5
A548
 10
106.817
 20
85.6870
 30
0.000000
  70
    32
  0
VERTEX
  8
0
  5
A549
 10
106.886
 20
85.5085
 30
0.000000
  70
    32
  0
VERTEX
  8
0
  5
A54A
 10
106.963
 20
85.3336
 30
0.000000
  70
    32
  0
VERTEX
  8
0
  5
A54B
 10
107.049
 20
85.1628
 30
0.000000
  70
    32
  0
VERTEX
  8
0
  5
A54C
 10
107.143
 20
84.9963
 30
0.000000
  70
    32
  0
VERTEX
  8
0
  5
A54D
 10
107.245
 20
84.8347
 30
0.000000
  70
    32
  0
VERTEX
  8
0
  5
A54E
 10
107.355
 20
84.6783
 30
0.000000
  70
    32
  0
VERTEX
  8
0
  5
A54F
 10
107.472
 20
84.5275
 30
0.000000
  70
    32
  0
VERTEX
  8
0
  5
A550
 10
107.597
 20
84.3826
 30
0.000000
  70
    32
  0
VERTEX
  8
0
  5
A551
 10
107.728
 20
84.2441
 30
0.000000
  70
    32
  0
VERTEX
  8
0
  5
A552
 10
107.867
 20
84.1122
 30
0.000000
  70
    32
  0
VERTEX
  8
0
  5
A553
 10
108.011
 20
83.9872
 30
0.000000
  70
    32
  0
VERTEX
  8
0
  5
A554
 10
108.161
 20
83.8696
 30
0.000000
  70
    32
  0
VERTEX
  8
0
  5
A555
 10
108.317
 20
83.7594
 30
0.000000
  70
    32
  0
VERTEX
  8
0
  5
A556
 10
108.479
 20
83.6571
 30
0.000000
  70
    32
  0
VERTEX
  8
0
  5
A557
 10
108.645
 20
83.5628
 30
0.000000
  70
    32
  0
VERTEX
  8
0
  5
A558
 10
108.815
 20
83.4768
 30
0.000000
  70
    32
  0
VERTEX
  8
0
  5
A559
 10
108.989
 20
83.3992
 30
0.000000
  70
    32
  0
VERTEX
  8
0
  5
A55A
 10
109.167
 20
83.3304
 30
0.000000
  70
    32
  0
VERTEX
  8
0
  5
A55B
 10
109.349
 20
83.2704
 30
0.000000
  70
    32
  0
VERTEX
  8
0
  5
A55C
 10
109.532
 20
83.2194
 30
0.000000
  70
    32
  0
VERTEX
  8
0
  5
A55D
 10
109.719
 20
83.1775
 30
0.000000
  70
    32
  0
VERTEX
  8
0
  5
A55E
 10
109.907
 20
83.1447
 30
0.000000
  70
    32
  0
VERTEX
  8
0
  5
A55F
 10
110.096
 20
83.1213
 30
0.000000
  70
    32
  0
VERTEX
  8
0
  5
A560
 10
110.286
 20
83.1073
 30
0.000000
  70
    32
  0
VERTEX
  8
0
  5
A561
 10
110.477
 20
83.1026
 30
0.000000
  70
    32
  0
SEQEND
  8
0
  5
A562
  0
LINE
  5
9F76
  8
0
 10
110.7500000000002
 20
93.000000000000057
 30
0.0
 11
110.4993058061911
 21
93.000000000000057
 31
0.0
  0
ARC
  5
9F77
  8
0
 10
110.7500000000002
 20
87.000000000000057
 30
0.0
 40
6.0000000000000018
 50
294.99519985061539
 51
90.0
  0
POLYLINE
  5
9F78
  8
0
 66
     1
 10
0.0
 20
0.0
 30
0.0
  0
VERTEX
  5
A35A
  8
0
 10
110.4918349768013
 20
92.999995193779483
 30
0.0
  0
VERTEX
  5
A35B
  8
0
 10
110.25686497368849
 20
92.995135066666791
 30
0.0
  0
VERTEX
  5
A35C
  8
0
 10
109.7556001929886
 20
92.954091732097879
 30
0.0
  0
VERTEX
  5
A35D
  8
0
 10
109.25942239955801
 20
92.871707253529962
 30
0.0
  0
VERTEX
  5
A35E
  8
0
 10
108.7578807988928
 20
92.744314235231798
 30
0.0
  0
VERTEX
  5
A35F
  8
0
 10
108.268903296787
 20
92.574780563112967
 30
0.0
  0
VERTEX
  5
A360
  8
0
 10
108.1208969750505
 20
92.514027341736551
 30
0.0
  0
SEQEND
  5
A361
  8
0
  0
POLYLINE
  5
9F79
  8
0
 66
     1
 10
0.0
 20
0.0
 30
0.0
  0
VERTEX
  5
A362
  8
0
 10
85.379103024949828
 20
92.514027341736551
 30
0.0
  0
VERTEX
  5
A363
  8
0
 10
84.804814398908619
 20
92.725191307113022
 30
0.0
  0
VERTEX
  5
A364
  8
0
 10
84.206142943637886
 20
92.878800997666275
 30
0.0
  0
VERTEX
  5
A365
  8
0
 10
83.706000013529035
 20
92.958718835424506
 30
0.0
  0
VERTEX
  5
A366
  8
0
 10
83.200964487486019
 20
92.996679697035745
 30
0.0
  0
VERTEX
  5
A367
  8
0
 10
83.006622962330496
 20
92.999996941039015
 30
0.0
  0
SEQEND
  5
A368
  8
0
  0
LINE
  5
9F7A
  8
0
 10
83.000687757768276
 20
93.000000000000057
 30
0.0
 11
82.750000000000014
 21
93.000000000000057
 31
0.0
  0
ARC
  5
9F7B
  8
0
 10
82.750000000000014
 20
87.000000000000057
 30
0.0
 40
6.0000000000000009
 50
90.0
 51
245.004800149381
  0
ARC
  5
9F7C
  8
0
 10
108.1381858182435
 20
128.68151284322639
 30
0.0
 40
54.772005208333361
 50
239.34867465914371
 51
250.66092563961561
  0
ARC
  5
9F7D
  8
0
 10
85.361814181756074
 20
128.68151284322789
 30
0.0
 40
54.772005208335102
 50
289.33907436038442
 51
300.6513253408562
  0
POLYLINE
  5
9F7E
  8
0
 10
85.379103024949742
 20
92.514027341736451
 30
0.0
 66
     1
 70
     8
  0
VERTEX
  8
0
  5
A563
 10
85.3791
 20
92.5140
 30
0.000000
  70
    32
  0
VERTEX
  8
0
  5
A564
 10
85.4046
 20
92.5073
 30
0.000000
  70
    32
  0
VERTEX
  8
0
  5
A565
 10
85.4301
 20
92.5006
 30
0.000000
  70
    32
  0
VERTEX
  8
0
  5
A566
 10
85.4557
 20
92.4940
 30
0.000000
  70
    32
  0
VERTEX
  8
0
  5
A567
 10
85.4812
 20
92.4873
 30
0.000000
  70
    32
  0
VERTEX
  8
0
  5
A568
 10
85.5067
 20
92.4807
 30
0.000000
  70
    32
  0
VERTEX
  8
0
  5
A569
 10
85.5323
 20
92.4741
 30
0.000000
  70
    32
  0
VERTEX
  8
0
  5
A56A
 10
85.5578
 20
92.4674
 30
0.000000
  70
    32
  0
VERTEX
  8
0
  5
A56B
 10
85.5834
 20
92.4608
 30
0.000000
  70
    32
  0
VERTEX
  8
0
  5
A56C
 10
85.6089
 20
92.4543
 30
0.000000
  70
    32
  0
VERTEX
  8
0
  5
A56D
 10
85.6345
 20
92.4477
 30
0.000000
  70
    32
  0
VERTEX
  8
0
  5
A56E
 10
85.6600
 20
92.4412
 30
0.000000
  70
    32
  0
VERTEX
  8
0
  5
A56F
 10
85.6856
 20
92.4346
 30
0.000000
  70
    32
  0
VERTEX
  8
0
  5
A570
 10
85.7111
 20
92.4281
 30
0.000000
  70
    32
  0
VERTEX
  8
0
  5
A571
 10
85.7367
 20
92.4216
 30
0.000000
  70
    32
  0
VERTEX
  8
0
  5
A572
 10
85.7623
 20
92.4151
 30
0.000000
  70
    32
  0
VERTEX
  8
0
  5
A573
 10
85.7879
 20
92.4086
 30
0.000000
  70
    32
  0
VERTEX
  8
0
  5
A574
 10
85.8134
 20
92.4022
 30
0.000000
  70
    32
  0
VERTEX
  8
0
  5
A575
 10
85.8390
 20
92.3957
 30
0.000000
  70
    32
  0
VERTEX
  8
0
  5
A576
 10
85.8646
 20
92.3893
 30
0.000000
  70
    32
  0
VERTEX
  8
0
  5
A577
 10
85.8902
 20
92.3829
 30
0.000000
  70
    32
  0
VERTEX
  8
0
  5
A578
 10
85.9158
 20
92.3765
 30
0.000000
  70
    32
  0
VERTEX
  8
0
  5
A579
 10
85.9414
 20
92.3701
 30
0.000000
  70
    32
  0
VERTEX
  8
0
  5
A57A
 10
85.9670
 20
92.3637
 30
0.000000
  70
    32
  0
VERTEX
  8
0
  5
A57B
 10
85.9926
 20
92.3574
 30
0.000000
  70
    32
  0
VERTEX
  8
0
  5
A57C
 10
86.0182
 20
92.3510
 30
0.000000
  70
    32
  0
VERTEX
  8
0
  5
A57D
 10
86.0438
 20
92.3447
 30
0.000000
  70
    32
  0
VERTEX
  8
0
  5
A57E
 10
86.0694
 20
92.3384
 30
0.000000
  70
    32
  0
VERTEX
  8
0
  5
A57F
 10
86.0950
 20
92.3321
 30
0.000000
  70
    32
  0
VERTEX
  8
0
  5
A580
 10
86.1207
 20
92.3258
 30
0.000000
  70
    32
  0
VERTEX
  8
0
  5
A581
 10
86.1463
 20
92.3195
 30
0.000000
  70
    32
  0
VERTEX
  8
0
  5
A582
 10
86.1719
 20
92.3133
 30
0.000000
  70
    32
  0
VERTEX
  8
0
  5
A583
 10
86.1976
 20
92.3070
 30
0.000000
  70
    32
  0
VERTEX
  8
0
  5
A584
 10
86.2232
 20
92.3008
 30
0.000000
  70
    32
  0
VERTEX
  8
0
  5
A585
 10
86.2488
 20
92.2946
 30
0.000000
  70
    32
  0
VERTEX
  8
0
  5
A586
 10
86.2745
 20
92.2884
 30
0.000000
  70
    32
  0
VERTEX
  8
0
  5
A587
 10
86.3001
 20
92.2822
 30
0.000000
  70
    32
  0
VERTEX
  8
0
  5
A588
 10
86.3258
 20
92.2761
 30
0.000000
  70
    32
  0
VERTEX
  8
0
  5
A589
 10
86.3514
 20
92.2699
 30
0.000000
  70
    32
  0
VERTEX
  8
0
  5
A58A
 10
86.3771
 20
92.2638
 30
0.000000
  70
    32
  0
VERTEX
  8
0
  5
A58B
 10
86.4028
 20
92.2577
 30
0.000000
  70
    32
  0
VERTEX
  8
0
  5
A58C
 10
86.4284
 20
92.2516
 30
0.000000
  70
    32
  0
VERTEX
  8
0
  5
A58D
 10
86.4541
 20
92.2455
 30
0.000000
  70
    32
  0
VERTEX
  8
0
  5
A58E
 10
86.4798
 20
92.2394
 30
0.000000
  70
    32
  0
VERTEX
  8
0
  5
A58F
 10
86.5055
 20
92.2334
 30
0.000000
  70
    32
  0
VERTEX
  8
0
  5
A590
 10
86.5311
 20
92.2273
 30
0.000000
  70
    32
  0
VERTEX
  8
0
  5
A591
 10
86.5568
 20
92.2213
 30
0.000000
  70
    32
  0
VERTEX
  8
0
  5
A592
 10
86.5825
 20
92.2153
 30
0.000000
  70
    32
  0
VERTEX
  8
0
  5
A593
 10
86.6082
 20
92.2093
 30
0.000000
  70
    32
  0
VERTEX
  8
0
  5
A594
 10
86.6339
 20
92.2033
 30
0.000000
  70
    32
  0
VERTEX
  8
0
  5
A595
 10
86.6596
 20
92.1973
 30
0.000000
  70
    32
  0
VERTEX
  8
0
  5
A596
 10
86.6853
 20
92.1914
 30
0.000000
  70
    32
  0
VERTEX
  8
0
  5
A597
 10
86.7110
 20
92.1855
 30
0.000000
  70
    32
  0
VERTEX
  8
0
  5
A598
 10
86.7367
 20
92.1795
 30
0.000000
  70
    32
  0
VERTEX
  8
0
  5
A599
 10
86.7624
 20
92.1736
 30
0.000000
  70
    32
  0
VERTEX
  8
0
  5
A59A
 10
86.7881
 20
92.1677
 30
0.000000
  70
    32
  0
VERTEX
  8
0
  5
A59B
 10
86.8139
 20
92.1619
 30
0.000000
  70
    32
  0
VERTEX
  8
0
  5
A59C
 10
86.8396
 20
92.1560
 30
0.000000
  70
    32
  0
VERTEX
  8
0
  5
A59D
 10
86.8653
 20
92.1502
 30
0.000000
  70
    32
  0
VERTEX
  8
0
  5
A59E
 10
86.8910
 20
92.1443
 30
0.000000
  70
    32
  0
VERTEX
  8
0
  5
A59F
 10
86.9168
 20
92.1385
 30
0.000000
  70
    32
  0
VERTEX
  8
0
  5
A5A0
 10
86.9425
 20
92.1327
 30
0.000000
  70
    32
  0
VERTEX
  8
0
  5
A5A1
 10
86.9682
 20
92.1269
 30
0.000000
  70
    32
  0
VERTEX
  8
0
  5
A5A2
 10
86.9940
 20
92.1211
 30
0.000000
  70
    32
  0
VERTEX
  8
0
  5
A5A3
 10
87.0197
 20
92.1154
 30
0.000000
  70
    32
  0
VERTEX
  8
0
  5
A5A4
 10
87.0455
 20
92.1096
 30
0.000000
  70
    32
  0
VERTEX
  8
0
  5
A5A5
 10
87.0712
 20
92.1039
 30
0.000000
  70
    32
  0
VERTEX
  8
0
  5
A5A6
 10
87.0970
 20
92.0982
 30
0.000000
  70
    32
  0
VERTEX
  8
0
  5
A5A7
 10
87.1227
 20
92.0925
 30
0.000000
  70
    32
  0
VERTEX
  8
0
  5
A5A8
 10
87.1485
 20
92.0868
 30
0.000000
  70
    32
  0
VERTEX
  8
0
  5
A5A9
 10
87.1743
 20
92.0812
 30
0.000000
  70
    32
  0
VERTEX
  8
0
  5
A5AA
 10
87.2000
 20
92.0755
 30
0.000000
  70
    32
  0
VERTEX
  8
0
  5
A5AB
 10
87.2258
 20
92.0699
 30
0.000000
  70
    32
  0
VERTEX
  8
0
  5
A5AC
 10
87.2516
 20
92.0643
 30
0.000000
  70
    32
  0
VERTEX
  8
0
  5
A5AD
 10
87.2774
 20
92.0586
 30
0.000000
  70
    32
  0
VERTEX
  8
0
  5
A5AE
 10
87.3031
 20
92.0531
 30
0.000000
  70
    32
  0
VERTEX
  8
0
  5
A5AF
 10
87.3289
 20
92.0475
 30
0.000000
  70
    32
  0
VERTEX
  8
0
  5
A5B0
 10
87.3547
 20
92.0419
 30
0.000000
  70
    32
  0
VERTEX
  8
0
  5
A5B1
 10
87.3805
 20
92.0364
 30
0.000000
  70
    32
  0
VERTEX
  8
0
  5
A5B2
 10
87.4063
 20
92.0308
 30
0.000000
  70
    32
  0
VERTEX
  8
0
  5
A5B3
 10
87.4321
 20
92.0253
 30
0.000000
  70
    32
  0
VERTEX
  8
0
  5
A5B4
 10
87.4579
 20
92.0198
 30
0.000000
  70
    32
  0
VERTEX
  8
0
  5
A5B5
 10
87.4837
 20
92.0143
 30
0.000000
  70
    32
  0
VERTEX
  8
0
  5
A5B6
 10
87.5095
 20
92.0089
 30
0.000000
  70
    32
  0
VERTEX
  8
0
  5
A5B7
 10
87.5353
 20
92.0034
 30
0.000000
  70
    32
  0
VERTEX
  8
0
  5
A5B8
 10
87.5611
 20
91.9980
 30
0.000000
  70
    32
  0
VERTEX
  8
0
  5
A5B9
 10
87.5870
 20
91.9925
 30
0.000000
  70
    32
  0
VERTEX
  8
0
  5
A5BA
 10
87.6128
 20
91.9871
 30
0.000000
  70
    32
  0
VERTEX
  8
0
  5
A5BB
 10
87.6386
 20
91.9817
 30
0.000000
  70
    32
  0
VERTEX
  8
0
  5
A5BC
 10
87.6644
 20
91.9764
 30
0.000000
  70
    32
  0
VERTEX
  8
0
  5
A5BD
 10
87.6903
 20
91.9710
 30
0.000000
  70
    32
  0
VERTEX
  8
0
  5
A5BE
 10
87.7161
 20
91.9656
 30
0.000000
  70
    32
  0
VERTEX
  8
0
  5
A5BF
 10
87.7419
 20
91.9603
 30
0.000000
  70
    32
  0
VERTEX
  8
0
  5
A5C0
 10
87.7678
 20
91.9550
 30
0.000000
  70
    32
  0
VERTEX
  8
0
  5
A5C1
 10
87.7936
 20
91.9497
 30
0.000000
  70
    32
  0
VERTEX
  8
0
  5
A5C2
 10
87.8195
 20
91.9444
 30
0.000000
  70
    32
  0
VERTEX
  8
0
  5
A5C3
 10
87.8453
 20
91.9391
 30
0.000000
  70
    32
  0
VERTEX
  8
0
  5
A5C4
 10
87.8712
 20
91.9339
 30
0.000000
  70
    32
  0
VERTEX
  8
0
  5
A5C5
 10
87.8970
 20
91.9286
 30
0.000000
  70
    32
  0
VERTEX
  8
0
  5
A5C6
 10
87.9229
 20
91.9234
 30
0.000000
  70
    32
  0
VERTEX
  8
0
  5
A5C7
 10
87.9487
 20
91.9182
 30
0.000000
  70
    32
  0
VERTEX
  8
0
  5
A5C8
 10
87.9746
 20
91.9130
 30
0.000000
  70
    32
  0
VERTEX
  8
0
  5
A5C9
 10
88.0005
 20
91.9078
 30
0.000000
  70
    32
  0
VERTEX
  8
0
  5
A5CA
 10
88.0263
 20
91.9026
 30
0.000000
  70
    32
  0
VERTEX
  8
0
  5
A5CB
 10
88.0522
 20
91.8975
 30
0.000000
  70
    32
  0
VERTEX
  8
0
  5
A5CC
 10
88.0781
 20
91.8923
 30
0.000000
  70
    32
  0
VERTEX
  8
0
  5
A5CD
 10
88.1040
 20
91.8872
 30
0.000000
  70
    32
  0
VERTEX
  8
0
  5
A5CE
 10
88.1298
 20
91.8821
 30
0.000000
  70
    32
  0
VERTEX
  8
0
  5
A5CF
 10
88.1557
 20
91.8770
 30
0.000000
  70
    32
  0
VERTEX
  8
0
  5
A5D0
 10
88.1816
 20
91.8719
 30
0.000000
  70
    32
  0
VERTEX
  8
0
  5
A5D1
 10
88.2075
 20
91.8669
 30
0.000000
  70
    32
  0
VERTEX
  8
0
  5
A5D2
 10
88.2334
 20
91.8618
 30
0.000000
  70
    32
  0
VERTEX
  8
0
  5
A5D3
 10
88.2593
 20
91.8568
 30
0.000000
  70
    32
  0
VERTEX
  8
0
  5
A5D4
 10
88.2852
 20
91.8518
 30
0.000000
  70
    32
  0
VERTEX
  8
0
  5
A5D5
 10
88.3111
 20
91.8468
 30
0.000000
  70
    32
  0
VERTEX
  8
0
  5
A5D6
 10
88.3370
 20
91.8418
 30
0.000000
  70
    32
  0
VERTEX
  8
0
  5
A5D7
 10
88.3629
 20
91.8368
 30
0.000000
  70
    32
  0
VERTEX
  8
0
  5
A5D8
 10
88.3888
 20
91.8318
 30
0.000000
  70
    32
  0
VERTEX
  8
0
  5
A5D9
 10
88.4147
 20
91.8269
 30
0.000000
  70
    32
  0
VERTEX
  8
0
  5
A5DA
 10
88.4406
 20
91.8220
 30
0.000000
  70
    32
  0
VERTEX
  8
0
  5
A5DB
 10
88.4666
 20
91.8171
 30
0.000000
  70
    32
  0
VERTEX
  8
0
  5
A5DC
 10
88.4925
 20
91.8122
 30
0.000000
  70
    32
  0
VERTEX
  8
0
  5
A5DD
 10
88.5184
 20
91.8073
 30
0.000000
  70
    32
  0
VERTEX
  8
0
  5
A5DE
 10
88.5443
 20
91.8024
 30
0.000000
  70
    32
  0
VERTEX
  8
0
  5
A5DF
 10
88.5703
 20
91.7976
 30
0.000000
  70
    32
  0
VERTEX
  8
0
  5
A5E0
 10
88.5962
 20
91.7927
 30
0.000000
  70
    32
  0
VERTEX
  8
0
  5
A5E1
 10
88.6221
 20
91.7879
 30
0.000000
  70
    32
  0
VERTEX
  8
0
  5
A5E2
 10
88.6481
 20
91.7831
 30
0.000000
  70
    32
  0
VERTEX
  8
0
  5
A5E3
 10
88.6740
 20
91.7783
 30
0.000000
  70
    32
  0
SEQEND
  8
0
  5
A5E4
  0
POLYLINE
  5
9F7F
  8
0
 66
     1
 10
0.0
 20
0.0
 30
0.0
  0
VERTEX
  5
A369
  8
0
 10
90.921527901753237
 20
91.503924265143198
 30
0.0
  0
VERTEX
  5
A36A
  8
0
 10
90.692697055663089
 20
91.510694993174127
 30
0.0
  0
VERTEX
  5
A36B
  8
0
 10
90.413827272463223
 20
91.530605308894707
 30
0.0
  0
VERTEX
  5
A36C
  8
0
 10
90.092458666470137
 20
91.563223125966047
 30
0.0
  0
VERTEX
  5
A36D
  8
0
 10
89.738356325217026
 20
91.607404496488755
 30
0.0
  0
VERTEX
  5
A36E
  8
0
 10
89.357834377697955
 20
91.662528043462117
 30
0.0
  0
VERTEX
  5
A36F
  8
0
 10
88.964729808750576
 20
91.726551170589175
 30
0.0
  0
VERTEX
  5
A370
  8
0
 10
88.674021045102918
 20
91.778299670357143
 30
0.0
  0
SEQEND
  5
A371
  8
0
  0
POLYLINE
  5
9F80
  8
0
 66
     1
 10
0.0
 20
0.0
 30
0.0
  0
VERTEX
  5
A372
  8
0
 10
104.82597895489729
 20
91.778299670357143
 30
0.0
  0
VERTEX
  5
A373
  8
0
 10
104.5568979775308
 20
91.730293487701374
 30
0.0
  0
VERTEX
  5
A374
  8
0
 10
104.2876152022847
 20
91.685413462436657
 30
0.0
  0
VERTEX
  5
A375
  8
0
 10
104.02315606338
 20
91.644506693007884
 30
0.0
  0
VERTEX
  5
A376
  8
0
 10
103.7658972904092
 20
91.608002180889883
 30
0.0
  0
VERTEX
  5
A377
  8
0
 10
103.5185574864428
 20
91.576254656694204
 30
0.0
  0
VERTEX
  5
A378
  8
0
 10
103.2860135802665
 20
91.549901677024636
 30
0.0
  0
VERTEX
  5
A379
  8
0
 10
103.0739196237357
 20
91.529567547424989
 30
0.0
  0
VERTEX
  5
A37A
  8
0
 10
102.8806400330304
 20
91.514959486828531
 30
0.0
  0
VERTEX
  5
A37B
  8
0
 10
102.70999927280189
 20
91.506375861679928
 30
0.0
  0
VERTEX
  5
A37C
  8
0
 10
102.57847215837469
 20
91.503924265143198
 30
0.0
  0
SEQEND
  5
A37D
  8
0
  0
POLYLINE
  5
9F81
  8
0
 10
104.82597895489734
 20
91.778299670357086
 30
0.0
 66
     1
 70
     8
  0
VERTEX
  8
0
  5
A5E5
 10
104.826
 20
91.7783
 30
0.000000
  70
    32
  0
VERTEX
  8
0
  5
A5E6
 10
104.852
 20
91.7831
 30
0.000000
  70
    32
  0
VERTEX
  8
0
  5
A5E7
 10
104.878
 20
91.7879
 30
0.000000
  70
    32
  0
VERTEX
  8
0
  5
A5E8
 10
104.904
 20
91.7927
 30
0.000000
  70
    32
  0
VERTEX
  8
0
  5
A5E9
 10
104.930
 20
91.7976
 30
0.000000
  70
    32
  0
VERTEX
  8
0
  5
A5EA
 10
104.956
 20
91.8024
 30
0.000000
  70
    32
  0
VERTEX
  8
0
  5
A5EB
 10
104.982
 20
91.8073
 30
0.000000
  70
    32
  0
VERTEX
  8
0
  5
A5EC
 10
105.008
 20
91.8122
 30
0.000000
  70
    32
  0
VERTEX
  8
0
  5
A5ED
 10
105.033
 20
91.8171
 30
0.000000
  70
    32
  0
VERTEX
  8
0
  5
A5EE
 10
105.059
 20
91.8220
 30
0.000000
  70
    32
  0
VERTEX
  8
0
  5
A5EF
 10
105.085
 20
91.8269
 30
0.000000
  70
    32
  0
VERTEX
  8
0
  5
A5F0
 10
105.111
 20
91.8318
 30
0.000000
  70
    32
  0
VERTEX
  8
0
  5
A5F1
 10
105.137
 20
91.8368
 30
0.000000
  70
    32
  0
VERTEX
  8
0
  5
A5F2
 10
105.163
 20
91.8418
 30
0.000000
  70
    32
  0
VERTEX
  8
0
  5
A5F3
 10
105.189
 20
91.8468
 30
0.000000
  70
    32
  0
VERTEX
  8
0
  5
A5F4
 10
105.215
 20
91.8518
 30
0.000000
  70
    32
  0
VERTEX
  8
0
  5
A5F5
 10
105.241
 20
91.8568
 30
0.000000
  70
    32
  0
VERTEX
  8
0
  5
A5F6
 10
105.267
 20
91.8618
 30
0.000000
  70
    32
  0
VERTEX
  8
0
  5
A5F7
 10
105.292
 20
91.8669
 30
0.000000
  70
    32
  0
VERTEX
  8
0
  5
A5F8
 10
105.318
 20
91.8719
 30
0.000000
  70
    32
  0
VERTEX
  8
0
  5
A5F9
 10
105.344
 20
91.8770
 30
0.000000
  70
    32
  0
VERTEX
  8
0
  5
A5FA
 10
105.370
 20
91.8821
 30
0.000000
  70
    32
  0
VERTEX
  8
0
  5
A5FB
 10
105.396
 20
91.8872
 30
0.000000
  70
    32
  0
VERTEX
  8
0
  5
A5FC
 10
105.422
 20
91.8923
 30
0.000000
  70
    32
  0
VERTEX
  8
0
  5
A5FD
 10
105.448
 20
91.8975
 30
0.000000
  70
    32
  0
VERTEX
  8
0
  5
A5FE
 10
105.474
 20
91.9026
 30
0.000000
  70
    32
  0
VERTEX
  8
0
  5
A5FF
 10
105.500
 20
91.9078
 30
0.000000
  70
    32
  0
VERTEX
  8
0
  5
A600
 10
105.525
 20
91.9130
 30
0.000000
  70
    32
  0
VERTEX
  8
0
  5
A601
 10
105.551
 20
91.9182
 30
0.000000
  70
    32
  0
VERTEX
  8
0
  5
A602
 10
105.577
 20
91.9234
 30
0.000000
  70
    32
  0
VERTEX
  8
0
  5
A603
 10
105.603
 20
91.9286
 30
0.000000
  70
    32
  0
VERTEX
  8
0
  5
A604
 10
105.629
 20
91.9339
 30
0.000000
  70
    32
  0
VERTEX
  8
0
  5
A605
 10
105.655
 20
91.9391
 30
0.000000
  70
    32
  0
VERTEX
  8
0
  5
A606
 10
105.681
 20
91.9444
 30
0.000000
  70
    32
  0
VERTEX
  8
0
  5
A607
 10
105.706
 20
91.9497
 30
0.000000
  70
    32
  0
VERTEX
  8
0
  5
A608
 10
105.732
 20
91.9550
 30
0.000000
  70
    32
  0
VERTEX
  8
0
  5
A609
 10
105.758
 20
91.9603
 30
0.000000
  70
    32
  0
VERTEX
  8
0
  5
A60A
 10
105.784
 20
91.9656
 30
0.000000
  70
    32
  0
VERTEX
  8
0
  5
A60B
 10
105.810
 20
91.9710
 30
0.000000
  70
    32
  0
VERTEX
  8
0
  5
A60C
 10
105.836
 20
91.9764
 30
0.000000
  70
    32
  0
VERTEX
  8
0
  5
A60D
 10
105.861
 20
91.9817
 30
0.000000
  70
    32
  0
VERTEX
  8
0
  5
A60E
 10
105.887
 20
91.9871
 30
0.000000
  70
    32
  0
VERTEX
  8
0
  5
A60F
 10
105.913
 20
91.9925
 30
0.000000
  70
    32
  0
VERTEX
  8
0
  5
A610
 10
105.939
 20
91.9980
 30
0.000000
  70
    32
  0
VERTEX
  8
0
  5
A611
 10
105.965
 20
92.0034
 30
0.000000
  70
    32
  0
VERTEX
  8
0
  5
A612
 10
105.990
 20
92.0089
 30
0.000000
  70
    32
  0
VERTEX
  8
0
  5
A613
 10
106.016
 20
92.0143
 30
0.000000
  70
    32
  0
VERTEX
  8
0
  5
A614
 10
106.042
 20
92.0198
 30
0.000000
  70
    32
  0
VERTEX
  8
0
  5
A615
 10
106.068
 20
92.0253
 30
0.000000
  70
    32
  0
VERTEX
  8
0
  5
A616
 10
106.094
 20
92.0308
 30
0.000000
  70
    32
  0
VERTEX
  8
0
  5
A617
 10
106.119
 20
92.0364
 30
0.000000
  70
    32
  0
VERTEX
  8
0
  5
A618
 10
106.145
 20
92.0419
 30
0.000000
  70
    32
  0
VERTEX
  8
0
  5
A619
 10
106.171
 20
92.0475
 30
0.000000
  70
    32
  0
VERTEX
  8
0
  5
A61A
 10
106.197
 20
92.0531
 30
0.000000
  70
    32
  0
VERTEX
  8
0
  5
A61B
 10
106.223
 20
92.0586
 30
0.000000
  70
    32
  0
VERTEX
  8
0
  5
A61C
 10
106.248
 20
92.0643
 30
0.000000
  70
    32
  0
VERTEX
  8
0
  5
A61D
 10
106.274
 20
92.0699
 30
0.000000
  70
    32
  0
VERTEX
  8
0
  5
A61E
 10
106.300
 20
92.0755
 30
0.000000
  70
    32
  0
VERTEX
  8
0
  5
A61F
 10
106.326
 20
92.0812
 30
0.000000
  70
    32
  0
VERTEX
  8
0
  5
A620
 10
106.351
 20
92.0868
 30
0.000000
  70
    32
  0
VERTEX
  8
0
  5
A621
 10
106.377
 20
92.0925
 30
0.000000
  70
    32
  0
VERTEX
  8
0
  5
A622
 10
106.403
 20
92.0982
 30
0.000000
  70
    32
  0
VERTEX
  8
0
  5
A623
 10
106.429
 20
92.1039
 30
0.000000
  70
    32
  0
VERTEX
  8
0
  5
A624
 10
106.455
 20
92.1096
 30
0.000000
  70
    32
  0
VERTEX
  8
0
  5
A625
 10
106.480
 20
92.1154
 30
0.000000
  70
    32
  0
VERTEX
  8
0
  5
A626
 10
106.506
 20
92.1211
 30
0.000000
  70
    32
  0
VERTEX
  8
0
  5
A627
 10
106.532
 20
92.1269
 30
0.000000
  70
    32
  0
VERTEX
  8
0
  5
A628
 10
106.558
 20
92.1327
 30
0.000000
  70
    32
  0
VERTEX
  8
0
  5
A629
 10
106.583
 20
92.1385
 30
0.000000
  70
    32
  0
VERTEX
  8
0
  5
A62A
 10
106.609
 20
92.1443
 30
0.000000
  70
    32
  0
VERTEX
  8
0
  5
A62B
 10
106.635
 20
92.1502
 30
0.000000
  70
    32
  0
VERTEX
  8
0
  5
A62C
 10
106.660
 20
92.1560
 30
0.000000
  70
    32
  0
VERTEX
  8
0
  5
A62D
 10
106.686
 20
92.1619
 30
0.000000
  70
    32
  0
VERTEX
  8
0
  5
A62E
 10
106.712
 20
92.1677
 30
0.000000
  70
    32
  0
VERTEX
  8
0
  5
A62F
 10
106.738
 20
92.1736
 30
0.000000
  70
    32
  0
VERTEX
  8
0
  5
A630
 10
106.763
 20
92.1795
 30
0.000000
  70
    32
  0
VERTEX
  8
0
  5
A631
 10
106.789
 20
92.1855
 30
0.000000
  70
    32
  0
VERTEX
  8
0
  5
A632
 10
106.815
 20
92.1914
 30
0.000000
  70
    32
  0
VERTEX
  8
0
  5
A633
 10
106.840
 20
92.1973
 30
0.000000
  70
    32
  0
VERTEX
  8
0
  5
A634
 10
106.866
 20
92.2033
 30
0.000000
  70
    32
  0
VERTEX
  8
0
  5
A635
 10
106.892
 20
92.2093
 30
0.000000
  70
    32
  0
VERTEX
  8
0
  5
A636
 10
106.917
 20
92.2153
 30
0.000000
  70
    32
  0
VERTEX
  8
0
  5
A637
 10
106.943
 20
92.2213
 30
0.000000
  70
    32
  0
VERTEX
  8
0
  5
A638
 10
106.969
 20
92.2273
 30
0.000000
  70
    32
  0
VERTEX
  8
0
  5
A639
 10
106.995
 20
92.2334
 30
0.000000
  70
    32
  0
VERTEX
  8
0
  5
A63A
 10
107.020
 20
92.2394
 30
0.000000
  70
    32
  0
VERTEX
  8
0
  5
A63B
 10
107.046
 20
92.2455
 30
0.000000
  70
    32
  0
VERTEX
  8
0
  5
A63C
 10
107.072
 20
92.2516
 30
0.000000
  70
    32
  0
VERTEX
  8
0
  5
A63D
 10
107.097
 20
92.2577
 30
0.000000
  70
    32
  0
VERTEX
  8
0
  5
A63E
 10
107.123
 20
92.2638
 30
0.000000
  70
    32
  0
VERTEX
  8
0
  5
A63F
 10
107.149
 20
92.2699
 30
0.000000
  70
    32
  0
VERTEX
  8
0
  5
A640
 10
107.174
 20
92.2761
 30
0.000000
  70
    32
  0
VERTEX
  8
0
  5
A641
 10
107.200
 20
92.2822
 30
0.000000
  70
    32
  0
VERTEX
  8
0
  5
A642
 10
107.226
 20
92.2884
 30
0.000000
  70
    32
  0
VERTEX
  8
0
  5
A643
 10
107.251
 20
92.2946
 30
0.000000
  70
    32
  0
VERTEX
  8
0
  5
A644
 10
107.277
 20
92.3008
 30
0.000000
  70
    32
  0
VERTEX
  8
0
  5
A645
 10
107.302
 20
92.3070
 30
0.000000
  70
    32
  0
VERTEX
  8
0
  5
A646
 10
107.328
 20
92.3133
 30
0.000000
  70
    32
  0
VERTEX
  8
0
  5
A647
 10
107.354
 20
92.3195
 30
0.000000
  70
    32
  0
VERTEX
  8
0
  5
A648
 10
107.379
 20
92.3258
 30
0.000000
  70
    32
  0
VERTEX
  8
0
  5
A649
 10
107.405
 20
92.3321
 30
0.000000
  70
    32
  0
VERTEX
  8
0
  5
A64A
 10
107.431
 20
92.3384
 30
0.000000
  70
    32
  0
VERTEX
  8
0
  5
A64B
 10
107.456
 20
92.3447
 30
0.000000
  70
    32
  0
VERTEX
  8
0
  5
A64C
 10
107.482
 20
92.3510
 30
0.000000
  70
    32
  0
VERTEX
  8
0
  5
A64D
 10
107.507
 20
92.3574
 30
0.000000
  70
    32
  0
VERTEX
  8
0
  5
A64E
 10
107.533
 20
92.3637
 30
0.000000
  70
    32
  0
VERTEX
  8
0
  5
A64F
 10
107.559
 20
92.3701
 30
0.000000
  70
    32
  0
VERTEX
  8
0
  5
A650
 10
107.584
 20
92.3765
 30
0.000000
  70
    32
  0
VERTEX
  8
0
  5
A651
 10
107.610
 20
92.3829
 30
0.000000
  70
    32
  0
VERTEX
  8
0
  5
A652
 10
107.635
 20
92.3893
 30
0.000000
  70
    32
  0
VERTEX
  8
0
  5
A653
 10
107.661
 20
92.3957
 30
0.000000
  70
    32
  0
VERTEX
  8
0
  5
A654
 10
107.687
 20
92.4022
 30
0.000000
  70
    32
  0
VERTEX
  8
0
  5
A655
 10
107.712
 20
92.4086
 30
0.000000
  70
    32
  0
VERTEX
  8
0
  5
A656
 10
107.738
 20
92.4151
 30
0.000000
  70
    32
  0
VERTEX
  8
0
  5
A657
 10
107.763
 20
92.4216
 30
0.000000
  70
    32
  0
VERTEX
  8
0
  5
A658
 10
107.789
 20
92.4281
 30
0.000000
  70
    32
  0
VERTEX
  8
0
  5
A659
 10
107.814
 20
92.4346
 30
0.000000
  70
    32
  0
VERTEX
  8
0
  5
A65A
 10
107.840
 20
92.4412
 30
0.000000
  70
    32
  0
VERTEX
  8
0
  5
A65B
 10
107.866
 20
92.4477
 30
0.000000
  70
    32
  0
VERTEX
  8
0
  5
A65C
 10
107.891
 20
92.4543
 30
0.000000
  70
    32
  0
VERTEX
  8
0
  5
A65D
 10
107.917
 20
92.4608
 30
0.000000
  70
    32
  0
VERTEX
  8
0
  5
A65E
 10
107.942
 20
92.4674
 30
0.000000
  70
    32
  0
VERTEX
  8
0
  5
A65F
 10
107.968
 20
92.4741
 30
0.000000
  70
    32
  0
VERTEX
  8
0
  5
A660
 10
107.993
 20
92.4807
 30
0.000000
  70
    32
  0
VERTEX
  8
0
  5
A661
 10
108.019
 20
92.4873
 30
0.000000
  70
    32
  0
VERTEX
  8
0
  5
A662
 10
108.044
 20
92.4940
 30
0.000000
  70
    32
  0
VERTEX
  8
0
  5
A663
 10
108.070
 20
92.5006
 30
0.000000
  70
    32
  0
VERTEX
  8
0
  5
A664
 10
108.095
 20
92.5073
 30
0.000000
  70
    32
  0
VERTEX
  8
0
  5
A665
 10
108.121
 20
92.5140
 30
0.000000
  70
    32
  0
SEQEND
  8
0
  5
A666
  0
LINE
  5
9F82
  8
0
 10
90.921527901753237
 20
91.503924265143198
 30
0.0
 11
102.57847215837469
 21
91.503924265143198
 31
0.0
  0
LINE
  5
9F83
  8
0
 10
103.5000000000001
 20
73.0
 30
0.0
 11
103.5000000000001
 21
77.0
 31
0.0
  0
LINE
  5
9F84
  8
0
 10
90.000000000000114
 20
77.0
 30
0.0
 11
90.000000000000114
 21
73.0
 31
0.0
  0
LINE
  5
9F85
  8
0
 10
90.000000000000114
 20
73.0
 30
0.0
 11
103.5000000000001
 21
73.0
 31
0.0
  0
LINE
  5
9FA5
  8
0
 10
50.500000000000043
 20
94.700044426558719
 30
0.0
 11
49.500000000000043
 21
94.700044426558719
 31
0.0
  0
LINE
  5
9FA6
  8
0
 10
48.834857387518987
 20
94.571691160751527
 30
0.0
 11
47.994482214465549
 21
94.324703994621558
 31
0.0
  0
LINE
  5
9FA7
  8
0
 10
47.500018927840117
 20
94.108641544823911
 30
0.0
 11
46.625251049994617
 21
93.588242136314776
 31
0.0
  0
ARC
  5
9FB1
  8
0
 10
50.247456599382659
 20
88.494900702838663
 30
0.0
 40
6.2499999999986553
 50
96.868617269537424
 51
101.8503942515509
  0
ARC
  5
9FB2
  8
0
 10
50.247456599219639
 20
88.494900703190396
 30
0.0
 40
6.2499999996111741
 50
111.12942563995649
 51
116.0777262049027
  0
ARC
  5
9FB3
  8
0
 10
50.247456599374686
 20
88.494900702844191
 30
0.0
 40
6.2499999999894289
 50
125.419101298676
 51
144.00217944594641
  0
LINE
  5
9FB4
  8
0
 10
48.963975779716868
 20
94.611695368802046
 30
0.0
 11
48.834857387518987
 21
94.571691160751527
 31
0.0
  0
ARC
  5
9FB6
  8
0
 10
46.000000000000043
 20
91.580611712695514
 30
0.0
 40
0.9999999999999836
 50
144.0021794459382
 51
180.0
  0
LINE
  5
9FB8
  8
0
 10
45.000000000000043
 20
91.580611712695514
 30
0.0
 11
45.000000000000043
 21
91.503924265143198
 31
0.0
  0
LINE
  5
9FDD
  8
1
 10
50.0
 20
50.0
 30
0.0
 11
50.000000000000043
 21
97.700044426558719
 31
0.0
  0
LINE
  5
9FDE
  8
0
 10
43.250000000000007
 20
73.0
 30
0.0
 11
56.750000000000007
 21
73.0
 31
0.0
  0
LINE
  5
9FDF
  8
0
 10
56.750000000000007
 20
73.0
 30
0.0
 11
56.750000000000043
 21
91.503924265143198
 31
0.0
  0
LINE
  5
9FE0
  8
0
 10
43.250000000000043
 20
91.503924265143198
 30
0.0
 11
43.250000000000007
 21
73.0
 31
0.0
  0
LINE
  5
9FE1
  8
0
 10
53.404616424791122
 20
91.503924265143198
 30
0.0
 11
53.404616424791087
 21
77.0
 31
0.0
  0
LINE
  5
9FE2
  8
0
 10
52.215146709437207
 20
77.534081874018483
 30
0.0
 11
52.221547213337807
 21
77.59970502993275
 31
0.0
  0
LINE
  5
9FE3
  8
0
 10
46.595383575208963
 20
91.503924265143198
 30
0.0
 11
46.595383575208942
 21
77.0
 31
0.0
  0
POLYLINE
  5
9FE4
  8
0
 66
     1
 10
0.0
 20
0.0
 30
0.0
  0
VERTEX
  5
A37E
  8
0
 10
47.076630864887569
 20
91.519553229120618
 30
0.0
  0
VERTEX
  5
A37F
  8
0
 10
47.005191483371711
 20
91.514959486828502
 30
0.0
  0
VERTEX
  5
A380
  8
0
 10
46.796669037973778
 20
91.506375861679913
 30
0.0
  0
VERTEX
  5
A381
  8
0
 10
46.595383575208963
 20
91.503924265143198
 30
0.0
  0
SEQEND
  5
A382
  8
0
  0
POLYLINE
  5
9FE5
  8
0
 66
     1
 10
0.0
 20
0.0
 30
0.0
  0
VERTEX
  5
A383
  8
0
 10
47.784853287155002
 20
77.534117504309137
 30
0.0
  0
VERTEX
  5
A384
  8
0
 10
47.782678403718549
 20
77.498207003331629
 30
0.0
  0
VERTEX
  5
A385
  8
0
 10
47.755566280520448
 20
77.401382466938372
 30
0.0
  0
VERTEX
  5
A386
  8
0
 10
47.69692934569251
 20
77.311327345542196
 30
0.0
  0
VERTEX
  5
A387
  8
0
 10
47.605696815004123
 20
77.229166087236422
 30
0.0
  0
VERTEX
  5
A388
  8
0
 10
47.482499006425329
 20
77.156649600237131
 30
0.0
  0
VERTEX
  5
A389
  8
0
 10
47.329084155892538
 20
77.096101880542534
 30
0.0
  0
VERTEX
  5
A38A
  8
0
 10
47.158878210624728
 20
77.051918231507386
 30
0.0
  0
VERTEX
  5
A38B
  8
0
 10
46.964399267959671
 20
77.02058344148017
 30
0.0
  0
VERTEX
  5
A38C
  8
0
 10
46.749614912706377
 20
77.003311225609664
 30
0.0
  0
VERTEX
  5
A38D
  8
0
 10
46.595383575209759
 20
76.999999999999488
 30
0.0
  0
SEQEND
  5
A38E
  8
0
  0
POLYLINE
  5
9FE6
  8
0
 66
     1
 10
0.0
 20
0.0
 30
0.0
  0
VERTEX
  5
A38F
  8
0
 10
53.404616424791122
 20
91.503924265143198
 30
0.0
  0
VERTEX
  5
A390
  8
0
 10
53.183365423165647
 20
91.506948361615187
 30
0.0
  0
VERTEX
  5
A391
  8
0
 10
52.978981320541592
 20
91.515901578920818
 30
0.0
  0
VERTEX
  5
A392
  8
0
 10
52.923713071719767
 20
91.519528469710224
 30
0.0
  0
SEQEND
  5
A393
  8
0
  0
LINE
  5
9FE7
  8
0
 10
53.404616424791122
 20
91.503924265143198
 30
0.0
 11
56.750000000000043
 21
91.503924265143198
 31
0.0
  0
LINE
  5
9FE8
  8
0
 10
43.250000000000043
 20
91.503924265143198
 30
0.0
 11
46.595383575208963
 21
91.503924265143198
 31
0.0
  0
POLYLINE
  5
9FE9
  8
0
 66
     1
 10
0.0
 20
0.0
 30
0.0
  0
VERTEX
  5
A394
  8
0
 10
52.822825646294362
 20
81.561940859144613
 30
0.0
  0
VERTEX
  5
A395
  8
0
 10
52.750786076438899
 20
80.993675195801728
 30
0.0
  0
VERTEX
  5
A396
  8
0
 10
52.677893585619998
 20
80.446209856114535
 30
0.0
  0
VERTEX
  5
A397
  8
0
 10
52.604047875675533
 20
79.918910772446694
 30
0.0
  0
VERTEX
  5
A398
  8
0
 10
52.529408015401501
 20
79.413039620075935
 30
0.0
  0
VERTEX
  5
A399
  8
0
 10
52.45359493787727
 20
78.926325185208185
 30
0.0
  0
VERTEX
  5
A39A
  8
0
 10
52.377041600887672
 20
78.461874789519783
 30
0.0
  0
VERTEX
  5
A39B
  8
0
 10
52.299635609147437
 20
78.019234640653167
 30
0.0
  0
VERTEX
  5
A39C
  8
0
 10
52.221547213337807
 20
77.59970502993275
 30
0.0
  0
SEQEND
  5
A39D
  8
0
  0
POLYLINE
  5
9FEA
  8
0
 66
     1
 10
0.0
 20
0.0
 30
0.0
  0
VERTEX
  5
A39E
  8
0
 10
47.778452786662207
 20
77.599705029932778
 30
0.0
  0
VERTEX
  5
A39F
  8
0
 10
47.701066303200193
 20
78.015343520103812
 30
0.0
  0
VERTEX
  5
A3A0
  8
0
 10
47.624349697478422
 20
78.453680991750133
 30
0.0
  0
VERTEX
  5
A3A1
  8
0
 10
47.54819321179049
 20
78.915169338683199
 30
0.0
  0
VERTEX
  5
A3A2
  8
0
 10
47.472768321743771
 20
79.398690364777764
 30
0.0
  0
VERTEX
  5
A3A3
  8
0
 10
47.397699854844021
 20
79.906757186448601
 30
0.0
  0
VERTEX
  5
A3A4
  8
0
 10
47.323433507615242
 20
80.436493600032478
 30
0.0
  0
VERTEX
  5
A3A5
  8
0
 10
47.249869857892499
 20
80.988626716682319
 30
0.0
  0
VERTEX
  5
A3A6
  8
0
 10
47.177174353705659
 20
81.561940859144613
 30
0.0
  0
SEQEND
  5
A3A7
  8
0
  0
LINE
  5
9FEB
  8
0
 10
47.778452786662207
 20
77.59970502993275
 30
0.0
 11
47.784853287155002
 21
77.534117504309137
 31
0.0
  0
LINE
  5
9FEC
  8
0
 10
46.595383575208942
 20
77.0
 30
0.0
 11
53.404616424791087
 21
77.0
 31
0.0
  0
POLYLINE
  5
9FED
  8
0
 66
     1
 10
0.0
 20
0.0
 30
0.0
  0
VERTEX
  5
A3A8
  8
0
 10
53.404616424791087
 20
77.0
 30
0.0
  0
VERTEX
  5
A3A9
  8
0
 10
53.194702381502857
 20
77.006362108401163
 30
0.0
  0
VERTEX
  5
A3AA
  8
0
 10
53.000066155067991
 20
77.025018175606903
 30
0.0
  0
VERTEX
  5
A3AB
  8
0
 10
52.824327742855921
 20
77.055322814620581
 30
0.0
  0
VERTEX
  5
A3AC
  8
0
 10
52.669449036043439
 20
77.096671441896831
 30
0.0
  0
VERTEX
  5
A3AD
  8
0
 10
52.535687003794934
 20
77.148058695129919
 30
0.0
  0
VERTEX
  5
A3AE
  8
0
 10
52.424790786707902
 20
77.208088665296913
 30
0.0
  0
VERTEX
  5
A3AF
  8
0
 10
52.334029837515423
 20
77.279027695550099
 30
0.0
  0
VERTEX
  5
A3B0
  8
0
 10
52.268653130685962
 20
77.357250606638871
 30
0.0
  0
VERTEX
  5
A3B1
  8
0
 10
52.229070446733452
 20
77.441122851054786
 30
0.0
  0
VERTEX
  5
A3B2
  8
0
 10
52.215514698654303
 20
77.518954035219679
 30
0.0
  0
VERTEX
  5
A3B3
  8
0
 10
52.215146709437207
 20
77.534081874018483
 30
0.0
  0
SEQEND
  5
A3B4
  8
0
  0
LINE
  5
9FEE
  8
0
 10
47.000000000000043
 20
90.387038053187595
 30
0.0
 11
47.000000000000007
 21
83.612961946809065
 31
0.0
  0
LINE
  5
9FEF
  8
0
 10
53.000000000000043
 20
90.387038053166975
 30
0.0
 11
53.000000000000007
 21
83.612961946821684
 31
0.0
  0
POLYLINE
  5
9FF0
  8
0
 66
     1
 10
0.0
 20
0.0
 30
0.0
  0
VERTEX
  5
A3B5
  8
0
 10
47.000000000000753
 20
90.387038053181016
 30
0.0
  0
VERTEX
  5
A3B6
  8
0
 10
47.021790003669352
 20
90.785465391954176
 30
0.0
  0
VERTEX
  5
A3B7
  8
0
 10
47.046091970495993
 20
91.160267263338326
 30
0.0
  0
VERTEX
  5
A3B8
  8
0
 10
47.059367581182713
 20
91.340685770175426
 30
0.0
  0
VERTEX
  5
A3B9
  8
0
 10
47.073192251712143
 20
91.513189198452551
 30
0.0
  0
VERTEX
  5
A3BA
  8
0
 10
47.087648594551112
 20
91.678638915112884
 30
0.0
  0
VERTEX
  5
A3BB
  8
0
 10
47.102609444530273
 20
91.835442728922615
 30
0.0
  0
VERTEX
  5
A3BC
  8
0
 10
47.13280488518155
 20
92.112555479225193
 30
0.0
  0
VERTEX
  5
A3BD
  8
0
 10
47.164792119032242
 20
92.356104851155408
 30
0.0
  0
VERTEX
  5
A3BE
  8
0
 10
47.181673003578467
 20
92.466234117240276
 30
0.0
  0
VERTEX
  5
A3BF
  8
0
 10
47.198879573665302
 20
92.566455415569109
 30
0.0
  0
VERTEX
  5
A3C0
  8
0
 10
47.216509491224947
 20
92.657205810513716
 30
0.0
  0
VERTEX
  5
A3C1
  8
0
 10
47.2344058969705
 20
92.737569583623724
 30
0.0
  0
VERTEX
  5
A3C2
  8
0
 10
47.269702013911377
 20
92.863156358018244
 30
0.0
  0
VERTEX
  5
A3C3
  8
0
 10
47.305882599318217
 20
92.948912857216158
 30
0.0
  0
VERTEX
  5
A3C4
  8
0
 10
47.324530018121528
 20
92.976775016863698
 30
0.0
  0
VERTEX
  5
A3C5
  8
0
 10
47.34324676711703
 20
92.993805530733397
 30
0.0
  0
VERTEX
  5
A3C6
  8
0
 10
47.362135331456287
 20
92.999977535212423
 30
0.0
  0
VERTEX
  5
A3C7
  8
0
 10
47.36361320409388
 20
92.999998214295346
 30
0.0
  0
SEQEND
  5
A3C8
  8
0
  0
POLYLINE
  5
9FF3
  8
0
 66
     1
 10
0.0
 20
0.0
 30
0.0
  0
VERTEX
  5
A3C9
  8
0
 10
47.177174353705659
 20
81.561940859144613
 30
0.0
  0
VERTEX
  5
A3CA
  8
0
 10
47.144757694837502
 20
81.79085967647967
 30
0.0
  0
VERTEX
  5
A3CB
  8
0
 10
47.113833560930303
 20
82.055719047474611
 30
0.0
  0
VERTEX
  5
A3CC
  8
0
 10
47.093604041013023
 20
82.257304991481874
 30
0.0
  0
VERTEX
  5
A3CD
  8
0
 10
47.074228370055387
 20
82.474506798270156
 30
0.0
  0
VERTEX
  5
A3CE
  8
0
 10
47.05580146959754
 20
82.706278645878513
 30
0.0
  0
VERTEX
  5
A3CF
  8
0
 10
47.040712322878427
 20
82.917412352010388
 30
0.0
  0
VERTEX
  5
A3D0
  8
0
 10
47.026399153733287
 20
83.138456815947791
 30
0.0
  0
VERTEX
  5
A3D1
  8
0
 10
47.012768963312148
 20
83.371211826937866
 30
0.0
  0
VERTEX
  5
A3D2
  8
0
 10
47.000000000000007
 20
83.612961946809065
 30
0.0
  0
SEQEND
  5
A3D3
  8
0
  0
POLYLINE
  5
9FF5
  8
0
 66
     1
 10
0.0
 20
0.0
 30
0.0
  0
VERTEX
  5
A3D4
  8
0
 10
53.000000000000007
 20
83.612961946821684
 30
0.0
  0
VERTEX
  5
A3D5
  8
0
 10
52.978125929719923
 20
83.213181255001459
 30
0.0
  0
VERTEX
  5
A3D6
  8
0
 10
52.953903948492908
 20
82.839674856892927
 30
0.0
  0
VERTEX
  5
A3D7
  8
0
 10
52.93601421659708
 20
82.600075843104335
 30
0.0
  0
VERTEX
  5
A3D8
  8
0
 10
52.917142260559373
 20
82.374640992817419
 30
0.0
  0
VERTEX
  5
A3D9
  8
0
 10
52.897380645412753
 20
82.164457952113196
 30
0.0
  0
VERTEX
  5
A3DA
  8
0
 10
52.879665899685293
 20
81.995917392604412
 30
0.0
  0
VERTEX
  5
A3DB
  8
0
 10
52.861369388386251
 20
81.839479106516364
 30
0.0
  0
VERTEX
  5
A3DC
  8
0
 10
52.842348000732713
 20
81.694179532254509
 30
0.0
  0
VERTEX
  5
A3DD
  8
0
 10
52.822825646294362
 20
81.561940859144613
 30
0.0
  0
SEQEND
  5
A3DE
  8
0
  0
LINE
  5
9FF8
  8
0
 10
52.637047612579188
 20
93.000000000000057
 30
0.0
 11
47.362772869364321
 21
93.000000000000057
 31
0.0
  0
POLYLINE
  5
9FF9
  8
0
 66
     1
 10
0.0
 20
0.0
 30
0.0
  0
VERTEX
  5
A3DF
  8
0
 10
52.636543035705543
 20
92.999999477982158
 30
0.0
  0
VERTEX
  5
A3E0
  8
0
 10
52.641065960269671
 20
92.999706859522718
 30
0.0
  0
VERTEX
  5
A3E1
  8
0
 10
52.660063924429878
 20
92.991586219117721
 30
0.0
  0
VERTEX
  5
A3E2
  8
0
 10
52.67915984030337
 20
92.972128691367757
 30
0.0
  0
VERTEX
  5
A3E3
  8
0
 10
52.698176611335029
 20
92.941390805786767
 30
0.0
  0
VERTEX
  5
A3E4
  8
0
 10
52.734361016591727
 20
92.850852912322807
 30
0.0
  0
VERTEX
  5
A3E5
  8
0
 10
52.770116779187369
 20
92.718351583278832
 30
0.0
  0
VERTEX
  5
A3E6
  8
0
 10
52.788042357700029
 20
92.634897250543645
 30
0.0
  0
VERTEX
  5
A3E7
  8
0
 10
52.805690207654621
 20
92.540985872724093
 30
0.0
  0
VERTEX
  5
A3E8
  8
0
 10
52.823155647614172
 20
92.435956174298454
 30
0.0
  0
VERTEX
  5
A3E9
  8
0
 10
52.840273033189767
 20
92.320670028771147
 30
0.0
  0
VERTEX
  5
A3EA
  8
0
 10
52.872001090636203
 20
92.071706019650037
 30
0.0
  0
VERTEX
  5
A3EB
  8
0
 10
52.902314209884608
 20
91.785369572874231
 30
0.0
  0
VERTEX
  5
A3EC
  8
0
 10
52.917099987744209
 20
91.625873573023554
 30
0.0
  0
VERTEX
  5
A3ED
  8
0
 10
52.931373398310733
 20
91.457843456092377
 30
0.0
  0
VERTEX
  5
A3EE
  8
0
 10
52.945207754915529
 20
91.280231358269916
 30
0.0
  0
VERTEX
  5
A3EF
  8
0
 10
52.958469031029161
 20
91.094594159747771
 30
0.0
  0
VERTEX
  5
A3F0
  8
0
 10
52.980153135577758
 20
90.752613535701684
 30
0.0
  0
VERTEX
  5
A3F1
  8
0
 10
53.000000000000043
 20
90.387038053166975
 30
0.0
  0
SEQEND
  5
A3F2
  8
0
  0
LINE
  5
9FFF
  8
1
 10
96.750000000000128
 20
115.7000444265587
 30
0.0
 11
96.750000000000128
 21
135.20004442655869
 31
0.0
  0
LINE
  5
A000
  8
1
 10
119.74999999999579
 20
125.4500444265587
 30
0.0
 11
73.750000000014339
 21
125.4500444265587
 31
0.0
  0
CIRCLE
  5
A00F
  8
0
 10
96.750000000000185
 20
125.45004442655861
 30
0.0
 40
0.5
  0
CIRCLE
  5
A010
  8
0
 10
96.750000000000128
 20
125.4500444265587
 30
0.0
 40
5.0
  0
POLYLINE
  5
A011
  8
0
 10
99.750688658309656
 20
125.95004442655861
 30
0.0
 66
     1
 70
     8
  0
VERTEX
  8
0
  5
A667
 10
99.7507
 20
125.950
 30
0.000000
  70
    32
  0
VERTEX
  8
0
  5
A668
 10
99.7276
 20
125.949
 30
0.000000
  70
    32
  0
VERTEX
  8
0
  5
A669
 10
99.7046
 20
125.948
 30
0.000000
  70
    32
  0
VERTEX
  8
0
  5
A66A
 10
99.6817
 20
125.945
 30
0.000000
  70
    32
  0
VERTEX
  8
0
  5
A66B
 10
99.6590
 20
125.940
 30
0.000000
  70
    32
  0
VERTEX
  8
0
  5
A66C
 10
99.6365
 20
125.935
 30
0.000000
  70
    32
  0
VERTEX
  8
0
  5
A66D
 10
99.6143
 20
125.929
 30
0.000000
  70
    32
  0
VERTEX
  8
0
  5
A66E
 10
99.5924
 20
125.921
 30
0.000000
  70
    32
  0
VERTEX
  8
0
  5
A66F
 10
99.5709
 20
125.912
 30
0.000000
  70
    32
  0
VERTEX
  8
0
  5
A670
 10
99.5498
 20
125.902
 30
0.000000
  70
    32
  0
VERTEX
  8
0
  5
A671
 10
99.5292
 20
125.891
 30
0.000000
  70
    32
  0
VERTEX
  8
0
  5
A672
 10
99.5091
 20
125.879
 30
0.000000
  70
    32
  0
VERTEX
  8
0
  5
A673
 10
99.4897
 20
125.866
 30
0.000000
  70
    32
  0
VERTEX
  8
0
  5
A674
 10
99.4708
 20
125.852
 30
0.000000
  70
    32
  0
VERTEX
  8
0
  5
A675
 10
99.4526
 20
125.837
 30
0.000000
  70
    32
  0
VERTEX
  8
0
  5
A676
 10
99.4352
 20
125.821
 30
0.000000
  70
    32
  0
VERTEX
  8
0
  5
A677
 10
99.4185
 20
125.804
 30
0.000000
  70
    32
  0
VERTEX
  8
0
  5
A678
 10
99.4026
 20
125.786
 30
0.000000
  70
    32
  0
VERTEX
  8
0
  5
A679
 10
99.3875
 20
125.767
 30
0.000000
  70
    32
  0
VERTEX
  8
0
  5
A67A
 10
99.3733
 20
125.748
 30
0.000000
  70
    32
  0
VERTEX
  8
0
  5
A67B
 10
99.3600
 20
125.728
 30
0.000000
  70
    32
  0
VERTEX
  8
0
  5
A67C
 10
99.3477
 20
125.707
 30
0.000000
  70
    32
  0
VERTEX
  8
0
  5
A67D
 10
99.3363
 20
125.686
 30
0.000000
  70
    32
  0
VERTEX
  8
0
  5
A67E
 10
99.3260
 20
125.664
 30
0.000000
  70
    32
  0
VERTEX
  8
0
  5
A67F
 10
99.3166
 20
125.641
 30
0.000000
  70
    32
  0
VERTEX
  8
0
  5
A680
 10
99.3083
 20
125.618
 30
0.000000
  70
    32
  0
VERTEX
  8
0
  5
A681
 10
99.3011
 20
125.595
 30
0.000000
  70
    32
  0
VERTEX
  8
0
  5
A682
 10
99.2949
 20
125.572
 30
0.000000
  70
    32
  0
VERTEX
  8
0
  5
A683
 10
99.2899
 20
125.548
 30
0.000000
  70
    32
  0
VERTEX
  8
0
  5
A684
 10
99.2859
 20
125.523
 30
0.000000
  70
    32
  0
VERTEX
  8
0
  5
A685
 10
99.2831
 20
125.499
 30
0.000000
  70
    32
  0
VERTEX
  8
0
  5
A686
 10
99.2814
 20
125.475
 30
0.000000
  70
    32
  0
VERTEX
  8
0
  5
A687
 10
99.2808
 20
125.450
 30
0.000000
  70
    32
  0
VERTEX
  8
0
  5
A688
 10
99.2814
 20
125.426
 30
0.000000
  70
    32
  0
VERTEX
  8
0
  5
A689
 10
99.2831
 20
125.401
 30
0.000000
  70
    32
  0
VERTEX
  8
0
  5
A68A
 10
99.2859
 20
125.377
 30
0.000000
  70
    32
  0
VERTEX
  8
0
  5
A68B
 10
99.2899
 20
125.352
 30
0.000000
  70
    32
  0
VERTEX
  8
0
  5
A68C
 10
99.2949
 20
125.329
 30
0.000000
  70
    32
  0
VERTEX
  8
0
  5
A68D
 10
99.3011
 20
125.305
 30
0.000000
  70
    32
  0
VERTEX
  8
0
  5
A68E
 10
99.3083
 20
125.282
 30
0.000000
  70
    32
  0
VERTEX
  8
0
  5
A68F
 10
99.3166
 20
125.259
 30
0.000000
  70
    32
  0
VERTEX
  8
0
  5
A690
 10
99.3260
 20
125.236
 30
0.000000
  70
    32
  0
VERTEX
  8
0
  5
A691
 10
99.3363
 20
125.214
 30
0.000000
  70
    32
  0
VERTEX
  8
0
  5
A692
 10
99.3477
 20
125.193
 30
0.000000
  70
    32
  0
VERTEX
  8
0
  5
A693
 10
99.3600
 20
125.172
 30
0.000000
  70
    32
  0
VERTEX
  8
0
  5
A694
 10
99.3733
 20
125.152
 30
0.000000
  70
    32
  0
VERTEX
  8
0
  5
A695
 10
99.3875
 20
125.133
 30
0.000000
  70
    32
  0
VERTEX
  8
0
  5
A696
 10
99.4026
 20
125.114
 30
0.000000
  70
    32
  0
VERTEX
  8
0
  5
A697
 10
99.4185
 20
125.096
 30
0.000000
  70
    32
  0
VERTEX
  8
0
  5
A698
 10
99.4352
 20
125.080
 30
0.000000
  70
    32
  0
VERTEX
  8
0
  5
A699
 10
99.4526
 20
125.064
 30
0.000000
  70
    32
  0
VERTEX
  8
0
  5
A69A
 10
99.4708
 20
125.048
 30
0.000000
  70
    32
  0
VERTEX
  8
0
  5
A69B
 10
99.4897
 20
125.034
 30
0.000000
  70
    32
  0
VERTEX
  8
0
  5
A69C
 10
99.5091
 20
125.021
 30
0.000000
  70
    32
  0
VERTEX
  8
0
  5
A69D
 10
99.5292
 20
125.009
 30
0.000000
  70
    32
  0
VERTEX
  8
0
  5
A69E
 10
99.5498
 20
124.998
 30
0.000000
  70
    32
  0
VERTEX
  8
0
  5
A69F
 10
99.5709
 20
124.988
 30
0.000000
  70
    32
  0
VERTEX
  8
0
  5
A6A0
 10
99.5924
 20
124.979
 30
0.000000
  70
    32
  0
VERTEX
  8
0
  5
A6A1
 10
99.6143
 20
124.972
 30
0.000000
  70
    32
  0
VERTEX
  8
0
  5
A6A2
 10
99.6365
 20
124.965
 30
0.000000
  70
    32
  0
VERTEX
  8
0
  5
A6A3
 10
99.6590
 20
124.960
 30
0.000000
  70
    32
  0
VERTEX
  8
0
  5
A6A4
 10
99.6817
 20
124.955
 30
0.000000
  70
    32
  0
VERTEX
  8
0
  5
A6A5
 10
99.7046
 20
124.952
 30
0.000000
  70
    32
  0
VERTEX
  8
0
  5
A6A6
 10
99.7276
 20
124.951
 30
0.000000
  70
    32
  0
VERTEX
  8
0
  5
A6A7
 10
99.7507
 20
124.950
 30
0.000000
  70
    32
  0
VERTEX
  8
0
  5
A6A8
 10
99.7737
 20
124.951
 30
0.000000
  70
    32
  0
VERTEX
  8
0
  5
A6A9
 10
99.7967
 20
124.952
 30
0.000000
  70
    32
  0
VERTEX
  8
0
  5
A6AA
 10
99.8196
 20
124.955
 30
0.000000
  70
    32
  0
VERTEX
  8
0
  5
A6AB
 10
99.8424
 20
124.960
 30
0.000000
  70
    32
  0
VERTEX
  8
0
  5
A6AC
 10
99.8649
 20
124.965
 30
0.000000
  70
    32
  0
VERTEX
  8
0
  5
A6AD
 10
99.8871
 20
124.972
 30
0.000000
  70
    32
  0
VERTEX
  8
0
  5
A6AE
 10
99.9090
 20
124.979
 30
0.000000
  70
    32
  0
VERTEX
  8
0
  5
A6AF
 10
99.9305
 20
124.988
 30
0.000000
  70
    32
  0
VERTEX
  8
0
  5
A6B0
 10
99.9516
 20
124.998
 30
0.000000
  70
    32
  0
VERTEX
  8
0
  5
A6B1
 10
99.9722
 20
125.009
 30
0.000000
  70
    32
  0
VERTEX
  8
0
  5
A6B2
 10
99.9922
 20
125.021
 30
0.000000
  70
    32
  0
VERTEX
  8
0
  5
A6B3
 10
100.012
 20
125.034
 30
0.000000
  70
    32
  0
VERTEX
  8
0
  5
A6B4
 10
100.031
 20
125.048
 30
0.000000
  70
    32
  0
VERTEX
  8
0
  5
A6B5
 10
100.049
 20
125.064
 30
0.000000
  70
    32
  0
VERTEX
  8
0
  5
A6B6
 10
100.066
 20
125.080
 30
0.000000
  70
    32
  0
VERTEX
  8
0
  5
A6B7
 10
100.083
 20
125.096
 30
0.000000
  70
    32
  0
VERTEX
  8
0
  5
A6B8
 10
100.099
 20
125.114
 30
0.000000
  70
    32
  0
VERTEX
  8
0
  5
A6B9
 10
100.114
 20
125.133
 30
0.000000
  70
    32
  0
VERTEX
  8
0
  5
A6BA
 10
100.128
 20
125.152
 30
0.000000
  70
    32
  0
VERTEX
  8
0
  5
A6BB
 10
100.141
 20
125.172
 30
0.000000
  70
    32
  0
VERTEX
  8
0
  5
A6BC
 10
100.154
 20
125.193
 30
0.000000
  70
    32
  0
VERTEX
  8
0
  5
A6BD
 10
100.165
 20
125.214
 30
0.000000
  70
    32
  0
VERTEX
  8
0
  5
A6BE
 10
100.175
 20
125.236
 30
0.000000
  70
    32
  0
VERTEX
  8
0
  5
A6BF
 10
100.185
 20
125.259
 30
0.000000
  70
    32
  0
VERTEX
  8
0
  5
A6C0
 10
100.193
 20
125.282
 30
0.000000
  70
    32
  0
VERTEX
  8
0
  5
A6C1
 10
100.200
 20
125.305
 30
0.000000
  70
    32
  0
VERTEX
  8
0
  5
A6C2
 10
100.206
 20
125.329
 30
0.000000
  70
    32
  0
VERTEX
  8
0
  5
A6C3
 10
100.212
 20
125.352
 30
0.000000
  70
    32
  0
VERTEX
  8
0
  5
A6C4
 10
100.215
 20
125.377
 30
0.000000
  70
    32
  0
VERTEX
  8
0
  5
A6C5
 10
100.218
 20
125.401
 30
0.000000
  70
    32
  0
VERTEX
  8
0
  5
A6C6
 10
100.220
 20
125.426
 30
0.000000
  70
    32
  0
VERTEX
  8
0
  5
A6C7
 10
100.221
 20
125.450
 30
0.000000
  70
    32
  0
VERTEX
  8
0
  5
A6C8
 10
100.220
 20
125.475
 30
0.000000
  70
    32
  0
VERTEX
  8
0
  5
A6C9
 10
100.218
 20
125.499
 30
0.000000
  70
    32
  0
VERTEX
  8
0
  5
A6CA
 10
100.215
 20
125.523
 30
0.000000
  70
    32
  0
VERTEX
  8
0
  5
A6CB
 10
100.212
 20
125.548
 30
0.000000
  70
    32
  0
VERTEX
  8
0
  5
A6CC
 10
100.206
 20
125.572
 30
0.000000
  70
    32
  0
VERTEX
  8
0
  5
A6CD
 10
100.200
 20
125.595
 30
0.000000
  70
    32
  0
VERTEX
  8
0
  5
A6CE
 10
100.193
 20
125.618
 30
0.000000
  70
    32
  0
VERTEX
  8
0
  5
A6CF
 10
100.185
 20
125.641
 30
0.000000
  70
    32
  0
VERTEX
  8
0
  5
A6D0
 10
100.175
 20
125.664
 30
0.000000
  70
    32
  0
VERTEX
  8
0
  5
A6D1
 10
100.165
 20
125.686
 30
0.000000
  70
    32
  0
VERTEX
  8
0
  5
A6D2
 10
100.154
 20
125.707
 30
0.000000
  70
    32
  0
VERTEX
  8
0
  5
A6D3
 10
100.141
 20
125.728
 30
0.000000
  70
    32
  0
VERTEX
  8
0
  5
A6D4
 10
100.128
 20
125.748
 30
0.000000
  70
    32
  0
VERTEX
  8
0
  5
A6D5
 10
100.114
 20
125.767
 30
0.000000
  70
    32
  0
VERTEX
  8
0
  5
A6D6
 10
100.099
 20
125.786
 30
0.000000
  70
    32
  0
VERTEX
  8
0
  5
A6D7
 10
100.083
 20
125.804
 30
0.000000
  70
    32
  0
VERTEX
  8
0
  5
A6D8
 10
100.066
 20
125.821
 30
0.000000
  70
    32
  0
VERTEX
  8
0
  5
A6D9
 10
100.049
 20
125.837
 30
0.000000
  70
    32
  0
VERTEX
  8
0
  5
A6DA
 10
100.031
 20
125.852
 30
0.000000
  70
    32
  0
VERTEX
  8
0
  5
A6DB
 10
100.012
 20
125.866
 30
0.000000
  70
    32
  0
VERTEX
  8
0
  5
A6DC
 10
99.9922
 20
125.879
 30
0.000000
  70
    32
  0
VERTEX
  8
0
  5
A6DD
 10
99.9722
 20
125.891
 30
0.000000
  70
    32
  0
VERTEX
  8
0
  5
A6DE
 10
99.9516
 20
125.902
 30
0.000000
  70
    32
  0
VERTEX
  8
0
  5
A6DF
 10
99.9305
 20
125.912
 30
0.000000
  70
    32
  0
VERTEX
  8
0
  5
A6E0
 10
99.9090
 20
125.921
 30
0.000000
  70
    32
  0
VERTEX
  8
0
  5
A6E1
 10
99.8871
 20
125.929
 30
0.000000
  70
    32
  0
VERTEX
  8
0
  5
A6E2
 10
99.8649
 20
125.935
 30
0.000000
  70
    32
  0
VERTEX
  8
0
  5
A6E3
 10
99.8424
 20
125.940
 30
0.000000
  70
    32
  0
VERTEX
  8
0
  5
A6E4
 10
99.8196
 20
125.945
 30
0.000000
  70
    32
  0
VERTEX
  8
0
  5
A6E5
 10
99.7967
 20
125.948
 30
0.000000
  70
    32
  0
VERTEX
  8
0
  5
A6E6
 10
99.7737
 20
125.949
 30
0.000000
  70
    32
  0
VERTEX
  8
0
  5
A6E7
 10
99.7507
 20
125.950
 30
0.000000
  70
    32
  0
SEQEND
  8
0
  5
A6E8
  0
POLYLINE
  5
A012
  8
0
 10
93.749311341690657
 20
125.95004442655861
 30
0.0
 66
     1
 70
     8
  0
VERTEX
  8
0
  5
A6E9
 10
93.7493
 20
125.950
 30
0.000000
  70
    32
  0
VERTEX
  8
0
  5
A6EA
 10
93.7263
 20
125.949
 30
0.000000
  70
    32
  0
VERTEX
  8
0
  5
A6EB
 10
93.7033
 20
125.948
 30
0.000000
  70
    32
  0
VERTEX
  8
0
  5
A6EC
 10
93.6804
 20
125.945
 30
0.000000
  70
    32
  0
VERTEX
  8
0
  5
A6ED
 10
93.6576
 20
125.940
 30
0.000000
  70
    32
  0
VERTEX
  8
0
  5
A6EE
 10
93.6351
 20
125.935
 30
0.000000
  70
    32
  0
VERTEX
  8
0
  5
A6EF
 10
93.6129
 20
125.929
 30
0.000000
  70
    32
  0
VERTEX
  8
0
  5
A6F0
 10
93.5910
 20
125.921
 30
0.000000
  70
    32
  0
VERTEX
  8
0
  5
A6F1
 10
93.5695
 20
125.912
 30
0.000000
  70
    32
  0
VERTEX
  8
0
  5
A6F2
 10
93.5484
 20
125.902
 30
0.000000
  70
    32
  0
VERTEX
  8
0
  5
A6F3
 10
93.5278
 20
125.891
 30
0.000000
  70
    32
  0
VERTEX
  8
0
  5
A6F4
 10
93.5078
 20
125.879
 30
0.000000
  70
    32
  0
VERTEX
  8
0
  5
A6F5
 10
93.4883
 20
125.866
 30
0.000000
  70
    32
  0
VERTEX
  8
0
  5
A6F6
 10
93.4694
 20
125.852
 30
0.000000
  70
    32
  0
VERTEX
  8
0
  5
A6F7
 10
93.4512
 20
125.837
 30
0.000000
  70
    32
  0
VERTEX
  8
0
  5
A6F8
 10
93.4338
 20
125.821
 30
0.000000
  70
    32
  0
VERTEX
  8
0
  5
A6F9
 10
93.4171
 20
125.804
 30
0.000000
  70
    32
  0
VERTEX
  8
0
  5
A6FA
 10
93.4012
 20
125.786
 30
0.000000
  70
    32
  0
VERTEX
  8
0
  5
A6FB
 10
93.3861
 20
125.767
 30
0.000000
  70
    32
  0
VERTEX
  8
0
  5
A6FC
 10
93.3719
 20
125.748
 30
0.000000
  70
    32
  0
VERTEX
  8
0
  5
A6FD
 10
93.3586
 20
125.728
 30
0.000000
  70
    32
  0
VERTEX
  8
0
  5
A6FE
 10
93.3463
 20
125.707
 30
0.000000
  70
    32
  0
VERTEX
  8
0
  5
A6FF
 10
93.3349
 20
125.686
 30
0.000000
  70
    32
  0
VERTEX
  8
0
  5
A700
 10
93.3246
 20
125.664
 30
0.000000
  70
    32
  0
VERTEX
  8
0
  5
A701
 10
93.3152
 20
125.641
 30
0.000000
  70
    32
  0
VERTEX
  8
0
  5
A702
 10
93.3069
 20
125.618
 30
0.000000
  70
    32
  0
VERTEX
  8
0
  5
A703
 10
93.2997
 20
125.595
 30
0.000000
  70
    32
  0
VERTEX
  8
0
  5
A704
 10
93.2935
 20
125.572
 30
0.000000
  70
    32
  0
VERTEX
  8
0
  5
A705
 10
93.2885
 20
125.548
 30
0.000000
  70
    32
  0
VERTEX
  8
0
  5
A706
 10
93.2846
 20
125.523
 30
0.000000
  70
    32
  0
VERTEX
  8
0
  5
A707
 10
93.2817
 20
125.499
 30
0.000000
  70
    32
  0
VERTEX
  8
0
  5
A708
 10
93.2800
 20
125.475
 30
0.000000
  70
    32
  0
VERTEX
  8
0
  5
A709
 10
93.2795
 20
125.450
 30
0.000000
  70
    32
  0
VERTEX
  8
0
  5
A70A
 10
93.2800
 20
125.426
 30
0.000000
  70
    32
  0
VERTEX
  8
0
  5
A70B
 10
93.2817
 20
125.401
 30
0.000000
  70
    32
  0
VERTEX
  8
0
  5
A70C
 10
93.2846
 20
125.377
 30
0.000000
  70
    32
  0
VERTEX
  8
0
  5
A70D
 10
93.2885
 20
125.352
 30
0.000000
  70
    32
  0
VERTEX
  8
0
  5
A70E
 10
93.2935
 20
125.329
 30
0.000000
  70
    32
  0
VERTEX
  8
0
  5
A70F
 10
93.2997
 20
125.305
 30
0.000000
  70
    32
  0
VERTEX
  8
0
  5
A710
 10
93.3069
 20
125.282
 30
0.000000
  70
    32
  0
VERTEX
  8
0
  5
A711
 10
93.3152
 20
125.259
 30
0.000000
  70
    32
  0
VERTEX
  8
0
  5
A712
 10
93.3246
 20
125.236
 30
0.000000
  70
    32
  0
VERTEX
  8
0
  5
A713
 10
93.3349
 20
125.214
 30
0.000000
  70
    32
  0
VERTEX
  8
0
  5
A714
 10
93.3463
 20
125.193
 30
0.000000
  70
    32
  0
VERTEX
  8
0
  5
A715
 10
93.3586
 20
125.172
 30
0.000000
  70
    32
  0
VERTEX
  8
0
  5
A716
 10
93.3719
 20
125.152
 30
0.000000
  70
    32
  0
VERTEX
  8
0
  5
A717
 10
93.3861
 20
125.133
 30
0.000000
  70
    32
  0
VERTEX
  8
0
  5
A718
 10
93.4012
 20
125.114
 30
0.000000
  70
    32
  0
VERTEX
  8
0
  5
A719
 10
93.4171
 20
125.096
 30
0.000000
  70
    32
  0
VERTEX
  8
0
  5
A71A
 10
93.4338
 20
125.080
 30
0.000000
  70
    32
  0
VERTEX
  8
0
  5
A71B
 10
93.4512
 20
125.064
 30
0.000000
  70
    32
  0
VERTEX
  8
0
  5
A71C
 10
93.4694
 20
125.048
 30
0.000000
  70
    32
  0
VERTEX
  8
0
  5
A71D
 10
93.4883
 20
125.034
 30
0.000000
  70
    32
  0
VERTEX
  8
0
  5
A71E
 10
93.5078
 20
125.021
 30
0.000000
  70
    32
  0
VERTEX
  8
0
  5
A71F
 10
93.5278
 20
125.009
 30
0.000000
  70
    32
  0
VERTEX
  8
0
  5
A720
 10
93.5484
 20
124.998
 30
0.000000
  70
    32
  0
VERTEX
  8
0
  5
A721
 10
93.5695
 20
124.988
 30
0.000000
  70
    32
  0
VERTEX
  8
0
  5
A722
 10
93.5910
 20
124.979
 30
0.000000
  70
    32
  0
VERTEX
  8
0
  5
A723
 10
93.6129
 20
124.972
 30
0.000000
  70
    32
  0
VERTEX
  8
0
  5
A724
 10
93.6351
 20
124.965
 30
0.000000
  70
    32
  0
VERTEX
  8
0
  5
A725
 10
93.6576
 20
124.960
 30
0.000000
  70
    32
  0
VERTEX
  8
0
  5
A726
 10
93.6804
 20
124.955
 30
0.000000
  70
    32
  0
VERTEX
  8
0
  5
A727
 10
93.7033
 20
124.952
 30
0.000000
  70
    32
  0
VERTEX
  8
0
  5
A728
 10
93.7263
 20
124.951
 30
0.000000
  70
    32
  0
VERTEX
  8
0
  5
A729
 10
93.7493
 20
124.950
 30
0.000000
  70
    32
  0
VERTEX
  8
0
  5
A72A
 10
93.7724
 20
124.951
 30
0.000000
  70
    32
  0
VERTEX
  8
0
  5
A72B
 10
93.7954
 20
124.952
 30
0.000000
  70
    32
  0
VERTEX
  8
0
  5
A72C
 10
93.8183
 20
124.955
 30
0.000000
  70
    32
  0
VERTEX
  8
0
  5
A72D
 10
93.8410
 20
124.960
 30
0.000000
  70
    32
  0
VERTEX
  8
0
  5
A72E
 10
93.8635
 20
124.965
 30
0.000000
  70
    32
  0
VERTEX
  8
0
  5
A72F
 10
93.8857
 20
124.972
 30
0.000000
  70
    32
  0
VERTEX
  8
0
  5
A730
 10
93.9076
 20
124.979
 30
0.000000
  70
    32
  0
VERTEX
  8
0
  5
A731
 10
93.9291
 20
124.988
 30
0.000000
  70
    32
  0
VERTEX
  8
0
  5
A732
 10
93.9502
 20
124.998
 30
0.000000
  70
    32
  0
VERTEX
  8
0
  5
A733
 10
93.9708
 20
125.009
 30
0.000000
  70
    32
  0
VERTEX
  8
0
  5
A734
 10
93.9909
 20
125.021
 30
0.000000
  70
    32
  0
VERTEX
  8
0
  5
A735
 10
94.0103
 20
125.034
 30
0.000000
  70
    32
  0
VERTEX
  8
0
  5
A736
 10
94.0292
 20
125.048
 30
0.000000
  70
    32
  0
VERTEX
  8
0
  5
A737
 10
94.0474
 20
125.064
 30
0.000000
  70
    32
  0
VERTEX
  8
0
  5
A738
 10
94.0648
 20
125.080
 30
0.000000
  70
    32
  0
VERTEX
  8
0
  5
A739
 10
94.0815
 20
125.096
 30
0.000000
  70
    32
  0
VERTEX
  8
0
  5
A73A
 10
94.0974
 20
125.114
 30
0.000000
  70
    32
  0
VERTEX
  8
0
  5
A73B
 10
94.1125
 20
125.133
 30
0.000000
  70
    32
  0
VERTEX
  8
0
  5
A73C
 10
94.1267
 20
125.152
 30
0.000000
  70
    32
  0
VERTEX
  8
0
  5
A73D
 10
94.1400
 20
125.172
 30
0.000000
  70
    32
  0
VERTEX
  8
0
  5
A73E
 10
94.1523
 20
125.193
 30
0.000000
  70
    32
  0
VERTEX
  8
0
  5
A73F
 10
94.1637
 20
125.214
 30
0.000000
  70
    32
  0
VERTEX
  8
0
  5
A740
 10
94.1740
 20
125.236
 30
0.000000
  70
    32
  0
VERTEX
  8
0
  5
A741
 10
94.1834
 20
125.259
 30
0.000000
  70
    32
  0
VERTEX
  8
0
  5
A742
 10
94.1917
 20
125.282
 30
0.000000
  70
    32
  0
VERTEX
  8
0
  5
A743
 10
94.1989
 20
125.305
 30
0.000000
  70
    32
  0
VERTEX
  8
0
  5
A744
 10
94.2051
 20
125.329
 30
0.000000
  70
    32
  0
VERTEX
  8
0
  5
A745
 10
94.2101
 20
125.352
 30
0.000000
  70
    32
  0
VERTEX
  8
0
  5
A746
 10
94.2141
 20
125.377
 30
0.000000
  70
    32
  0
VERTEX
  8
0
  5
A747
 10
94.2169
 20
125.401
 30
0.000000
  70
    32
  0
VERTEX
  8
0
  5
A748
 10
94.2186
 20
125.426
 30
0.000000
  70
    32
  0
VERTEX
  8
0
  5
A749
 10
94.2192
 20
125.450
 30
0.000000
  70
    32
  0
VERTEX
  8
0
  5
A74A
 10
94.2186
 20
125.475
 30
0.000000
  70
    32
  0
VERTEX
  8
0
  5
A74B
 10
94.2169
 20
125.499
 30
0.000000
  70
    32
  0
VERTEX
  8
0
  5
A74C
 10
94.2141
 20
125.523
 30
0.000000
  70
    32
  0
VERTEX
  8
0
  5
A74D
 10
94.2101
 20
125.548
 30
0.000000
  70
    32
  0
VERTEX
  8
0
  5
A74E
 10
94.2051
 20
125.572
 30
0.000000
  70
    32
  0
VERTEX
  8
0
  5
A74F
 10
94.1989
 20
125.595
 30
0.000000
  70
    32
  0
VERTEX
  8
0
  5
A750
 10
94.1917
 20
125.618
 30
0.000000
  70
    32
  0
VERTEX
  8
0
  5
A751
 10
94.1834
 20
125.641
 30
0.000000
  70
    32
  0
VERTEX
  8
0
  5
A752
 10
94.1740
 20
125.664
 30
0.000000
  70
    32
  0
VERTEX
  8
0
  5
A753
 10
94.1637
 20
125.686
 30
0.000000
  70
    32
  0
VERTEX
  8
0
  5
A754
 10
94.1523
 20
125.707
 30
0.000000
  70
    32
  0
VERTEX
  8
0
  5
A755
 10
94.1400
 20
125.728
 30
0.000000
  70
    32
  0
VERTEX
  8
0
  5
A756
 10
94.1267
 20
125.748
 30
0.000000
  70
    32
  0
VERTEX
  8
0
  5
A757
 10
94.1125
 20
125.767
 30
0.000000
  70
    32
  0
VERTEX
  8
0
  5
A758
 10
94.0974
 20
125.786
 30
0.000000
  70
    32
  0
VERTEX
  8
0
  5
A759
 10
94.0815
 20
125.804
 30
0.000000
  70
    32
  0
VERTEX
  8
0
  5
A75A
 10
94.0648
 20
125.821
 30
0.000000
  70
    32
  0
VERTEX
  8
0
  5
A75B
 10
94.0474
 20
125.837
 30
0.000000
  70
    32
  0
VERTEX
  8
0
  5
A75C
 10
94.0292
 20
125.852
 30
0.000000
  70
    32
  0
VERTEX
  8
0
  5
A75D
 10
94.0103
 20
125.866
 30
0.000000
  70
    32
  0
VERTEX
  8
0
  5
A75E
 10
93.9909
 20
125.879
 30
0.000000
  70
    32
  0
VERTEX
  8
0
  5
A75F
 10
93.9708
 20
125.891
 30
0.000000
  70
    32
  0
VERTEX
  8
0
  5
A760
 10
93.9502
 20
125.902
 30
0.000000
  70
    32
  0
VERTEX
  8
0
  5
A761
 10
93.9291
 20
125.912
 30
0.000000
  70
    32
  0
VERTEX
  8
0
  5
A762
 10
93.9076
 20
125.921
 30
0.000000
  70
    32
  0
VERTEX
  8
0
  5
A763
 10
93.8857
 20
125.929
 30
0.000000
  70
    32
  0
VERTEX
  8
0
  5
A764
 10
93.8635
 20
125.935
 30
0.000000
  70
    32
  0
VERTEX
  8
0
  5
A765
 10
93.8410
 20
125.940
 30
0.000000
  70
    32
  0
VERTEX
  8
0
  5
A766
 10
93.8183
 20
125.945
 30
0.000000
  70
    32
  0
VERTEX
  8
0
  5
A767
 10
93.7954
 20
125.948
 30
0.000000
  70
    32
  0
VERTEX
  8
0
  5
A768
 10
93.7724
 20
125.949
 30
0.000000
  70
    32
  0
VERTEX
  8
0
  5
A769
 10
93.7493
 20
125.950
 30
0.000000
  70
    32
  0
SEQEND
  8
0
  5
A76A
  0
POLYLINE
  5
A013
  8
0
 10
98.294807589946771
 20
125.95004442655861
 30
0.0
 66
     1
 70
     8
  0
VERTEX
  8
0
  5
A76B
 10
98.2948
 20
125.950
 30
0.000000
  70
    32
  0
VERTEX
  8
0
  5
A76C
 10
98.2705
 20
125.949
 30
0.000000
  70
    32
  0
VERTEX
  8
0
  5
A76D
 10
98.2463
 20
125.948
 30
0.000000
  70
    32
  0
VERTEX
  8
0
  5
A76E
 10
98.2222
 20
125.945
 30
0.000000
  70
    32
  0
VERTEX
  8
0
  5
A76F
 10
98.1982
 20
125.940
 30
0.000000
  70
    32
  0
VERTEX
  8
0
  5
A770
 10
98.1745
 20
125.935
 30
0.000000
  70
    32
  0
VERTEX
  8
0
  5
A771
 10
98.1511
 20
125.929
 30
0.000000
  70
    32
  0
VERTEX
  8
0
  5
A772
 10
98.1280
 20
125.921
 30
0.000000
  70
    32
  0
VERTEX
  8
0
  5
A773
 10
98.1053
 20
125.912
 30
0.000000
  70
    32
  0
VERTEX
  8
0
  5
A774
 10
98.0831
 20
125.902
 30
0.000000
  70
    32
  0
VERTEX
  8
0
  5
A775
 10
98.0614
 20
125.891
 30
0.000000
  70
    32
  0
VERTEX
  8
0
  5
A776
 10
98.0403
 20
125.879
 30
0.000000
  70
    32
  0
VERTEX
  8
0
  5
A777
 10
98.0197
 20
125.866
 30
0.000000
  70
    32
  0
VERTEX
  8
0
  5
A778
 10
97.9999
 20
125.852
 30
0.000000
  70
    32
  0
VERTEX
  8
0
  5
A779
 10
97.9807
 20
125.837
 30
0.000000
  70
    32
  0
VERTEX
  8
0
  5
A77A
 10
97.9623
 20
125.821
 30
0.000000
  70
    32
  0
VERTEX
  8
0
  5
A77B
 10
97.9447
 20
125.804
 30
0.000000
  70
    32
  0
VERTEX
  8
0
  5
A77C
 10
97.9279
 20
125.786
 30
0.000000
  70
    32
  0
VERTEX
  8
0
  5
A77D
 10
97.9121
 20
125.767
 30
0.000000
  70
    32
  0
VERTEX
  8
0
  5
A77E
 10
97.8971
 20
125.748
 30
0.000000
  70
    32
  0
VERTEX
  8
0
  5
A77F
 10
97.8831
 20
125.728
 30
0.000000
  70
    32
  0
VERTEX
  8
0
  5
A780
 10
97.8701
 20
125.707
 30
0.000000
  70
    32
  0
VERTEX
  8
0
  5
A781
 10
97.8581
 20
125.686
 30
0.000000
  70
    32
  0
VERTEX
  8
0
  5
A782
 10
97.8472
 20
125.664
 30
0.000000
  70
    32
  0
VERTEX
  8
0
  5
A783
 10
97.8374
 20
125.641
 30
0.000000
  70
    32
  0
VERTEX
  8
0
  5
A784
 10
97.8286
 20
125.618
 30
0.000000
  70
    32
  0
VERTEX
  8
0
  5
A785
 10
97.8210
 20
125.595
 30
0.000000
  70
    32
  0
VERTEX
  8
0
  5
A786
 10
97.8145
 20
125.572
 30
0.000000
  70
    32
  0
VERTEX
  8
0
  5
A787
 10
97.8092
 20
125.548
 30
0.000000
  70
    32
  0
VERTEX
  8
0
  5
A788
 10
97.8050
 20
125.523
 30
0.000000
  70
    32
  0
VERTEX
  8
0
  5
A789
 10
97.8021
 20
125.499
 30
0.000000
  70
    32
  0
VERTEX
  8
0
  5
A78A
 10
97.8003
 20
125.475
 30
0.000000
  70
    32
  0
VERTEX
  8
0
  5
A78B
 10
97.7997
 20
125.450
 30
0.000000
  70
    32
  0
VERTEX
  8
0
  5
A78C
 10
97.8003
 20
125.426
 30
0.000000
  70
    32
  0
VERTEX
  8
0
  5
A78D
 10
97.8021
 20
125.401
 30
0.000000
  70
    32
  0
VERTEX
  8
0
  5
A78E
 10
97.8050
 20
125.377
 30
0.000000
  70
    32
  0
VERTEX
  8
0
  5
A78F
 10
97.8092
 20
125.352
 30
0.000000
  70
    32
  0
VERTEX
  8
0
  5
A790
 10
97.8145
 20
125.329
 30
0.000000
  70
    32
  0
VERTEX
  8
0
  5
A791
 10
97.8210
 20
125.305
 30
0.000000
  70
    32
  0
VERTEX
  8
0
  5
A792
 10
97.8286
 20
125.282
 30
0.000000
  70
    32
  0
VERTEX
  8
0
  5
A793
 10
97.8374
 20
125.259
 30
0.000000
  70
    32
  0
VERTEX
  8
0
  5
A794
 10
97.8472
 20
125.236
 30
0.000000
  70
    32
  0
VERTEX
  8
0
  5
A795
 10
97.8581
 20
125.214
 30
0.000000
  70
    32
  0
VERTEX
  8
0
  5
A796
 10
97.8701
 20
125.193
 30
0.000000
  70
    32
  0
VERTEX
  8
0
  5
A797
 10
97.8831
 20
125.172
 30
0.000000
  70
    32
  0
VERTEX
  8
0
  5
A798
 10
97.8971
 20
125.152
 30
0.000000
  70
    32
  0
VERTEX
  8
0
  5
A799
 10
97.9121
 20
125.133
 30
0.000000
  70
    32
  0
VERTEX
  8
0
  5
A79A
 10
97.9279
 20
125.114
 30
0.000000
  70
    32
  0
VERTEX
  8
0
  5
A79B
 10
97.9447
 20
125.096
 30
0.000000
  70
    32
  0
VERTEX
  8
0
  5
A79C
 10
97.9623
 20
125.080
 30
0.000000
  70
    32
  0
VERTEX
  8
0
  5
A79D
 10
97.9807
 20
125.064
 30
0.000000
  70
    32
  0
VERTEX
  8
0
  5
A79E
 10
97.9999
 20
125.048
 30
0.000000
  70
    32
  0
VERTEX
  8
0
  5
A79F
 10
98.0197
 20
125.034
 30
0.000000
  70
    32
  0
VERTEX
  8
0
  5
A7A0
 10
98.0403
 20
125.021
 30
0.000000
  70
    32
  0
VERTEX
  8
0
  5
A7A1
 10
98.0614
 20
125.009
 30
0.000000
  70
    32
  0
VERTEX
  8
0
  5
A7A2
 10
98.0831
 20
124.998
 30
0.000000
  70
    32
  0
VERTEX
  8
0
  5
A7A3
 10
98.1053
 20
124.988
 30
0.000000
  70
    32
  0
VERTEX
  8
0
  5
A7A4
 10
98.1280
 20
124.979
 30
0.000000
  70
    32
  0
VERTEX
  8
0
  5
A7A5
 10
98.1511
 20
124.972
 30
0.000000
  70
    32
  0
VERTEX
  8
0
  5
A7A6
 10
98.1745
 20
124.965
 30
0.000000
  70
    32
  0
VERTEX
  8
0
  5
A7A7
 10
98.1982
 20
124.960
 30
0.000000
  70
    32
  0
VERTEX
  8
0
  5
A7A8
 10
98.2222
 20
124.955
 30
0.000000
  70
    32
  0
VERTEX
  8
0
  5
A7A9
 10
98.2463
 20
124.952
 30
0.000000
  70
    32
  0
VERTEX
  8
0
  5
A7AA
 10
98.2705
 20
124.951
 30
0.000000
  70
    32
  0
VERTEX
  8
0
  5
A7AB
 10
98.2948
 20
124.950
 30
0.000000
  70
    32
  0
VERTEX
  8
0
  5
A7AC
 10
98.3191
 20
124.951
 30
0.000000
  70
    32
  0
VERTEX
  8
0
  5
A7AD
 10
98.3433
 20
124.952
 30
0.000000
  70
    32
  0
VERTEX
  8
0
  5
A7AE
 10
98.3675
 20
124.955
 30
0.000000
  70
    32
  0
VERTEX
  8
0
  5
A7AF
 10
98.3914
 20
124.960
 30
0.000000
  70
    32
  0
VERTEX
  8
0
  5
A7B0
 10
98.4151
 20
124.965
 30
0.000000
  70
    32
  0
VERTEX
  8
0
  5
A7B1
 10
98.4385
 20
124.972
 30
0.000000
  70
    32
  0
VERTEX
  8
0
  5
A7B2
 10
98.4616
 20
124.979
 30
0.000000
  70
    32
  0
VERTEX
  8
0
  5
A7B3
 10
98.4843
 20
124.988
 30
0.000000
  70
    32
  0
VERTEX
  8
0
  5
A7B4
 10
98.5065
 20
124.998
 30
0.000000
  70
    32
  0
VERTEX
  8
0
  5
A7B5
 10
98.5282
 20
125.009
 30
0.000000
  70
    32
  0
VERTEX
  8
0
  5
A7B6
 10
98.5494
 20
125.021
 30
0.000000
  70
    32
  0
VERTEX
  8
0
  5
A7B7
 10
98.5699
 20
125.034
 30
0.000000
  70
    32
  0
VERTEX
  8
0
  5
A7B8
 10
98.5898
 20
125.048
 30
0.000000
  70
    32
  0
VERTEX
  8
0
  5
A7B9
 10
98.6089
 20
125.064
 30
0.000000
  70
    32
  0
VERTEX
  8
0
  5
A7BA
 10
98.6273
 20
125.080
 30
0.000000
  70
    32
  0
VERTEX
  8
0
  5
A7BB
 10
98.6449
 20
125.096
 30
0.000000
  70
    32
  0
VERTEX
  8
0
  5
A7BC
 10
98.6617
 20
125.114
 30
0.000000
  70
    32
  0
VERTEX
  8
0
  5
A7BD
 10
98.6776
 20
125.133
 30
0.000000
  70
    32
  0
VERTEX
  8
0
  5
A7BE
 10
98.6925
 20
125.152
 30
0.000000
  70
    32
  0
VERTEX
  8
0
  5
A7BF
 10
98.7065
 20
125.172
 30
0.000000
  70
    32
  0
VERTEX
  8
0
  5
A7C0
 10
98.7195
 20
125.193
 30
0.000000
  70
    32
  0
VERTEX
  8
0
  5
A7C1
 10
98.7315
 20
125.214
 30
0.000000
  70
    32
  0
VERTEX
  8
0
  5
A7C2
 10
98.7424
 20
125.236
 30
0.000000
  70
    32
  0
VERTEX
  8
0
  5
A7C3
 10
98.7523
 20
125.259
 30
0.000000
  70
    32
  0
VERTEX
  8
0
  5
A7C4
 10
98.7610
 20
125.282
 30
0.000000
  70
    32
  0
VERTEX
  8
0
  5
A7C5
 10
98.7686
 20
125.305
 30
0.000000
  70
    32
  0
VERTEX
  8
0
  5
A7C6
 10
98.7751
 20
125.329
 30
0.000000
  70
    32
  0
VERTEX
  8
0
  5
A7C7
 10
98.7804
 20
125.352
 30
0.000000
  70
    32
  0
VERTEX
  8
0
  5
A7C8
 10
98.7846
 20
125.377
 30
0.000000
  70
    32
  0
VERTEX
  8
0
  5
A7C9
 10
98.7876
 20
125.401
 30
0.000000
  70
    32
  0
VERTEX
  8
0
  5
A7CA
 10
98.7893
 20
125.426
 30
0.000000
  70
    32
  0
VERTEX
  8
0
  5
A7CB
 10
98.7899
 20
125.450
 30
0.000000
  70
    32
  0
VERTEX
  8
0
  5
A7CC
 10
98.7893
 20
125.475
 30
0.000000
  70
    32
  0
VERTEX
  8
0
  5
A7CD
 10
98.7876
 20
125.499
 30
0.000000
  70
    32
  0
VERTEX
  8
0
  5
A7CE
 10
98.7846
 20
125.523
 30
0.000000
  70
    32
  0
VERTEX
  8
0
  5
A7CF
 10
98.7804
 20
125.548
 30
0.000000
  70
    32
  0
VERTEX
  8
0
  5
A7D0
 10
98.7751
 20
125.572
 30
0.000000
  70
    32
  0
VERTEX
  8
0
  5
A7D1
 10
98.7686
 20
125.595
 30
0.000000
  70
    32
  0
VERTEX
  8
0
  5
A7D2
 10
98.7610
 20
125.618
 30
0.000000
  70
    32
  0
VERTEX
  8
0
  5
A7D3
 10
98.7523
 20
125.641
 30
0.000000
  70
    32
  0
VERTEX
  8
0
  5
A7D4
 10
98.7424
 20
125.664
 30
0.000000
  70
    32
  0
VERTEX
  8
0
  5
A7D5
 10
98.7315
 20
125.686
 30
0.000000
  70
    32
  0
VERTEX
  8
0
  5
A7D6
 10
98.7195
 20
125.707
 30
0.000000
  70
    32
  0
VERTEX
  8
0
  5
A7D7
 10
98.7065
 20
125.728
 30
0.000000
  70
    32
  0
VERTEX
  8
0
  5
A7D8
 10
98.6925
 20
125.748
 30
0.000000
  70
    32
  0
VERTEX
  8
0
  5
A7D9
 10
98.6776
 20
125.767
 30
0.000000
  70
    32
  0
VERTEX
  8
0
  5
A7DA
 10
98.6617
 20
125.786
 30
0.000000
  70
    32
  0
VERTEX
  8
0
  5
A7DB
 10
98.6449
 20
125.804
 30
0.000000
  70
    32
  0
VERTEX
  8
0
  5
A7DC
 10
98.6273
 20
125.821
 30
0.000000
  70
    32
  0
VERTEX
  8
0
  5
A7DD
 10
98.6089
 20
125.837
 30
0.000000
  70
    32
  0
VERTEX
  8
0
  5
A7DE
 10
98.5898
 20
125.852
 30
0.000000
  70
    32
  0
VERTEX
  8
0
  5
A7DF
 10
98.5699
 20
125.866
 30
0.000000
  70
    32
  0
VERTEX
  8
0
  5
A7E0
 10
98.5494
 20
125.879
 30
0.000000
  70
    32
  0
VERTEX
  8
0
  5
A7E1
 10
98.5282
 20
125.891
 30
0.000000
  70
    32
  0
VERTEX
  8
0
  5
A7E2
 10
98.5065
 20
125.902
 30
0.000000
  70
    32
  0
VERTEX
  8
0
  5
A7E3
 10
98.4843
 20
125.912
 30
0.000000
  70
    32
  0
VERTEX
  8
0
  5
A7E4
 10
98.4616
 20
125.921
 30
0.000000
  70
    32
  0
VERTEX
  8
0
  5
A7E5
 10
98.4385
 20
125.929
 30
0.000000
  70
    32
  0
VERTEX
  8
0
  5
A7E6
 10
98.4151
 20
125.935
 30
0.000000
  70
    32
  0
VERTEX
  8
0
  5
A7E7
 10
98.3914
 20
125.940
 30
0.000000
  70
    32
  0
VERTEX
  8
0
  5
A7E8
 10
98.3675
 20
125.945
 30
0.000000
  70
    32
  0
VERTEX
  8
0
  5
A7E9
 10
98.3433
 20
125.948
 30
0.000000
  70
    32
  0
VERTEX
  8
0
  5
A7EA
 10
98.3191
 20
125.949
 30
0.000000
  70
    32
  0
VERTEX
  8
0
  5
A7EB
 10
98.2948
 20
125.950
 30
0.000000
  70
    32
  0
SEQEND
  8
0
  5
A7EC
  0
POLYLINE
  5
A014
  8
0
 10
95.205192410053613
 20
125.95004442655861
 30
0.0
 66
     1
 70
     8
  0
VERTEX
  8
0
  5
A7ED
 10
95.2052
 20
125.950
 30
0.000000
  70
    32
  0
VERTEX
  8
0
  5
A7EE
 10
95.1809
 20
125.949
 30
0.000000
  70
    32
  0
VERTEX
  8
0
  5
A7EF
 10
95.1567
 20
125.948
 30
0.000000
  70
    32
  0
VERTEX
  8
0
  5
A7F0
 10
95.1325
 20
125.945
 30
0.000000
  70
    32
  0
VERTEX
  8
0
  5
A7F1
 10
95.1086
 20
125.940
 30
0.000000
  70
    32
  0
VERTEX
  8
0
  5
A7F2
 10
95.0849
 20
125.935
 30
0.000000
  70
    32
  0
VERTEX
  8
0
  5
A7F3
 10
95.0615
 20
125.929
 30
0.000000
  70
    32
  0
VERTEX
  8
0
  5
A7F4
 10
95.0384
 20
125.921
 30
0.000000
  70
    32
  0
VERTEX
  8
0
  5
A7F5
 10
95.0157
 20
125.912
 30
0.000000
  70
    32
  0
VERTEX
  8
0
  5
A7F6
 10
94.9935
 20
125.902
 30
0.000000
  70
    32
  0
VERTEX
  8
0
  5
A7F7
 10
94.9718
 20
125.891
 30
0.000000
  70
    32
  0
VERTEX
  8
0
  5
A7F8
 10
94.9506
 20
125.879
 30
0.000000
  70
    32
  0
VERTEX
  8
0
  5
A7F9
 10
94.9301
 20
125.866
 30
0.000000
  70
    32
  0
VERTEX
  8
0
  5
A7FA
 10
94.9102
 20
125.852
 30
0.000000
  70
    32
  0
VERTEX
  8
0
  5
A7FB
 10
94.8911
 20
125.837
 30
0.000000
  70
    32
  0
VERTEX
  8
0
  5
A7FC
 10
94.8727
 20
125.821
 30
0.000000
  70
    32
  0
VERTEX
  8
0
  5
A7FD
 10
94.8551
 20
125.804
 30
0.000000
  70
    32
  0
VERTEX
  8
0
  5
A7FE
 10
94.8383
 20
125.786
 30
0.000000
  70
    32
  0
VERTEX
  8
0
  5
A7FF
 10
94.8224
 20
125.767
 30
0.000000
  70
    32
  0
VERTEX
  8
0
  5
A800
 10
94.8075
 20
125.748
 30
0.000000
  70
    32
  0
VERTEX
  8
0
  5
A801
 10
94.7935
 20
125.728
 30
0.000000
  70
    32
  0
VERTEX
  8
0
  5
A802
 10
94.7805
 20
125.707
 30
0.000000
  70
    32
  0
VERTEX
  8
0
  5
A803
 10
94.7685
 20
125.686
 30
0.000000
  70
    32
  0
VERTEX
  8
0
  5
A804
 10
94.7576
 20
125.664
 30
0.000000
  70
    32
  0
VERTEX
  8
0
  5
A805
 10
94.7477
 20
125.641
 30
0.000000
  70
    32
  0
VERTEX
  8
0
  5
A806
 10
94.7390
 20
125.618
 30
0.000000
  70
    32
  0
VERTEX
  8
0
  5
A807
 10
94.7314
 20
125.595
 30
0.000000
  70
    32
  0
VERTEX
  8
0
  5
A808
 10
94.7249
 20
125.572
 30
0.000000
  70
    32
  0
VERTEX
  8
0
  5
A809
 10
94.7196
 20
125.548
 30
0.000000
  70
    32
  0
VERTEX
  8
0
  5
A80A
 10
94.7154
 20
125.523
 30
0.000000
  70
    32
  0
VERTEX
  8
0
  5
A80B
 10
94.7124
 20
125.499
 30
0.000000
  70
    32
  0
VERTEX
  8
0
  5
A80C
 10
94.7107
 20
125.475
 30
0.000000
  70
    32
  0
VERTEX
  8
0
  5
A80D
 10
94.7101
 20
125.450
 30
0.000000
  70
    32
  0
VERTEX
  8
0
  5
A80E
 10
94.7107
 20
125.426
 30
0.000000
  70
    32
  0
VERTEX
  8
0
  5
A80F
 10
94.7124
 20
125.401
 30
0.000000
  70
    32
  0
VERTEX
  8
0
  5
A810
 10
94.7154
 20
125.377
 30
0.000000
  70
    32
  0
VERTEX
  8
0
  5
A811
 10
94.7196
 20
125.352
 30
0.000000
  70
    32
  0
VERTEX
  8
0
  5
A812
 10
94.7249
 20
125.329
 30
0.000000
  70
    32
  0
VERTEX
  8
0
  5
A813
 10
94.7314
 20
125.305
 30
0.000000
  70
    32
  0
VERTEX
  8
0
  5
A814
 10
94.7390
 20
125.282
 30
0.000000
  70
    32
  0
VERTEX
  8
0
  5
A815
 10
94.7477
 20
125.259
 30
0.000000
  70
    32
  0
VERTEX
  8
0
  5
A816
 10
94.7576
 20
125.236
 30
0.000000
  70
    32
  0
VERTEX
  8
0
  5
A817
 10
94.7685
 20
125.214
 30
0.000000
  70
    32
  0
VERTEX
  8
0
  5
A818
 10
94.7805
 20
125.193
 30
0.000000
  70
    32
  0
VERTEX
  8
0
  5
A819
 10
94.7935
 20
125.172
 30
0.000000
  70
    32
  0
VERTEX
  8
0
  5
A81A
 10
94.8075
 20
125.152
 30
0.000000
  70
    32
  0
VERTEX
  8
0
  5
A81B
 10
94.8224
 20
125.133
 30
0.000000
  70
    32
  0
VERTEX
  8
0
  5
A81C
 10
94.8383
 20
125.114
 30
0.000000
  70
    32
  0
VERTEX
  8
0
  5
A81D
 10
94.8551
 20
125.096
 30
0.000000
  70
    32
  0
VERTEX
  8
0
  5
A81E
 10
94.8727
 20
125.080
 30
0.000000
  70
    32
  0
VERTEX
  8
0
  5
A81F
 10
94.8911
 20
125.064
 30
0.000000
  70
    32
  0
VERTEX
  8
0
  5
A820
 10
94.9102
 20
125.048
 30
0.000000
  70
    32
  0
VERTEX
  8
0
  5
A821
 10
94.9301
 20
125.034
 30
0.000000
  70
    32
  0
VERTEX
  8
0
  5
A822
 10
94.9506
 20
125.021
 30
0.000000
  70
    32
  0
VERTEX
  8
0
  5
A823
 10
94.9718
 20
125.009
 30
0.000000
  70
    32
  0
VERTEX
  8
0
  5
A824
 10
94.9935
 20
124.998
 30
0.000000
  70
    32
  0
VERTEX
  8
0
  5
A825
 10
95.0157
 20
124.988
 30
0.000000
  70
    32
  0
VERTEX
  8
0
  5
A826
 10
95.0384
 20
124.979
 30
0.000000
  70
    32
  0
VERTEX
  8
0
  5
A827
 10
95.0615
 20
124.972
 30
0.000000
  70
    32
  0
VERTEX
  8
0
  5
A828
 10
95.0849
 20
124.965
 30
0.000000
  70
    32
  0
VERTEX
  8
0
  5
A829
 10
95.1086
 20
124.960
 30
0.000000
  70
    32
  0
VERTEX
  8
0
  5
A82A
 10
95.1325
 20
124.955
 30
0.000000
  70
    32
  0
VERTEX
  8
0
  5
A82B
 10
95.1567
 20
124.952
 30
0.000000
  70
    32
  0
VERTEX
  8
0
  5
A82C
 10
95.1809
 20
124.951
 30
0.000000
  70
    32
  0
VERTEX
  8
0
  5
A82D
 10
95.2052
 20
124.950
 30
0.000000
  70
    32
  0
VERTEX
  8
0
  5
A82E
 10
95.2295
 20
124.951
 30
0.000000
  70
    32
  0
VERTEX
  8
0
  5
A82F
 10
95.2537
 20
124.952
 30
0.000000
  70
    32
  0
VERTEX
  8
0
  5
A830
 10
95.2778
 20
124.955
 30
0.000000
  70
    32
  0
VERTEX
  8
0
  5
A831
 10
95.3018
 20
124.960
 30
0.000000
  70
    32
  0
VERTEX
  8
0
  5
A832
 10
95.3255
 20
124.965
 30
0.000000
  70
    32
  0
VERTEX
  8
0
  5
A833
 10
95.3489
 20
124.972
 30
0.000000
  70
    32
  0
VERTEX
  8
0
  5
A834
 10
95.3720
 20
124.979
 30
0.000000
  70
    32
  0
VERTEX
  8
0
  5
A835
 10
95.3947
 20
124.988
 30
0.000000
  70
    32
  0
VERTEX
  8
0
  5
A836
 10
95.4169
 20
124.998
 30
0.000000
  70
    32
  0
VERTEX
  8
0
  5
A837
 10
95.4386
 20
125.009
 30
0.000000
  70
    32
  0
VERTEX
  8
0
  5
A838
 10
95.4597
 20
125.021
 30
0.000000
  70
    32
  0
VERTEX
  8
0
  5
A839
 10
95.4803
 20
125.034
 30
0.000000
  70
    32
  0
VERTEX
  8
0
  5
A83A
 10
95.5001
 20
125.048
 30
0.000000
  70
    32
  0
VERTEX
  8
0
  5
A83B
 10
95.5193
 20
125.064
 30
0.000000
  70
    32
  0
VERTEX
  8
0
  5
A83C
 10
95.5377
 20
125.080
 30
0.000000
  70
    32
  0
VERTEX
  8
0
  5
A83D
 10
95.5553
 20
125.096
 30
0.000000
  70
    32
  0
VERTEX
  8
0
  5
A83E
 10
95.5721
 20
125.114
 30
0.000000
  70
    32
  0
VERTEX
  8
0
  5
A83F
 10
95.5879
 20
125.133
 30
0.000000
  70
    32
  0
VERTEX
  8
0
  5
A840
 10
95.6029
 20
125.152
 30
0.000000
  70
    32
  0
VERTEX
  8
0
  5
A841
 10
95.6169
 20
125.172
 30
0.000000
  70
    32
  0
VERTEX
  8
0
  5
A842
 10
95.6299
 20
125.193
 30
0.000000
  70
    32
  0
VERTEX
  8
0
  5
A843
 10
95.6419
 20
125.214
 30
0.000000
  70
    32
  0
VERTEX
  8
0
  5
A844
 10
95.6528
 20
125.236
 30
0.000000
  70
    32
  0
VERTEX
  8
0
  5
A845
 10
95.6626
 20
125.259
 30
0.000000
  70
    32
  0
VERTEX
  8
0
  5
A846
 10
95.6714
 20
125.282
 30
0.000000
  70
    32
  0
VERTEX
  8
0
  5
A847
 10
95.6790
 20
125.305
 30
0.000000
  70
    32
  0
VERTEX
  8
0
  5
A848
 10
95.6855
 20
125.329
 30
0.000000
  70
    32
  0
VERTEX
  8
0
  5
A849
 10
95.6908
 20
125.352
 30
0.000000
  70
    32
  0
VERTEX
  8
0
  5
A84A
 10
95.6950
 20
125.377
 30
0.000000
  70
    32
  0
VERTEX
  8
0
  5
A84B
 10
95.6979
 20
125.401
 30
0.000000
  70
    32
  0
VERTEX
  8
0
  5
A84C
 10
95.6997
 20
125.426
 30
0.000000
  70
    32
  0
VERTEX
  8
0
  5
A84D
 10
95.7003
 20
125.450
 30
0.000000
  70
    32
  0
VERTEX
  8
0
  5
A84E
 10
95.6997
 20
125.475
 30
0.000000
  70
    32
  0
VERTEX
  8
0
  5
A84F
 10
95.6979
 20
125.499
 30
0.000000
  70
    32
  0
VERTEX
  8
0
  5
A850
 10
95.6950
 20
125.523
 30
0.000000
  70
    32
  0
VERTEX
  8
0
  5
A851
 10
95.6908
 20
125.548
 30
0.000000
  70
    32
  0
VERTEX
  8
0
  5
A852
 10
95.6855
 20
125.572
 30
0.000000
  70
    32
  0
VERTEX
  8
0
  5
A853
 10
95.6790
 20
125.595
 30
0.000000
  70
    32
  0
VERTEX
  8
0
  5
A854
 10
95.6714
 20
125.618
 30
0.000000
  70
    32
  0
VERTEX
  8
0
  5
A855
 10
95.6626
 20
125.641
 30
0.000000
  70
    32
  0
VERTEX
  8
0
  5
A856
 10
95.6528
 20
125.664
 30
0.000000
  70
    32
  0
VERTEX
  8
0
  5
A857
 10
95.6419
 20
125.686
 30
0.000000
  70
    32
  0
VERTEX
  8
0
  5
A858
 10
95.6299
 20
125.707
 30
0.000000
  70
    32
  0
VERTEX
  8
0
  5
A859
 10
95.6169
 20
125.728
 30
0.000000
  70
    32
  0
VERTEX
  8
0
  5
A85A
 10
95.6029
 20
125.748
 30
0.000000
  70
    32
  0
VERTEX
  8
0
  5
A85B
 10
95.5879
 20
125.767
 30
0.000000
  70
    32
  0
VERTEX
  8
0
  5
A85C
 10
95.5721
 20
125.786
 30
0.000000
  70
    32
  0
VERTEX
  8
0
  5
A85D
 10
95.5553
 20
125.804
 30
0.000000
  70
    32
  0
VERTEX
  8
0
  5
A85E
 10
95.5377
 20
125.821
 30
0.000000
  70
    32
  0
VERTEX
  8
0
  5
A85F
 10
95.5193
 20
125.837
 30
0.000000
  70
    32
  0
VERTEX
  8
0
  5
A860
 10
95.5001
 20
125.852
 30
0.000000
  70
    32
  0
VERTEX
  8
0
  5
A861
 10
95.4803
 20
125.866
 30
0.000000
  70
    32
  0
VERTEX
  8
0
  5
A862
 10
95.4597
 20
125.879
 30
0.000000
  70
    32
  0
VERTEX
  8
0
  5
A863
 10
95.4386
 20
125.891
 30
0.000000
  70
    32
  0
VERTEX
  8
0
  5
A864
 10
95.4169
 20
125.902
 30
0.000000
  70
    32
  0
VERTEX
  8
0
  5
A865
 10
95.3947
 20
125.912
 30
0.000000
  70
    32
  0
VERTEX
  8
0
  5
A866
 10
95.3720
 20
125.921
 30
0.000000
  70
    32
  0
VERTEX
  8
0
  5
A867
 10
95.3489
 20
125.929
 30
0.000000
  70
    32
  0
VERTEX
  8
0
  5
A868
 10
95.3255
 20
125.935
 30
0.000000
  70
    32
  0
VERTEX
  8
0
  5
A869
 10
95.3018
 20
125.940
 30
0.000000
  70
    32
  0
VERTEX
  8
0
  5
A86A
 10
95.2778
 20
125.945
 30
0.000000
  70
    32
  0
VERTEX
  8
0
  5
A86B
 10
95.2537
 20
125.948
 30
0.000000
  70
    32
  0
VERTEX
  8
0
  5
A86C
 10
95.2295
 20
125.949
 30
0.000000
  70
    32
  0
VERTEX
  8
0
  5
A86D
 10
95.2052
 20
125.950
 30
0.000000
  70
    32
  0
SEQEND
  8
0
  5
A86E
  0
LINE
  5
A015
  8
0
 10
88.674021045102918
 20
127.6715916398965
 30
0.0
 11
78.036368604677662
 21
128.45004442655869
 31
0.0
  0
LINE
  5
A016
  8
0
 10
104.82597895489729
 20
123.2284972132209
 30
0.0
 11
115.46363139532259
 21
122.4500444265587
 31
0.0
  0
LINE
  5
A017
  8
0
 10
115.46363139532259
 20
128.45004442655869
 30
0.0
 11
104.82597895489729
 21
127.6715916398965
 31
0.0
  0
LINE
  5
A018
  8
0
 10
78.036368604677662
 20
122.4500444265587
 30
0.0
 11
88.674021045102918
 21
123.2284972132209
 31
0.0
  0
ARC
  5
A019
  8
0
 10
96.750000000000128
 20
125.4500444265587
 30
0.0
 40
5.0
 50
270.0
 51
180.0
  0
POLYLINE
  5
A01A
  8
0
 66
     1
 10
0.0
 20
0.0
 30
0.0
  0
VERTEX
  5
A3F3
  8
0
 10
88.674021045102918
 20
127.6715916398965
 30
0.0
  0
VERTEX
  5
A3F4
  8
0
 10
88.943102022469432
 20
127.6672162867746
 30
0.0
  0
VERTEX
  5
A3F5
  8
0
 10
89.212384797715586
 20
127.693021197448
 30
0.0
  0
VERTEX
  5
A3F6
  8
0
 10
89.476843936620256
 20
127.74871950233771
 30
0.0
  0
VERTEX
  5
A3F7
  8
0
 10
89.734102709591085
 20
127.83450928921761
 30
0.0
  0
VERTEX
  5
A3F8
  8
0
 10
89.981442513557454
 20
127.94929548135561
 30
0.0
  0
VERTEX
  5
A3F9
  8
0
 10
90.213986419733843
 20
128.09103064979391
 30
0.0
  0
VERTEX
  5
A3FA
  8
0
 10
90.426080376264565
 20
128.25620902397199
 30
0.0
  0
VERTEX
  5
A3FB
  8
0
 10
90.619359966969867
 20
128.44485294318699
 30
0.0
  0
VERTEX
  5
A3FC
  8
0
 10
90.790000727198404
 20
128.653375388585
 30
0.0
  0
VERTEX
  5
A3FD
  8
0
 10
90.921527901753237
 20
128.85466085134979
 30
0.0
  0
SEQEND
  5
A3FE
  8
0
  0
POLYLINE
  5
A01B
  8
0
 66
     1
 10
0.0
 20
0.0
 30
0.0
  0
VERTEX
  5
A3FF
  8
0
 10
90.921527901753237
 20
122.0454280017676
 30
0.0
  0
VERTEX
  5
A400
  8
0
 10
90.775078773089135
 20
122.26667900339309
 30
0.0
  0
VERTEX
  5
A401
  8
0
 10
90.604755456335994
 20
122.4710631060171
 30
0.0
  0
VERTEX
  5
A402
  8
0
 10
90.413827272463223
 20
122.6547565048639
 30
0.0
  0
VERTEX
  5
A403
  8
0
 10
90.203929267109444
 20
122.8157511080522
 30
0.0
  0
VERTEX
  5
A404
  8
0
 10
89.977350984135242
 20
122.9529990837361
 30
0.0
  0
VERTEX
  5
A405
  8
0
 10
89.738356325217026
 20
123.0641059835484
 30
0.0
  0
VERTEX
  5
A406
  8
0
 10
89.486861590756405
 20
123.1484491812602
 30
0.0
  0
VERTEX
  5
A407
  8
0
 10
89.227409095591909
 20
123.2047284854098
 30
0.0
  0
VERTEX
  5
A408
  8
0
 10
88.964729808750576
 20
123.2321145965208
 30
0.0
  0
VERTEX
  5
A409
  8
0
 10
88.674021045102918
 20
123.2284972132209
 30
0.0
  0
SEQEND
  5
A40A
  8
0
  0
ARC
  5
A01C
  8
0
 10
96.750000000000128
 20
125.4500444265587
 30
0.0
 40
6.75
 50
210.29070954861629
 51
329.70929146326398
  0
POLYLINE
  5
A01D
  8
0
 66
     1
 10
0.0
 20
0.0
 30
0.0
  0
VERTEX
  5
A40B
  8
0
 10
104.82597895489729
 20
123.2284972132209
 30
0.0
  0
VERTEX
  5
A40C
  8
0
 10
104.5568979775308
 20
123.23287256634281
 30
0.0
  0
VERTEX
  5
A40D
  8
0
 10
104.2876152022847
 20
123.20706765566931
 30
0.0
  0
VERTEX
  5
A40E
  8
0
 10
104.02315606338
 20
123.1513693507797
 30
0.0
  0
VERTEX
  5
A40F
  8
0
 10
103.7658972904092
 20
123.0655795638998
 30
0.0
  0
VERTEX
  5
A410
  8
0
 10
103.5185574864428
 20
122.9507933717618
 30
0.0
  0
VERTEX
  5
A411
  8
0
 10
103.2860135802665
 20
122.8090582033235
 30
0.0
  0
VERTEX
  5
A412
  8
0
 10
103.0739196237357
 20
122.6438798291454
 30
0.0
  0
VERTEX
  5
A413
  8
0
 10
102.8806400330304
 20
122.45523590993039
 30
0.0
  0
VERTEX
  5
A414
  8
0
 10
102.70999927280189
 20
122.24671346453241
 30
0.0
  0
VERTEX
  5
A415
  8
0
 10
102.57847215837469
 20
122.0454281047021
 30
0.0
  0
SEQEND
  5
A416
  8
0
  0
POLYLINE
  5
A01E
  8
0
 66
     1
 10
0.0
 20
0.0
 30
0.0
  0
VERTEX
  5
A417
  8
0
 10
102.5784720982471
 20
128.85466085134979
 30
0.0
  0
VERTEX
  5
A418
  8
0
 10
102.72492122691111
 20
128.6334098497243
 30
0.0
  0
VERTEX
  5
A419
  8
0
 10
102.8952445436643
 20
128.42902574710021
 30
0.0
  0
VERTEX
  5
A41A
  8
0
 10
103.0861727275371
 20
128.2453323482535
 30
0.0
  0
VERTEX
  5
A41B
  8
0
 10
103.2960707328908
 20
128.0843377450652
 30
0.0
  0
VERTEX
  5
A41C
  8
0
 10
103.522649015865
 20
127.94708976938119
 30
0.0
  0
VERTEX
  5
A41D
  8
0
 10
103.7616436747832
 20
127.83598286956899
 30
0.0
  0
VERTEX
  5
A41E
  8
0
 10
104.01313840924379
 20
127.75163967185721
 30
0.0
  0
VERTEX
  5
A41F
  8
0
 10
104.2725909044083
 20
127.69536036770759
 30
0.0
  0
VERTEX
  5
A420
  8
0
 10
104.53527019124969
 20
127.66797425659649
 30
0.0
  0
VERTEX
  5
A421
  8
0
 10
104.82597895489729
 20
127.6715916398965
 30
0.0
  0
SEQEND
  5
A422
  8
0
  0
ARC
  5
A01F
  8
0
 10
96.750000000000128
 20
125.4500444265587
 30
0.0
 40
6.7500000000000053
 50
30.290709548616341
 51
149.70929045138359
  0
POLYLINE
  5
A020
  8
0
 66
     1
 10
0.0
 20
0.0
 30
0.0
  0
VERTEX
  5
A423
  8
0
 10
116.6581184997799
 20
123.5351507483806
 30
0.0
  0
VERTEX
  5
A424
  8
0
 10
116.65747977046421
 20
123.5286934596415
 30
0.0
  0
VERTEX
  5
A425
  8
0
 10
116.64010132901289
 20
123.41357787754499
 30
0.0
  0
VERTEX
  5
A426
  8
0
 10
116.6115543547823
 20
123.3003690354525
 30
0.0
  0
VERTEX
  5
A427
  8
0
 10
116.5715771911262
 20
123.1891164702912
 30
0.0
  0
VERTEX
  5
A428
  8
0
 10
116.5203724998993
 20
123.0814512170512
 30
0.0
  0
VERTEX
  5
A429
  8
0
 10
116.4564086003853
 20
122.97595746478299
 30
0.0
  0
VERTEX
  5
A42A
  8
0
 10
116.3807611955245
 20
122.8761756201182
 30
0.0
  0
VERTEX
  5
A42B
  8
0
 10
116.2926147508193
 20
122.7824100989794
 30
0.0
  0
VERTEX
  5
A42C
  8
0
 10
116.1926514603542
 20
122.6968761597866
 30
0.0
  0
VERTEX
  5
A42D
  8
0
 10
116.0433981195857
 20
122.5993919885768
 30
0.0
  0
VERTEX
  5
A42E
  8
0
 10
115.8731327966334
 20
122.5220778480093
 30
0.0
  0
VERTEX
  5
A42F
  8
0
 10
115.67898419775
 20
122.4695262477547
 30
0.0
  0
VERTEX
  5
A430
  8
0
 10
115.5735924649094
 20
122.45509065683549
 30
0.0
  0
VERTEX
  5
A431
  8
0
 10
115.46363139532259
 20
122.4500444265587
 30
0.0
  0
SEQEND
  5
A432
  8
0
  0
POLYLINE
  5
A021
  8
0
 66
     1
 10
0.0
 20
0.0
 30
0.0
  0
VERTEX
  5
A433
  8
0
 10
115.46363139532259
 20
128.45004442655869
 30
0.0
  0
VERTEX
  5
A434
  8
0
 10
115.62999788283371
 20
128.4384684197814
 30
0.0
  0
VERTEX
  5
A435
  8
0
 10
115.78533989566689
 20
128.4061169332841
 30
0.0
  0
VERTEX
  5
A436
  8
0
 10
115.9318898282432
 20
128.35492020195261
 30
0.0
  0
VERTEX
  5
A437
  8
0
 10
116.0655388841415
 20
128.28817128533069
 30
0.0
  0
VERTEX
  5
A438
  8
0
 10
116.19069875106069
 20
128.20471820232649
 30
0.0
  0
VERTEX
  5
A439
  8
0
 10
116.30144428267489
 20
128.1091635056537
 30
0.0
  0
VERTEX
  5
A43A
  8
0
 10
116.3974922275905
 20
128.00363844587949
 30
0.0
  0
VERTEX
  5
A43B
  8
0
 10
116.5167387440588
 20
127.82533184044961
 30
0.0
  0
VERTEX
  5
A43C
  8
0
 10
116.60096624634799
 20
127.6327576829834
 30
0.0
  0
VERTEX
  5
A43D
  8
0
 10
116.63654779616699
 20
127.50355402525339
 30
0.0
  0
VERTEX
  5
A43E
  8
0
 10
116.65747977046431
 20
127.3713953934754
 30
0.0
  0
VERTEX
  5
A43F
  8
0
 10
116.6581185056763
 20
127.3649380435813
 30
0.0
  0
SEQEND
  5
A440
  8
0
  0
ARC
  5
A022
  8
0
 10
96.750000000000298
 20
125.4500444265587
 30
0.0
 40
19.999999999999929
 50
354.50575056119561
 51
5.4941736886976971
  0
POLYLINE
  5
A023
  8
0
 66
     1
 10
0.0
 20
0.0
 30
0.0
  0
VERTEX
  5
A441
  8
0
 10
76.841881500220367
 20
127.36493810473679
 30
0.0
  0
VERTEX
  5
A442
  8
0
 10
76.842520229535992
 20
127.37139539347569
 30
0.0
  0
VERTEX
  5
A443
  8
0
 10
76.859898670987334
 20
127.4865109755723
 30
0.0
  0
VERTEX
  5
A444
  8
0
 10
76.888445645217601
 20
127.5997198176638
 30
0.0
  0
VERTEX
  5
A445
  8
0
 10
76.928422808873407
 20
127.71097238282459
 30
0.0
  0
VERTEX
  5
A446
  8
0
 10
76.979627500099824
 20
127.8186376360641
 30
0.0
  0
VERTEX
  5
A447
  8
0
 10
77.043591399613277
 20
127.924131388332
 30
0.0
  0
VERTEX
  5
A448
  8
0
 10
77.119238804473483
 20
128.02391323299651
 30
0.0
  0
VERTEX
  5
A449
  8
0
 10
77.207385249177847
 20
128.117678754135
 30
0.0
  0
VERTEX
  5
A44A
  8
0
 10
77.307348539642035
 20
128.20321269332771
 30
0.0
  0
VERTEX
  5
A44B
  8
0
 10
77.456601880413032
 20
128.3006968645397
 30
0.0
  0
VERTEX
  5
A44C
  8
0
 10
77.626867203368491
 20
128.3780110051087
 30
0.0
  0
VERTEX
  5
A44D
  8
0
 10
77.8210158022559
 20
128.43056260536369
 30
0.0
  0
VERTEX
  5
A44E
  8
0
 10
77.926407535093588
 20
128.4449981962824
 30
0.0
  0
VERTEX
  5
A44F
  8
0
 10
78.036368604677662
 20
128.45004442655869
 30
0.0
  0
SEQEND
  5
A450
  8
0
  0
POLYLINE
  5
A024
  8
0
 66
     1
 10
0.0
 20
0.0
 30
0.0
  0
VERTEX
  5
A451
  8
0
 10
78.036368604677662
 20
122.4500444265587
 30
0.0
  0
VERTEX
  5
A452
  8
0
 10
77.870002117166607
 20
122.46162043333599
 30
0.0
  0
VERTEX
  5
A453
  8
0
 10
77.714660104333419
 20
122.4939719198333
 30
0.0
  0
VERTEX
  5
A454
  8
0
 10
77.568110171757056
 20
122.5451686511648
 30
0.0
  0
VERTEX
  5
A455
  8
0
 10
77.434461115858781
 20
122.6119175677867
 30
0.0
  0
VERTEX
  5
A456
  8
0
 10
77.309301248939505
 20
122.69537065079091
 30
0.0
  0
VERTEX
  5
A457
  8
0
 10
77.198555717325391
 20
122.7909253474637
 30
0.0
  0
VERTEX
  5
A458
  8
0
 10
77.102507772409822
 20
122.89645040723789
 30
0.0
  0
VERTEX
  5
A459
  8
0
 10
76.983261255941486
 20
123.0747570126678
 30
0.0
  0
VERTEX
  5
A45A
  8
0
 10
76.899033753652319
 20
123.267331170134
 30
0.0
  0
VERTEX
  5
A45B
  8
0
 10
76.86345220383329
 20
123.396534827864
 30
0.0
  0
VERTEX
  5
A45C
  8
0
 10
76.842520229535964
 20
123.5286934596421
 30
0.0
  0
VERTEX
  5
A45D
  8
0
 10
76.841881494323999
 20
123.53515080953611
 30
0.0
  0
SEQEND
  5
A45E
  8
0
  0
ARC
  5
A025
  8
0
 10
96.750000000000455
 20
125.4500444265587
 30
0.0
 40
20.000000000000419
 50
174.5058825690908
 51
185.49425447866159
  0
POINT
  5
A026
  8
1
 10
96.750000000000185
 20
125.45004442655861
 30
0.0
 50
180.0
  0
LINE
  5
A219
  8
0
 10
98.759500000000131
 20
53.0
 30
0.0
 11
99.250000000000128
 21
53.490500000000011
 31
0.0
  0
LINE
  5
A21A
  8
0
 10
94.250000000000128
 20
53.490500000000011
 30
0.0
 11
94.740500000000125
 21
53.0
 31
0.0
  0
LINE
  5
A21B
  8
0
 10
94.740500000000125
 20
53.0
 30
0.0
 11
98.759500000000131
 21
53.0
 31
0.0
  0
LINE
  5
A21C
  8
0
 10
99.250000000000128
 20
53.490500000000011
 30
0.0
 11
99.250000000000128
 21
73.0
 31
0.0
  0
LINE
  5
A21D
  8
0
 10
94.250000000000128
 20
73.0
 30
0.0
 11
94.250000000000128
 21
53.490500000000011
 31
0.0
  0
LINE
  5
A21E
  8
0
 10
94.250000000000128
 20
53.490500000000011
 30
0.0
 11
99.250000000000128
 21
53.490500000000011
 31
0.0
  0
LINE
  5
A21F
  8
3
 10
94.740500000000125
 20
53.0
 30
0.0
 11
94.740500000000125
 21
71.719999999999999
 31
0.0
  0
LINE
  5
A220
  8
3
 10
94.250000000000128
 20
73.0
 30
0.0
 11
94.740500000000125
 21
71.719999999999999
 31
0.0
  0
LINE
  5
A221
  8
0
 10
94.250000000000128
 20
71.719999999999999
 30
0.0
 11
99.250000000000128
 21
71.719999999999999
 31
0.0
  0
LINE
  5
A222
  8
3
 10
98.759500000000131
 20
53.0
 30
0.0
 11
98.759500000000131
 21
71.719999999999999
 31
0.0
  0
LINE
  5
A223
  8
3
 10
99.250000000000128
 20
73.0
 30
0.0
 11
98.759500000000131
 21
71.719999999999999
 31
0.0
  0
LINE
  5
A224
  8
0
 10
52.009500000000017
 20
53.0
 30
0.0
 11
52.500000000000007
 21
53.490500000000011
 31
0.0
  0
LINE
  5
A225
  8
0
 10
47.500000000000007
 20
53.490500000000011
 30
0.0
 11
47.990500000000011
 21
53.0
 31
0.0
  0
LINE
  5
A226
  8
0
 10
47.990500000000011
 20
53.0
 30
0.0
 11
52.009500000000017
 21
53.0
 31
0.0
  0
LINE
  5
A227
  8
0
 10
52.500000000000007
 20
53.490500000000011
 30
0.0
 11
52.500000000000007
 21
73.0
 31
0.0
  0
LINE
  5
A228
  8
0
 10
47.500000000000007
 20
73.0
 30
0.0
 11
47.500000000000007
 21
53.490500000000011
 31
0.0
  0
LINE
  5
A229
  8
0
 10
47.500000000000007
 20
53.490500000000011
 30
0.0
 11
52.500000000000007
 21
53.490500000000011
 31
0.0
  0
LINE
  5
A22A
  8
3
 10
47.990500000000011
 20
53.0
 30
0.0
 11
47.990500000000011
 21
71.719999999999999
 31
0.0
  0
LINE
  5
A22B
  8
3
 10
47.500000000000007
 20
73.0
 30
0.0
 11
47.990500000000011
 21
71.719999999999999
 31
0.0
  0
LINE
  5
A22C
  8
0
 10
47.500000000000007
 20
71.719999999999999
 30
0.0
 11
52.500000000000007
 21
71.719999999999999
 31
0.0
  0
LINE
  5
A22D
  8
3
 10
52.009500000000017
 20
53.0
 30
0.0
 11
52.009500000000017
 21
71.719999999999999
 31
0.0
  0
LINE
  5
A22E
  8
3
 10
52.500000000000007
 20
73.0
 30
0.0
 11
52.009500000000017
 21
71.719999999999999
 31
0.0
  0
LINE
  5
A2CA
  8
0
 10
51.165142612481091
 20
94.571691160751527
 30
0.0
 11
52.005517785534529
 21
94.324703994621558
 31
0.0
  0
LINE
  5
A2CB
  8
0
 10
52.499981072159969
 20
94.108641544823911
 30
0.0
 11
53.374748950005461
 21
93.588242136314776
 31
0.0
  0
ARC
  5
A2CC
  8
0
 10
49.752543400617412
 20
88.494900702838663
 30
0.0
 40
6.2499999999986553
 50
78.149605748448806
 51
83.131382730462519
  0
ARC
  5
A2CD
  8
0
 10
49.752543400780453
 20
88.494900703190396
 30
0.0
 40
6.2499999996111741
 50
63.922273795096977
 51
68.870574360043122
  0
ARC
  5
A2CE
  8
0
 10
49.752543400625392
 20
88.494900702844191
 30
0.0
 40
6.2499999999894289
 50
35.997820554053611
 51
54.580898701323719
  0
LINE
  5
A2CF
  8
0
 10
51.03602422028321
 20
94.611695368802046
 30
0.0
 11
51.165142612481091
 21
94.571691160751527
 31
0.0
  0
ARC
  5
A2D0
  8
0
 10
54.000000000000043
 20
91.580611712695514
 30
0.0
 40
0.9999999999999836
 50
0.000000000000007
 51
35.997820554061803
  0
LINE
  5
A2D1
  8
0
 10
55.000000000000043
 20
91.580611712695514
 30
0.0
 11
55.000000000000043
 21
91.503924265143198
 31
0.0
  0
ENDSEC
  0
EOF
