  0
SECTION
  2
HEADER
  9
$ACADVER
  1
AC1009
  9
$INSBASE
 10
0.0
 20
0.0
 30
0.0
  9
$EXTMIN
 10
0.0
 20
-2.960436562073669
 30
0.0
  9
$EXTMAX
 10
119.74999999999579
 20
115.2000444265587
 30
0.0
  9
$LIMMIN
 10
0.0
 20
0.0
  9
$LIMMAX
 10
187.5
 20
135.0
  9
$ORTHOMODE
 70
     1
  9
$REGENMODE
 70
     1
  9
$FILLMODE
 70
     1
  9
$QTEXTMODE
 70
     0
  9
$MIRRTEXT
 70
     0
  9
$DRAGMODE
 70
     2
  9
$LTSCALE
 40
5.0
  9
$OSMODE
 70
    37
  9
$ATTMODE
 70
     1
  9
$TEXTSIZE
 40
0.2
  9
$TRACEWID
 40
0.05
  9
$TEXTSTYLE
  7
STANDARD
  9
$CLAYER
  8
0
  9
$CELTYPE
  6
BYLAYER
  9
$CECOLOR
 62
     6
  9
$DIMSCALE
 40
1.0
  9
$DIMASZ
 40
3.0
  9
$DIMEXO
 40
2.0
  9
$DIMDLI
 40
0.3799999999999999
  9
$DIMRND
 40
0.0
  9
$DIMDLE
 40
0.0
  9
$DIMEXE
 40
2.0
  9
$DIMTP
 40
0.0
  9
$DIMTM
 40
0.0
  9
$DIMTXT
 40
3.2000000000000002
  9
$DIMCEN
 40
0.09
  9
$DIMTSZ
 40
0.0
  9
$DIMTOL
 70
     0
  9
$DIMLIM
 70
     0
  9
$DIMTIH
 70
     0
  9
$DIMTOH
 70
     0
  9
$DIMSE1
 70
     0
  9
$DIMSE2
 70
     0
  9
$DIMTAD
 70
     1
  9
$DIMZIN
 70
     8
  9
$DIMBLK
  1

  9
$DIMASO
 70
     0
  9
$DIMSHO
 70
     0
  9
$DIMPOST
  1

  9
$DIMAPOST
  1

  9
$DIMALT
 70
     0
  9
$DIMALTD
 70
     2
  9
$DIMALTF
 40
25.399999999999999
  9
$DIMLFAC
 40
1.0
  9
$DIMTOFL
 70
     0
  9
$DIMTVP
 40
1.6000000000000001
  9
$DIMTIX
 70
     1
  9
$DIMSOXD
 70
     0
  9
$DIMSAH
 70
     0
  9
$DIMBLK1
  1

  9
$DIMBLK2
  1

  9
$DIMSTYLE
  2
STANDARD
  9
$DIMCLRD
 70
     0
  9
$DIMCLRE
 70
     0
  9
$DIMCLRT
 70
     0
  9
$DIMTFAC
 40
1.0
  9
$DIMGAP
 40
1.0
  9
$LUNITS
 70
     2
  9
$LUPREC
 70
     4
  9
$SKETCHINC
 40
0.1
  9
$FILLETRAD
 40
0.4
  9
$AUNITS
 70
     0
  9
$AUPREC
 70
     0
  9
$MENU
  1
E:\r13\win\SUPPORT\ACAD
  9
$ELEVATION
 40
0.0
  9
$PELEVATION
 40
0.0
  9
$THICKNESS
 40
0.0
  9
$LIMCHECK
 70
     0
  9
$BLIPMODE
 70
     0
  9
$CHAMFERA
 40
0.0
  9
$CHAMFERB
 40
0.0
  9
$SKPOLY
 70
     0
  9
$TDCREATE
 40
2456129.6740617128
  9
$TDUPDATE
 40
2459429.5740968869
  9
$TDINDWG
 40
0.5131834375
  9
$TDUSRTIMER
 40
0.5131832639
  9
$USRTIMER
 70
     1
  9
$ANGBASE
 50
0.0
  9
$ANGDIR
 70
     0
  9
$PDMODE
 70
     0
  9
$PDSIZE
 40
0.0
  9
$PLINEWID
 40
0.0
  9
$COORDS
 70
     1
  9
$SPLFRAME
 70
     0
  9
$SPLINETYPE
 70
     6
  9
$SPLINESEGS
 70
     8
  9
$ATTDIA
 70
     0
  9
$ATTREQ
 70
     1
  9
$HANDLING
 70
     1
  9
$HANDSEED
  5
A803
  9
$SURFTAB1
 70
     6
  9
$SURFTAB2
 70
     6
  9
$SURFTYPE
 70
     6
  9
$SURFU
 70
     6
  9
$SURFV
 70
     6
  9
$UCSNAME
  2

  9
$UCSORG
 10
0.0
 20
0.0
 30
0.0
  9
$UCSXDIR
 10
1.0
 20
0.0
 30
0.0
  9
$UCSYDIR
 10
0.0
 20
1.0
 30
0.0
  9
$PUCSNAME
  2

  9
$PUCSORG
 10
0.0
 20
0.0
 30
0.0
  9
$PUCSXDIR
 10
1.0
 20
0.0
 30
0.0
  9
$PUCSYDIR
 10
0.0
 20
1.0
 30
0.0
  9
$USERI1
 70
     0
  9
$USERI2
 70
     1
  9
$USERI3
 70
     0
  9
$USERI4
 70
     0
  9
$USERI5
 70
     0
  9
$USERR1
 40
0.0
  9
$USERR2
 40
0.0
  9
$USERR3
 40
0.0
  9
$USERR4
 40
0.0
  9
$USERR5
 40
0.0
  9
$WORLDVIEW
 70
     1
  9
$SHADEDGE
 70
     3
  9
$SHADEDIF
 70
    70
  9
$TILEMODE
 70
     1
  9
$MAXACTVP
 70
    16
  9
$PLIMCHECK
 70
     0
  9
$PEXTMIN
 10
1.0000000000000000E+020
 20
1.0000000000000000E+020
 30
1.0000000000000000E+020
  9
$PEXTMAX
 10
-1.0000000000000000E+020
 20
-1.0000000000000000E+020
 30
-1.0000000000000000E+020
  9
$PLIMMIN
 10
0.0
 20
0.0
  9
$PLIMMAX
 10
12.0
 20
9.0
  9
$UNITMODE
 70
     0
  9
$VISRETAIN
 70
     0
  9
$PLINEGEN
 70
     0
  9
$PSLTSCALE
 70
     0
  0
ENDSEC
  0
SECTION
  2
TABLES
  0
TABLE
  2
VPORT
 70
     1
  0
VPORT
  2
*ACTIVE
 70
     0
 10
0.0
 20
0.0
 11
1.0
 21
1.0
 12
118.0596800421315
 22
56.117626971454008
 13
0.0
 23
0.0
 14
5.0
 24
5.0
 15
5.0
 25
5.0
 16
0.0
 26
0.0
 36
1.0
 17
0.0
 27
0.0
 37
0.0
 40
119.20073631897721
 41
2.3805970149253728
 42
50.0
 43
0.0
 44
0.0
 50
0.0
 51
0.0
 71
     0
 72
   500
 73
     1
 74
     0
 75
     0
 76
     0
 77
     0
 78
     2
  0
ENDTAB
  0
TABLE
  2
LTYPE
 70
     4
  0
LTYPE
  2
CONTINUOUS
 70
     0
  3
Solid Line
 72
    65
 73
     0
 40
0.0
  0
LTYPE
  2
CENTER
 70
     0
  3
____ _ ____ _ ____ _ ____ _ ____ _ ____ _ ____
 72
    65
 73
     4
 40
2.0
 49
1.25
 49
-0.25
 49
0.25
 49
-0.25
  0
LTYPE
  2
HIDDEN
 70
     0
  3
__ __ __ __ __ __ __ __ __ __ __ __ __ __ __ __
 72
    65
 73
     2
 40
0.375
 49
0.25
 49
-0.125
  0
LTYPE
  2
PHANTOM2
 70
     0
  3
___ _ _ ___ _ _ ___ _ _ ___ _ _
 72
    65
 73
     6
 40
1.25
 49
0.625
 49
-0.125
 49
0.125
 49
-0.125
 49
0.125
 49
-0.125
  0
ENDTAB
  0
TABLE
  2
LAYER
 70
     4
  0
LAYER
  2
0
 70
     0
 62
     7
  6
CONTINUOUS
  0
LAYER
  2
1
 70
     0
 62
     1
  6
CENTER
  0
LAYER
  2
2
 70
     0
 62
     2
  6
HIDDEN
  0
LAYER
  2
DEFPOINTS
 70
     0
 62
     7
  6
CONTINUOUS
  0
ENDTAB
  0
TABLE
  2
STYLE
 70
     2
  0
STYLE
  2
STANDARD
 70
     0
 40
0.0
 41
1.0
 50
0.0
 71
     0
 42
0.2
  3
TXT
  4
BIGFONT
  0
STYLE
  2
STANDARD1
 70
     0
 40
0.0
 41
1.0
 50
0.0
 71
     0
 42
3.0
  3
txt
  4

  0
ENDTAB
  0
TABLE
  2
VIEW
 70
     0
  0
ENDTAB
  0
TABLE
  2
UCS
 70
     0
  0
ENDTAB
  0
TABLE
  2
APPID
 70
     7
  0
APPID
  2
ACAD
 70
     0
  0
APPID
  2
ACAD_MLEADERVER
 70
     0
  0
APPID
  2
ACAD_PSEXT
 70
     0
  0
APPID
  2
ACAD_EXEMPT_FROM_CAD_STANDARDS
 70
     0
  0
APPID
  2
ACAD_DSTYLE_DIMJAG
 70
     0
  0
APPID
  2
ACAD_DSTYLE_DIMTALN
 70
     0
  0
APPID
  2
ACAD_NAV_VCDISPLAY
 70
     0
  0
ENDTAB
  0
TABLE
  2
DIMSTYLE
 70
     1
  0
DIMSTYLE
  2
STANDARD
 70
     0
  3

  4

  5

  6

  7

 40
1.0
 41
0.18
 42
0.0625
 43
0.38
 44
0.18
 45
0.0
 46
0.0
 47
0.0
 48
0.0
140
0.18
141
0.09
142
0.0
143
25.399999999999999
144
1.0
145
0.0
146
1.0
147
0.09
 71
     0
 72
     0
 73
     1
 74
     1
 75
     0
 76
     0
 77
     0
 78
     0
170
     0
171
     2
172
     0
173
     0
174
     0
175
     0
176
     0
177
     0
178
     0
  0
ENDTAB
  0
ENDSEC
  0
SECTION
  2
BLOCKS
  0
BLOCK
  8
0
  2
$MODEL_SPACE
 70
     0
 10
0.0
 20
0.0
 30
0.0
  3
$MODEL_SPACE
  1

  0
ENDBLK
  5
9
  8
0
  0
BLOCK
 67
     1
  8
0
  2
$PAPER_SPACE
 70
     0
 10
0.0
 20
0.0
 30
0.0
  3
$PAPER_SPACE
  1

  0
ENDBLK
  5
E
 67
     1
  8
0
  0
ENDSEC
  0
SECTION
  2
ENTITIES
  0
TEXT
  5
9E1A
  8
0
 62
     3
 10
0.0
 20
0.0
 30
0.0
 40
10.0
  1
EWN40A-SUS-OG
  7
STANDARD1
  0
ARC
  5
9F56
  8
0
 10
96.502543400617427
 20
68.494900702837299
 30
0.0
 40
6.2500000000000107
 50
35.997820554061718
 51
83.131382730463358
  0
ARC
  5
9F57
  8
0
 10
96.997456599382872
 20
68.494900702837299
 30
0.0
 40
6.25
 50
96.868617269536657
 51
144.0021794459382
  0
LINE
  5
9F58
  8
0
 10
97.250000000000213
 20
74.700044426558719
 30
0.0
 11
96.250000000000114
 21
74.700044426558719
 31
0.0
  0
LINE
  5
9F5A
  8
0
 10
91.750000000000114
 20
71.580611712695514
 30
0.0
 11
91.750000000000114
 21
71.503924265143212
 31
0.0
  0
LINE
  5
9F5B
  8
0
 10
101.7500000000001
 20
71.503924265143212
 30
0.0
 11
101.7500000000001
 21
71.580611712695514
 31
0.0
  0
ARC
  5
9F5C
  8
0
 10
92.750000000000114
 20
71.580611712695514
 30
0.0
 40
0.9999999999999836
 50
144.0021794459382
 51
180.0
  0
ARC
  5
9F5D
  8
0
 10
100.7500000000001
 20
71.580611712695514
 30
0.0
 40
0.9999999999999822
 50
0.0
 51
35.997820554061718
  0
LINE
  5
9F60
  8
2
 10
98.817000000000121
 20
53.432999999999993
 30
0.0
 11
98.817000000000121
 21
64.567000000000007
 31
0.0
  0
LINE
  5
9F61
  8
2
 10
94.683000000000106
 20
64.567000000000007
 30
0.0
 11
94.683000000000106
 21
53.432999999999993
 31
0.0
  0
LINE
  5
9F62
  8
2
 10
94.683000000000106
 20
53.432999999999993
 30
0.0
 11
94.250000000000156
 21
53.0
 31
0.0
  0
LINE
  5
9F63
  8
2
 10
99.250000000000227
 20
53.0
 30
0.0
 11
98.817000000000121
 21
53.432999999999993
 31
0.0
  0
LINE
  5
9F64
  8
2
 10
94.683000000000106
 20
53.432999999999993
 30
0.0
 11
98.817000000000121
 21
53.432999999999993
 31
0.0
  0
LINE
  5
9F65
  8
2
 10
98.817000000000121
 20
64.567000000000007
 30
0.0
 11
99.250000000000114
 21
65.0
 31
0.0
  0
LINE
  5
9F66
  8
2
 10
94.250000000000114
 20
65.0
 30
0.0
 11
94.683000000000106
 21
64.567000000000007
 31
0.0
  0
LINE
  5
9F67
  8
2
 10
94.683000000000106
 20
64.567000000000007
 30
0.0
 11
98.817000000000121
 21
64.567000000000007
 31
0.0
  0
LINE
  5
9F6B
  8
2
 10
101.2500000000001
 20
65.0
 30
0.0
 11
101.2500000000001
 21
66.199999999999989
 31
0.0
  0
LINE
  5
9F6C
  8
2
 10
92.250000000000114
 20
66.199999999999989
 30
0.0
 11
92.250000000000114
 21
65.0
 31
0.0
  0
LINE
  5
9F6D
  8
2
 10
91.750000000000085
 20
65.0
 30
0.0
 11
101.7500000000001
 21
65.0
 31
0.0
  0
LINE
  5
9F6E
  8
2
 10
101.7500000000001
 20
53.0
 30
0.0
 11
101.7500000000001
 21
65.0
 31
0.0
  0
LINE
  5
9F6F
  8
2
 10
91.750000000000142
 20
71.503924265143212
 30
0.0
 11
91.750000000000114
 21
66.199999999999989
 31
0.0
  0
LINE
  5
9F70
  8
2
 10
91.750000000000114
 20
66.199999999999989
 30
0.0
 11
101.7500000000001
 21
66.199999999999989
 31
0.0
  0
LINE
  5
9F71
  8
2
 10
94.250000000000057
 20
53.0
 30
0.0
 11
94.250000000000114
 21
65.0
 31
0.0
  0
LINE
  5
9F72
  8
2
 10
99.250000000000057
 20
53.0
 30
0.0
 11
99.250000000000114
 21
65.0
 31
0.0
  0
LINE
  5
9F73
  8
1
 10
96.750000000000114
 20
50.0
 30
0.0
 11
96.750000000000114
 21
77.700044426558719
 31
0.0
  0
POLYLINE
  5
9F74
  8
0
 10
83.023034220976456
 20
63.10256494601898
 30
0.0
 66
     1
 70
     8
  0
VERTEX
  8
0
  5
A3F3
 10
83.0230
 20
63.1026
 30
0.000000
  70
    32
  0
VERTEX
  8
0
  5
A3F4
 10
83.2138
 20
63.1073
 30
0.000000
  70
    32
  0
VERTEX
  8
0
  5
A3F5
 10
83.4040
 20
63.1213
 30
0.000000
  70
    32
  0
VERTEX
  8
0
  5
A3F6
 10
83.5934
 20
63.1447
 30
0.000000
  70
    32
  0
VERTEX
  8
0
  5
A3F7
 10
83.7814
 20
63.1775
 30
0.000000
  70
    32
  0
VERTEX
  8
0
  5
A3F8
 10
83.9675
 20
63.2194
 30
0.000000
  70
    32
  0
VERTEX
  8
0
  5
A3F9
 10
84.1514
 20
63.2704
 30
0.000000
  70
    32
  0
VERTEX
  8
0
  5
A3FA
 10
84.3325
 20
63.3304
 30
0.000000
  70
    32
  0
VERTEX
  8
0
  5
A3FB
 10
84.5105
 20
63.3992
 30
0.000000
  70
    32
  0
VERTEX
  8
0
  5
A3FC
 10
84.6850
 20
63.4768
 30
0.000000
  70
    32
  0
VERTEX
  8
0
  5
A3FD
 10
84.8554
 20
63.5628
 30
0.000000
  70
    32
  0
VERTEX
  8
0
  5
A3FE
 10
85.0214
 20
63.6571
 30
0.000000
  70
    32
  0
VERTEX
  8
0
  5
A3FF
 10
85.1826
 20
63.7594
 30
0.000000
  70
    32
  0
VERTEX
  8
0
  5
A400
 10
85.3385
 20
63.8696
 30
0.000000
  70
    32
  0
VERTEX
  8
0
  5
A401
 10
85.4889
 20
63.9872
 30
0.000000
  70
    32
  0
VERTEX
  8
0
  5
A402
 10
85.6334
 20
64.1122
 30
0.000000
  70
    32
  0
VERTEX
  8
0
  5
A403
 10
85.7716
 20
64.2441
 30
0.000000
  70
    32
  0
VERTEX
  8
0
  5
A404
 10
85.9031
 20
64.3826
 30
0.000000
  70
    32
  0
VERTEX
  8
0
  5
A405
 10
86.0278
 20
64.5275
 30
0.000000
  70
    32
  0
VERTEX
  8
0
  5
A406
 10
86.1451
 20
64.6783
 30
0.000000
  70
    32
  0
VERTEX
  8
0
  5
A407
 10
86.2550
 20
64.8347
 30
0.000000
  70
    32
  0
VERTEX
  8
0
  5
A408
 10
86.3571
 20
64.9963
 30
0.000000
  70
    32
  0
VERTEX
  8
0
  5
A409
 10
86.4511
 20
65.1628
 30
0.000000
  70
    32
  0
VERTEX
  8
0
  5
A40A
 10
86.5369
 20
65.3336
 30
0.000000
  70
    32
  0
VERTEX
  8
0
  5
A40B
 10
86.6142
 20
65.5085
 30
0.000000
  70
    32
  0
VERTEX
  8
0
  5
A40C
 10
86.6829
 20
65.6870
 30
0.000000
  70
    32
  0
VERTEX
  8
0
  5
A40D
 10
86.7427
 20
65.8686
 30
0.000000
  70
    32
  0
VERTEX
  8
0
  5
A40E
 10
86.7936
 20
66.0530
 30
0.000000
  70
    32
  0
VERTEX
  8
0
  5
A40F
 10
86.8354
 20
66.2396
 30
0.000000
  70
    32
  0
VERTEX
  8
0
  5
A410
 10
86.8680
 20
66.4281
 30
0.000000
  70
    32
  0
VERTEX
  8
0
  5
A411
 10
86.8914
 20
66.6180
 30
0.000000
  70
    32
  0
VERTEX
  8
0
  5
A412
 10
86.9054
 20
66.8088
 30
0.000000
  70
    32
  0
VERTEX
  8
0
  5
A413
 10
86.9101
 20
67.0000
 30
0.000000
  70
    32
  0
VERTEX
  8
0
  5
A414
 10
86.9054
 20
67.1912
 30
0.000000
  70
    32
  0
VERTEX
  8
0
  5
A415
 10
86.8914
 20
67.3820
 30
0.000000
  70
    32
  0
VERTEX
  8
0
  5
A416
 10
86.8680
 20
67.5719
 30
0.000000
  70
    32
  0
VERTEX
  8
0
  5
A417
 10
86.8354
 20
67.7604
 30
0.000000
  70
    32
  0
VERTEX
  8
0
  5
A418
 10
86.7936
 20
67.9470
 30
0.000000
  70
    32
  0
VERTEX
  8
0
  5
A419
 10
86.7427
 20
68.1314
 30
0.000000
  70
    32
  0
VERTEX
  8
0
  5
A41A
 10
86.6829
 20
68.3130
 30
0.000000
  70
    32
  0
VERTEX
  8
0
  5
A41B
 10
86.6142
 20
68.4915
 30
0.000000
  70
    32
  0
VERTEX
  8
0
  5
A41C
 10
86.5369
 20
68.6664
 30
0.000000
  70
    32
  0
VERTEX
  8
0
  5
A41D
 10
86.4511
 20
68.8372
 30
0.000000
  70
    32
  0
VERTEX
  8
0
  5
A41E
 10
86.3571
 20
69.0037
 30
0.000000
  70
    32
  0
VERTEX
  8
0
  5
A41F
 10
86.2550
 20
69.1653
 30
0.000000
  70
    32
  0
VERTEX
  8
0
  5
A420
 10
86.1451
 20
69.3217
 30
0.000000
  70
    32
  0
VERTEX
  8
0
  5
A421
 10
86.0278
 20
69.4725
 30
0.000000
  70
    32
  0
VERTEX
  8
0
  5
A422
 10
85.9031
 20
69.6174
 30
0.000000
  70
    32
  0
VERTEX
  8
0
  5
A423
 10
85.7716
 20
69.7559
 30
0.000000
  70
    32
  0
VERTEX
  8
0
  5
A424
 10
85.6334
 20
69.8878
 30
0.000000
  70
    32
  0
VERTEX
  8
0
  5
A425
 10
85.4889
 20
70.0128
 30
0.000000
  70
    32
  0
VERTEX
  8
0
  5
A426
 10
85.3385
 20
70.1304
 30
0.000000
  70
    32
  0
VERTEX
  8
0
  5
A427
 10
85.1826
 20
70.2406
 30
0.000000
  70
    32
  0
VERTEX
  8
0
  5
A428
 10
85.0214
 20
70.3429
 30
0.000000
  70
    32
  0
VERTEX
  8
0
  5
A429
 10
84.8554
 20
70.4372
 30
0.000000
  70
    32
  0
VERTEX
  8
0
  5
A42A
 10
84.6850
 20
70.5232
 30
0.000000
  70
    32
  0
VERTEX
  8
0
  5
A42B
 10
84.5105
 20
70.6008
 30
0.000000
  70
    32
  0
VERTEX
  8
0
  5
A42C
 10
84.3325
 20
70.6696
 30
0.000000
  70
    32
  0
VERTEX
  8
0
  5
A42D
 10
84.1514
 20
70.7296
 30
0.000000
  70
    32
  0
VERTEX
  8
0
  5
A42E
 10
83.9675
 20
70.7806
 30
0.000000
  70
    32
  0
VERTEX
  8
0
  5
A42F
 10
83.7814
 20
70.8225
 30
0.000000
  70
    32
  0
VERTEX
  8
0
  5
A430
 10
83.5934
 20
70.8553
 30
0.000000
  70
    32
  0
VERTEX
  8
0
  5
A431
 10
83.4040
 20
70.8787
 30
0.000000
  70
    32
  0
VERTEX
  8
0
  5
A432
 10
83.2138
 20
70.8927
 30
0.000000
  70
    32
  0
VERTEX
  8
0
  5
A433
 10
83.0230
 20
70.8974
 30
0.000000
  70
    32
  0
VERTEX
  8
0
  5
A434
 10
82.8323
 20
70.8927
 30
0.000000
  70
    32
  0
VERTEX
  8
0
  5
A435
 10
82.6420
 20
70.8787
 30
0.000000
  70
    32
  0
VERTEX
  8
0
  5
A436
 10
82.4527
 20
70.8553
 30
0.000000
  70
    32
  0
VERTEX
  8
0
  5
A437
 10
82.2647
 20
70.8225
 30
0.000000
  70
    32
  0
VERTEX
  8
0
  5
A438
 10
82.0786
 20
70.7806
 30
0.000000
  70
    32
  0
VERTEX
  8
0
  5
A439
 10
81.8947
 20
70.7296
 30
0.000000
  70
    32
  0
VERTEX
  8
0
  5
A43A
 10
81.7135
 20
70.6696
 30
0.000000
  70
    32
  0
VERTEX
  8
0
  5
A43B
 10
81.5355
 20
70.6008
 30
0.000000
  70
    32
  0
VERTEX
  8
0
  5
A43C
 10
81.3611
 20
70.5232
 30
0.000000
  70
    32
  0
VERTEX
  8
0
  5
A43D
 10
81.1907
 20
70.4372
 30
0.000000
  70
    32
  0
VERTEX
  8
0
  5
A43E
 10
81.0247
 20
70.3429
 30
0.000000
  70
    32
  0
VERTEX
  8
0
  5
A43F
 10
80.8635
 20
70.2406
 30
0.000000
  70
    32
  0
VERTEX
  8
0
  5
A440
 10
80.7075
 20
70.1304
 30
0.000000
  70
    32
  0
VERTEX
  8
0
  5
A441
 10
80.5571
 20
70.0128
 30
0.000000
  70
    32
  0
VERTEX
  8
0
  5
A442
 10
80.4127
 20
69.8878
 30
0.000000
  70
    32
  0
VERTEX
  8
0
  5
A443
 10
80.2745
 20
69.7559
 30
0.000000
  70
    32
  0
VERTEX
  8
0
  5
A444
 10
80.1429
 20
69.6174
 30
0.000000
  70
    32
  0
VERTEX
  8
0
  5
A445
 10
80.0183
 20
69.4725
 30
0.000000
  70
    32
  0
VERTEX
  8
0
  5
A446
 10
79.9009
 20
69.3217
 30
0.000000
  70
    32
  0
VERTEX
  8
0
  5
A447
 10
79.7911
 20
69.1653
 30
0.000000
  70
    32
  0
VERTEX
  8
0
  5
A448
 10
79.6890
 20
69.0037
 30
0.000000
  70
    32
  0
VERTEX
  8
0
  5
A449
 10
79.5950
 20
68.8372
 30
0.000000
  70
    32
  0
VERTEX
  8
0
  5
A44A
 10
79.5092
 20
68.6664
 30
0.000000
  70
    32
  0
VERTEX
  8
0
  5
A44B
 10
79.4319
 20
68.4915
 30
0.000000
  70
    32
  0
VERTEX
  8
0
  5
A44C
 10
79.3632
 20
68.3130
 30
0.000000
  70
    32
  0
VERTEX
  8
0
  5
A44D
 10
79.3034
 20
68.1314
 30
0.000000
  70
    32
  0
VERTEX
  8
0
  5
A44E
 10
79.2525
 20
67.9470
 30
0.000000
  70
    32
  0
VERTEX
  8
0
  5
A44F
 10
79.2107
 20
67.7604
 30
0.000000
  70
    32
  0
VERTEX
  8
0
  5
A450
 10
79.1781
 20
67.5719
 30
0.000000
  70
    32
  0
VERTEX
  8
0
  5
A451
 10
79.1547
 20
67.3820
 30
0.000000
  70
    32
  0
VERTEX
  8
0
  5
A452
 10
79.1407
 20
67.1912
 30
0.000000
  70
    32
  0
VERTEX
  8
0
  5
A453
 10
79.1360
 20
67.0000
 30
0.000000
  70
    32
  0
VERTEX
  8
0
  5
A454
 10
79.1407
 20
66.8088
 30
0.000000
  70
    32
  0
VERTEX
  8
0
  5
A455
 10
79.1547
 20
66.6180
 30
0.000000
  70
    32
  0
VERTEX
  8
0
  5
A456
 10
79.1781
 20
66.4281
 30
0.000000
  70
    32
  0
VERTEX
  8
0
  5
A457
 10
79.2107
 20
66.2396
 30
0.000000
  70
    32
  0
VERTEX
  8
0
  5
A458
 10
79.2525
 20
66.0530
 30
0.000000
  70
    32
  0
VERTEX
  8
0
  5
A459
 10
79.3034
 20
65.8686
 30
0.000000
  70
    32
  0
VERTEX
  8
0
  5
A45A
 10
79.3632
 20
65.6870
 30
0.000000
  70
    32
  0
VERTEX
  8
0
  5
A45B
 10
79.4319
 20
65.5085
 30
0.000000
  70
    32
  0
VERTEX
  8
0
  5
A45C
 10
79.5092
 20
65.3336
 30
0.000000
  70
    32
  0
VERTEX
  8
0
  5
A45D
 10
79.5950
 20
65.1628
 30
0.000000
  70
    32
  0
VERTEX
  8
0
  5
A45E
 10
79.6890
 20
64.9963
 30
0.000000
  70
    32
  0
VERTEX
  8
0
  5
A45F
 10
79.7911
 20
64.8347
 30
0.000000
  70
    32
  0
VERTEX
  8
0
  5
A460
 10
79.9009
 20
64.6783
 30
0.000000
  70
    32
  0
VERTEX
  8
0
  5
A461
 10
80.0183
 20
64.5275
 30
0.000000
  70
    32
  0
VERTEX
  8
0
  5
A462
 10
80.1429
 20
64.3826
 30
0.000000
  70
    32
  0
VERTEX
  8
0
  5
A463
 10
80.2745
 20
64.2441
 30
0.000000
  70
    32
  0
VERTEX
  8
0
  5
A464
 10
80.4127
 20
64.1122
 30
0.000000
  70
    32
  0
VERTEX
  8
0
  5
A465
 10
80.5571
 20
63.9872
 30
0.000000
  70
    32
  0
VERTEX
  8
0
  5
A466
 10
80.7075
 20
63.8696
 30
0.000000
  70
    32
  0
VERTEX
  8
0
  5
A467
 10
80.8635
 20
63.7594
 30
0.000000
  70
    32
  0
VERTEX
  8
0
  5
A468
 10
81.0247
 20
63.6571
 30
0.000000
  70
    32
  0
VERTEX
  8
0
  5
A469
 10
81.1907
 20
63.5628
 30
0.000000
  70
    32
  0
VERTEX
  8
0
  5
A46A
 10
81.3611
 20
63.4768
 30
0.000000
  70
    32
  0
VERTEX
  8
0
  5
A46B
 10
81.5355
 20
63.3992
 30
0.000000
  70
    32
  0
VERTEX
  8
0
  5
A46C
 10
81.7135
 20
63.3304
 30
0.000000
  70
    32
  0
VERTEX
  8
0
  5
A46D
 10
81.8947
 20
63.2704
 30
0.000000
  70
    32
  0
VERTEX
  8
0
  5
A46E
 10
82.0786
 20
63.2194
 30
0.000000
  70
    32
  0
VERTEX
  8
0
  5
A46F
 10
82.2647
 20
63.1775
 30
0.000000
  70
    32
  0
VERTEX
  8
0
  5
A470
 10
82.4527
 20
63.1447
 30
0.000000
  70
    32
  0
VERTEX
  8
0
  5
A471
 10
82.6420
 20
63.1213
 30
0.000000
  70
    32
  0
VERTEX
  8
0
  5
A472
 10
82.8323
 20
63.1073
 30
0.000000
  70
    32
  0
VERTEX
  8
0
  5
A473
 10
83.0230
 20
63.1026
 30
0.000000
  70
    32
  0
SEQEND
  8
0
  5
A474
  0
POLYLINE
  5
9F75
  8
0
 10
110.4769657790237
 20
63.102564946018987
 30
0.0
 66
     1
 70
     8
  0
VERTEX
  8
0
  5
A475
 10
110.477
 20
63.1026
 30
0.000000
  70
    32
  0
VERTEX
  8
0
  5
A476
 10
110.668
 20
63.1073
 30
0.000000
  70
    32
  0
VERTEX
  8
0
  5
A477
 10
110.858
 20
63.1213
 30
0.000000
  70
    32
  0
VERTEX
  8
0
  5
A478
 10
111.047
 20
63.1447
 30
0.000000
  70
    32
  0
VERTEX
  8
0
  5
A479
 10
111.235
 20
63.1775
 30
0.000000
  70
    32
  0
VERTEX
  8
0
  5
A47A
 10
111.421
 20
63.2194
 30
0.000000
  70
    32
  0
VERTEX
  8
0
  5
A47B
 10
111.605
 20
63.2704
 30
0.000000
  70
    32
  0
VERTEX
  8
0
  5
A47C
 10
111.786
 20
63.3304
 30
0.000000
  70
    32
  0
VERTEX
  8
0
  5
A47D
 10
111.964
 20
63.3992
 30
0.000000
  70
    32
  0
VERTEX
  8
0
  5
A47E
 10
112.139
 20
63.4768
 30
0.000000
  70
    32
  0
VERTEX
  8
0
  5
A47F
 10
112.309
 20
63.5628
 30
0.000000
  70
    32
  0
VERTEX
  8
0
  5
A480
 10
112.475
 20
63.6571
 30
0.000000
  70
    32
  0
VERTEX
  8
0
  5
A481
 10
112.636
 20
63.7594
 30
0.000000
  70
    32
  0
VERTEX
  8
0
  5
A482
 10
112.792
 20
63.8696
 30
0.000000
  70
    32
  0
VERTEX
  8
0
  5
A483
 10
112.943
 20
63.9872
 30
0.000000
  70
    32
  0
VERTEX
  8
0
  5
A484
 10
113.087
 20
64.1122
 30
0.000000
  70
    32
  0
VERTEX
  8
0
  5
A485
 10
113.226
 20
64.2441
 30
0.000000
  70
    32
  0
VERTEX
  8
0
  5
A486
 10
113.357
 20
64.3826
 30
0.000000
  70
    32
  0
VERTEX
  8
0
  5
A487
 10
113.482
 20
64.5275
 30
0.000000
  70
    32
  0
VERTEX
  8
0
  5
A488
 10
113.599
 20
64.6783
 30
0.000000
  70
    32
  0
VERTEX
  8
0
  5
A489
 10
113.709
 20
64.8347
 30
0.000000
  70
    32
  0
VERTEX
  8
0
  5
A48A
 10
113.811
 20
64.9963
 30
0.000000
  70
    32
  0
VERTEX
  8
0
  5
A48B
 10
113.905
 20
65.1628
 30
0.000000
  70
    32
  0
VERTEX
  8
0
  5
A48C
 10
113.991
 20
65.3336
 30
0.000000
  70
    32
  0
VERTEX
  8
0
  5
A48D
 10
114.068
 20
65.5085
 30
0.000000
  70
    32
  0
VERTEX
  8
0
  5
A48E
 10
114.137
 20
65.6870
 30
0.000000
  70
    32
  0
VERTEX
  8
0
  5
A48F
 10
114.197
 20
65.8686
 30
0.000000
  70
    32
  0
VERTEX
  8
0
  5
A490
 10
114.248
 20
66.0530
 30
0.000000
  70
    32
  0
VERTEX
  8
0
  5
A491
 10
114.289
 20
66.2396
 30
0.000000
  70
    32
  0
VERTEX
  8
0
  5
A492
 10
114.322
 20
66.4281
 30
0.000000
  70
    32
  0
VERTEX
  8
0
  5
A493
 10
114.345
 20
66.6180
 30
0.000000
  70
    32
  0
VERTEX
  8
0
  5
A494
 10
114.359
 20
66.8088
 30
0.000000
  70
    32
  0
VERTEX
  8
0
  5
A495
 10
114.364
 20
67.0000
 30
0.000000
  70
    32
  0
VERTEX
  8
0
  5
A496
 10
114.359
 20
67.1912
 30
0.000000
  70
    32
  0
VERTEX
  8
0
  5
A497
 10
114.345
 20
67.3820
 30
0.000000
  70
    32
  0
VERTEX
  8
0
  5
A498
 10
114.322
 20
67.5719
 30
0.000000
  70
    32
  0
VERTEX
  8
0
  5
A499
 10
114.289
 20
67.7604
 30
0.000000
  70
    32
  0
VERTEX
  8
0
  5
A49A
 10
114.248
 20
67.9470
 30
0.000000
  70
    32
  0
VERTEX
  8
0
  5
A49B
 10
114.197
 20
68.1314
 30
0.000000
  70
    32
  0
VERTEX
  8
0
  5
A49C
 10
114.137
 20
68.3130
 30
0.000000
  70
    32
  0
VERTEX
  8
0
  5
A49D
 10
114.068
 20
68.4915
 30
0.000000
  70
    32
  0
VERTEX
  8
0
  5
A49E
 10
113.991
 20
68.6664
 30
0.000000
  70
    32
  0
VERTEX
  8
0
  5
A49F
 10
113.905
 20
68.8372
 30
0.000000
  70
    32
  0
VERTEX
  8
0
  5
A4A0
 10
113.811
 20
69.0037
 30
0.000000
  70
    32
  0
VERTEX
  8
0
  5
A4A1
 10
113.709
 20
69.1653
 30
0.000000
  70
    32
  0
VERTEX
  8
0
  5
A4A2
 10
113.599
 20
69.3217
 30
0.000000
  70
    32
  0
VERTEX
  8
0
  5
A4A3
 10
113.482
 20
69.4725
 30
0.000000
  70
    32
  0
VERTEX
  8
0
  5
A4A4
 10
113.357
 20
69.6174
 30
0.000000
  70
    32
  0
VERTEX
  8
0
  5
A4A5
 10
113.226
 20
69.7559
 30
0.000000
  70
    32
  0
VERTEX
  8
0
  5
A4A6
 10
113.087
 20
69.8878
 30
0.000000
  70
    32
  0
VERTEX
  8
0
  5
A4A7
 10
112.943
 20
70.0128
 30
0.000000
  70
    32
  0
VERTEX
  8
0
  5
A4A8
 10
112.792
 20
70.1304
 30
0.000000
  70
    32
  0
VERTEX
  8
0
  5
A4A9
 10
112.636
 20
70.2406
 30
0.000000
  70
    32
  0
VERTEX
  8
0
  5
A4AA
 10
112.475
 20
70.3429
 30
0.000000
  70
    32
  0
VERTEX
  8
0
  5
A4AB
 10
112.309
 20
70.4372
 30
0.000000
  70
    32
  0
VERTEX
  8
0
  5
A4AC
 10
112.139
 20
70.5232
 30
0.000000
  70
    32
  0
VERTEX
  8
0
  5
A4AD
 10
111.964
 20
70.6008
 30
0.000000
  70
    32
  0
VERTEX
  8
0
  5
A4AE
 10
111.786
 20
70.6696
 30
0.000000
  70
    32
  0
VERTEX
  8
0
  5
A4AF
 10
111.605
 20
70.7296
 30
0.000000
  70
    32
  0
VERTEX
  8
0
  5
A4B0
 10
111.421
 20
70.7806
 30
0.000000
  70
    32
  0
VERTEX
  8
0
  5
A4B1
 10
111.235
 20
70.8225
 30
0.000000
  70
    32
  0
VERTEX
  8
0
  5
A4B2
 10
111.047
 20
70.8553
 30
0.000000
  70
    32
  0
VERTEX
  8
0
  5
A4B3
 10
110.858
 20
70.8787
 30
0.000000
  70
    32
  0
VERTEX
  8
0
  5
A4B4
 10
110.668
 20
70.8927
 30
0.000000
  70
    32
  0
VERTEX
  8
0
  5
A4B5
 10
110.477
 20
70.8974
 30
0.000000
  70
    32
  0
VERTEX
  8
0
  5
A4B6
 10
110.286
 20
70.8927
 30
0.000000
  70
    32
  0
VERTEX
  8
0
  5
A4B7
 10
110.096
 20
70.8787
 30
0.000000
  70
    32
  0
VERTEX
  8
0
  5
A4B8
 10
109.907
 20
70.8553
 30
0.000000
  70
    32
  0
VERTEX
  8
0
  5
A4B9
 10
109.719
 20
70.8225
 30
0.000000
  70
    32
  0
VERTEX
  8
0
  5
A4BA
 10
109.532
 20
70.7806
 30
0.000000
  70
    32
  0
VERTEX
  8
0
  5
A4BB
 10
109.349
 20
70.7296
 30
0.000000
  70
    32
  0
VERTEX
  8
0
  5
A4BC
 10
109.167
 20
70.6696
 30
0.000000
  70
    32
  0
VERTEX
  8
0
  5
A4BD
 10
108.989
 20
70.6008
 30
0.000000
  70
    32
  0
VERTEX
  8
0
  5
A4BE
 10
108.815
 20
70.5232
 30
0.000000
  70
    32
  0
VERTEX
  8
0
  5
A4BF
 10
108.645
 20
70.4372
 30
0.000000
  70
    32
  0
VERTEX
  8
0
  5
A4C0
 10
108.479
 20
70.3429
 30
0.000000
  70
    32
  0
VERTEX
  8
0
  5
A4C1
 10
108.317
 20
70.2406
 30
0.000000
  70
    32
  0
VERTEX
  8
0
  5
A4C2
 10
108.161
 20
70.1304
 30
0.000000
  70
    32
  0
VERTEX
  8
0
  5
A4C3
 10
108.011
 20
70.0128
 30
0.000000
  70
    32
  0
VERTEX
  8
0
  5
A4C4
 10
107.867
 20
69.8878
 30
0.000000
  70
    32
  0
VERTEX
  8
0
  5
A4C5
 10
107.728
 20
69.7559
 30
0.000000
  70
    32
  0
VERTEX
  8
0
  5
A4C6
 10
107.597
 20
69.6174
 30
0.000000
  70
    32
  0
VERTEX
  8
0
  5
A4C7
 10
107.472
 20
69.4725
 30
0.000000
  70
    32
  0
VERTEX
  8
0
  5
A4C8
 10
107.355
 20
69.3217
 30
0.000000
  70
    32
  0
VERTEX
  8
0
  5
A4C9
 10
107.245
 20
69.1653
 30
0.000000
  70
    32
  0
VERTEX
  8
0
  5
A4CA
 10
107.143
 20
69.0037
 30
0.000000
  70
    32
  0
VERTEX
  8
0
  5
A4CB
 10
107.049
 20
68.8372
 30
0.000000
  70
    32
  0
VERTEX
  8
0
  5
A4CC
 10
106.963
 20
68.6664
 30
0.000000
  70
    32
  0
VERTEX
  8
0
  5
A4CD
 10
106.886
 20
68.4915
 30
0.000000
  70
    32
  0
VERTEX
  8
0
  5
A4CE
 10
106.817
 20
68.3130
 30
0.000000
  70
    32
  0
VERTEX
  8
0
  5
A4CF
 10
106.757
 20
68.1314
 30
0.000000
  70
    32
  0
VERTEX
  8
0
  5
A4D0
 10
106.706
 20
67.9470
 30
0.000000
  70
    32
  0
VERTEX
  8
0
  5
A4D1
 10
106.665
 20
67.7604
 30
0.000000
  70
    32
  0
VERTEX
  8
0
  5
A4D2
 10
106.632
 20
67.5719
 30
0.000000
  70
    32
  0
VERTEX
  8
0
  5
A4D3
 10
106.609
 20
67.3820
 30
0.000000
  70
    32
  0
VERTEX
  8
0
  5
A4D4
 10
106.595
 20
67.1912
 30
0.000000
  70
    32
  0
VERTEX
  8
0
  5
A4D5
 10
106.590
 20
67.0000
 30
0.000000
  70
    32
  0
VERTEX
  8
0
  5
A4D6
 10
106.595
 20
66.8088
 30
0.000000
  70
    32
  0
VERTEX
  8
0
  5
A4D7
 10
106.609
 20
66.6180
 30
0.000000
  70
    32
  0
VERTEX
  8
0
  5
A4D8
 10
106.632
 20
66.4281
 30
0.000000
  70
    32
  0
VERTEX
  8
0
  5
A4D9
 10
106.665
 20
66.2396
 30
0.000000
  70
    32
  0
VERTEX
  8
0
  5
A4DA
 10
106.706
 20
66.0530
 30
0.000000
  70
    32
  0
VERTEX
  8
0
  5
A4DB
 10
106.757
 20
65.8686
 30
0.000000
  70
    32
  0
VERTEX
  8
0
  5
A4DC
 10
106.817
 20
65.6870
 30
0.000000
  70
    32
  0
VERTEX
  8
0
  5
A4DD
 10
106.886
 20
65.5085
 30
0.000000
  70
    32
  0
VERTEX
  8
0
  5
A4DE
 10
106.963
 20
65.3336
 30
0.000000
  70
    32
  0
VERTEX
  8
0
  5
A4DF
 10
107.049
 20
65.1628
 30
0.000000
  70
    32
  0
VERTEX
  8
0
  5
A4E0
 10
107.143
 20
64.9963
 30
0.000000
  70
    32
  0
VERTEX
  8
0
  5
A4E1
 10
107.245
 20
64.8347
 30
0.000000
  70
    32
  0
VERTEX
  8
0
  5
A4E2
 10
107.355
 20
64.6783
 30
0.000000
  70
    32
  0
VERTEX
  8
0
  5
A4E3
 10
107.472
 20
64.5275
 30
0.000000
  70
    32
  0
VERTEX
  8
0
  5
A4E4
 10
107.597
 20
64.3826
 30
0.000000
  70
    32
  0
VERTEX
  8
0
  5
A4E5
 10
107.728
 20
64.2441
 30
0.000000
  70
    32
  0
VERTEX
  8
0
  5
A4E6
 10
107.867
 20
64.1122
 30
0.000000
  70
    32
  0
VERTEX
  8
0
  5
A4E7
 10
108.011
 20
63.9872
 30
0.000000
  70
    32
  0
VERTEX
  8
0
  5
A4E8
 10
108.161
 20
63.8696
 30
0.000000
  70
    32
  0
VERTEX
  8
0
  5
A4E9
 10
108.317
 20
63.7594
 30
0.000000
  70
    32
  0
VERTEX
  8
0
  5
A4EA
 10
108.479
 20
63.6571
 30
0.000000
  70
    32
  0
VERTEX
  8
0
  5
A4EB
 10
108.645
 20
63.5628
 30
0.000000
  70
    32
  0
VERTEX
  8
0
  5
A4EC
 10
108.815
 20
63.4768
 30
0.000000
  70
    32
  0
VERTEX
  8
0
  5
A4ED
 10
108.989
 20
63.3992
 30
0.000000
  70
    32
  0
VERTEX
  8
0
  5
A4EE
 10
109.167
 20
63.3304
 30
0.000000
  70
    32
  0
VERTEX
  8
0
  5
A4EF
 10
109.349
 20
63.2704
 30
0.000000
  70
    32
  0
VERTEX
  8
0
  5
A4F0
 10
109.532
 20
63.2194
 30
0.000000
  70
    32
  0
VERTEX
  8
0
  5
A4F1
 10
109.719
 20
63.1775
 30
0.000000
  70
    32
  0
VERTEX
  8
0
  5
A4F2
 10
109.907
 20
63.1447
 30
0.000000
  70
    32
  0
VERTEX
  8
0
  5
A4F3
 10
110.096
 20
63.1213
 30
0.000000
  70
    32
  0
VERTEX
  8
0
  5
A4F4
 10
110.286
 20
63.1073
 30
0.000000
  70
    32
  0
VERTEX
  8
0
  5
A4F5
 10
110.477
 20
63.1026
 30
0.000000
  70
    32
  0
SEQEND
  8
0
  5
A4F6
  0
LINE
  5
9F76
  8
0
 10
110.7500000000002
 20
73.000000000000057
 30
0.0
 11
110.4993058061911
 21
73.000000000000057
 31
0.0
  0
ARC
  5
9F77
  8
0
 10
110.7500000000002
 20
67.000000000000057
 30
0.0
 40
6.0000000000000018
 50
294.99519985061539
 51
90.0
  0
POLYLINE
  5
9F78
  8
0
 66
     1
 10
0.0
 20
0.0
 30
0.0
  0
VERTEX
  5
A2EE
  8
0
 10
110.4918349768013
 20
72.999995193779483
 30
0.0
  0
VERTEX
  5
A2EF
  8
0
 10
110.25686497368849
 20
72.995135066666791
 30
0.0
  0
VERTEX
  5
A2F0
  8
0
 10
109.7556001929886
 20
72.954091732097879
 30
0.0
  0
VERTEX
  5
A2F1
  8
0
 10
109.25942239955801
 20
72.871707253529962
 30
0.0
  0
VERTEX
  5
A2F2
  8
0
 10
108.7578807988928
 20
72.744314235231784
 30
0.0
  0
VERTEX
  5
A2F3
  8
0
 10
108.2689032967869
 20
72.574780563112967
 30
0.0
  0
VERTEX
  5
A2F4
  8
0
 10
108.1208969750504
 20
72.514027341736551
 30
0.0
  0
SEQEND
  5
A2F5
  8
0
  0
POLYLINE
  5
9F79
  8
0
 66
     1
 10
0.0
 20
0.0
 30
0.0
  0
VERTEX
  5
A2F6
  8
0
 10
85.379103024949814
 20
72.514027341736551
 30
0.0
  0
VERTEX
  5
A2F7
  8
0
 10
84.804814398908604
 20
72.725191307113022
 30
0.0
  0
VERTEX
  5
A2F8
  8
0
 10
84.206142943637872
 20
72.878800997666275
 30
0.0
  0
VERTEX
  5
A2F9
  8
0
 10
83.706000013529007
 20
72.95871883542452
 30
0.0
  0
VERTEX
  5
A2FA
  8
0
 10
83.200964487486004
 20
72.996679697035745
 30
0.0
  0
VERTEX
  5
A2FB
  8
0
 10
83.006622962330468
 20
72.999996941039001
 30
0.0
  0
SEQEND
  5
A2FC
  8
0
  0
LINE
  5
9F7A
  8
0
 10
83.000687757768276
 20
73.000000000000057
 30
0.0
 11
82.75
 21
73.000000000000057
 31
0.0
  0
ARC
  5
9F7B
  8
0
 10
82.75
 20
67.000000000000057
 30
0.0
 40
6.0000000000000009
 50
90.0
 51
245.004800149381
  0
ARC
  5
9F7C
  8
0
 10
108.1381858182435
 20
108.6815128432264
 30
0.0
 40
54.772005208333361
 50
239.34867465914371
 51
250.66092563961561
  0
ARC
  5
9F7D
  8
0
 10
85.361814181756074
 20
108.68151284322791
 30
0.0
 40
54.772005208335102
 50
289.33907436038442
 51
300.6513253408562
  0
POLYLINE
  5
9F7E
  8
0
 10
85.379103024949728
 20
72.514027341736565
 30
0.0
 66
     1
 70
     8
  0
VERTEX
  8
0
  5
A4F7
 10
85.3791
 20
72.5140
 30
0.000000
  70
    32
  0
VERTEX
  8
0
  5
A4F8
 10
85.4046
 20
72.5073
 30
0.000000
  70
    32
  0
VERTEX
  8
0
  5
A4F9
 10
85.4301
 20
72.5006
 30
0.000000
  70
    32
  0
VERTEX
  8
0
  5
A4FA
 10
85.4557
 20
72.4940
 30
0.000000
  70
    32
  0
VERTEX
  8
0
  5
A4FB
 10
85.4812
 20
72.4873
 30
0.000000
  70
    32
  0
VERTEX
  8
0
  5
A4FC
 10
85.5067
 20
72.4807
 30
0.000000
  70
    32
  0
VERTEX
  8
0
  5
A4FD
 10
85.5323
 20
72.4741
 30
0.000000
  70
    32
  0
VERTEX
  8
0
  5
A4FE
 10
85.5578
 20
72.4674
 30
0.000000
  70
    32
  0
VERTEX
  8
0
  5
A4FF
 10
85.5834
 20
72.4608
 30
0.000000
  70
    32
  0
VERTEX
  8
0
  5
A500
 10
85.6089
 20
72.4543
 30
0.000000
  70
    32
  0
VERTEX
  8
0
  5
A501
 10
85.6345
 20
72.4477
 30
0.000000
  70
    32
  0
VERTEX
  8
0
  5
A502
 10
85.6600
 20
72.4412
 30
0.000000
  70
    32
  0
VERTEX
  8
0
  5
A503
 10
85.6856
 20
72.4346
 30
0.000000
  70
    32
  0
VERTEX
  8
0
  5
A504
 10
85.7111
 20
72.4281
 30
0.000000
  70
    32
  0
VERTEX
  8
0
  5
A505
 10
85.7367
 20
72.4216
 30
0.000000
  70
    32
  0
VERTEX
  8
0
  5
A506
 10
85.7623
 20
72.4151
 30
0.000000
  70
    32
  0
VERTEX
  8
0
  5
A507
 10
85.7879
 20
72.4086
 30
0.000000
  70
    32
  0
VERTEX
  8
0
  5
A508
 10
85.8134
 20
72.4022
 30
0.000000
  70
    32
  0
VERTEX
  8
0
  5
A509
 10
85.8390
 20
72.3957
 30
0.000000
  70
    32
  0
VERTEX
  8
0
  5
A50A
 10
85.8646
 20
72.3893
 30
0.000000
  70
    32
  0
VERTEX
  8
0
  5
A50B
 10
85.8902
 20
72.3829
 30
0.000000
  70
    32
  0
VERTEX
  8
0
  5
A50C
 10
85.9158
 20
72.3765
 30
0.000000
  70
    32
  0
VERTEX
  8
0
  5
A50D
 10
85.9414
 20
72.3701
 30
0.000000
  70
    32
  0
VERTEX
  8
0
  5
A50E
 10
85.9670
 20
72.3637
 30
0.000000
  70
    32
  0
VERTEX
  8
0
  5
A50F
 10
85.9926
 20
72.3574
 30
0.000000
  70
    32
  0
VERTEX
  8
0
  5
A510
 10
86.0182
 20
72.3510
 30
0.000000
  70
    32
  0
VERTEX
  8
0
  5
A511
 10
86.0438
 20
72.3447
 30
0.000000
  70
    32
  0
VERTEX
  8
0
  5
A512
 10
86.0694
 20
72.3384
 30
0.000000
  70
    32
  0
VERTEX
  8
0
  5
A513
 10
86.0950
 20
72.3321
 30
0.000000
  70
    32
  0
VERTEX
  8
0
  5
A514
 10
86.1207
 20
72.3258
 30
0.000000
  70
    32
  0
VERTEX
  8
0
  5
A515
 10
86.1463
 20
72.3195
 30
0.000000
  70
    32
  0
VERTEX
  8
0
  5
A516
 10
86.1719
 20
72.3133
 30
0.000000
  70
    32
  0
VERTEX
  8
0
  5
A517
 10
86.1976
 20
72.3070
 30
0.000000
  70
    32
  0
VERTEX
  8
0
  5
A518
 10
86.2232
 20
72.3008
 30
0.000000
  70
    32
  0
VERTEX
  8
0
  5
A519
 10
86.2488
 20
72.2946
 30
0.000000
  70
    32
  0
VERTEX
  8
0
  5
A51A
 10
86.2745
 20
72.2884
 30
0.000000
  70
    32
  0
VERTEX
  8
0
  5
A51B
 10
86.3001
 20
72.2822
 30
0.000000
  70
    32
  0
VERTEX
  8
0
  5
A51C
 10
86.3258
 20
72.2761
 30
0.000000
  70
    32
  0
VERTEX
  8
0
  5
A51D
 10
86.3514
 20
72.2699
 30
0.000000
  70
    32
  0
VERTEX
  8
0
  5
A51E
 10
86.3771
 20
72.2638
 30
0.000000
  70
    32
  0
VERTEX
  8
0
  5
A51F
 10
86.4028
 20
72.2577
 30
0.000000
  70
    32
  0
VERTEX
  8
0
  5
A520
 10
86.4284
 20
72.2516
 30
0.000000
  70
    32
  0
VERTEX
  8
0
  5
A521
 10
86.4541
 20
72.2455
 30
0.000000
  70
    32
  0
VERTEX
  8
0
  5
A522
 10
86.4798
 20
72.2394
 30
0.000000
  70
    32
  0
VERTEX
  8
0
  5
A523
 10
86.5055
 20
72.2334
 30
0.000000
  70
    32
  0
VERTEX
  8
0
  5
A524
 10
86.5311
 20
72.2273
 30
0.000000
  70
    32
  0
VERTEX
  8
0
  5
A525
 10
86.5568
 20
72.2213
 30
0.000000
  70
    32
  0
VERTEX
  8
0
  5
A526
 10
86.5825
 20
72.2153
 30
0.000000
  70
    32
  0
VERTEX
  8
0
  5
A527
 10
86.6082
 20
72.2093
 30
0.000000
  70
    32
  0
VERTEX
  8
0
  5
A528
 10
86.6339
 20
72.2033
 30
0.000000
  70
    32
  0
VERTEX
  8
0
  5
A529
 10
86.6596
 20
72.1973
 30
0.000000
  70
    32
  0
VERTEX
  8
0
  5
A52A
 10
86.6853
 20
72.1914
 30
0.000000
  70
    32
  0
VERTEX
  8
0
  5
A52B
 10
86.7110
 20
72.1855
 30
0.000000
  70
    32
  0
VERTEX
  8
0
  5
A52C
 10
86.7367
 20
72.1795
 30
0.000000
  70
    32
  0
VERTEX
  8
0
  5
A52D
 10
86.7624
 20
72.1736
 30
0.000000
  70
    32
  0
VERTEX
  8
0
  5
A52E
 10
86.7881
 20
72.1677
 30
0.000000
  70
    32
  0
VERTEX
  8
0
  5
A52F
 10
86.8139
 20
72.1619
 30
0.000000
  70
    32
  0
VERTEX
  8
0
  5
A530
 10
86.8396
 20
72.1560
 30
0.000000
  70
    32
  0
VERTEX
  8
0
  5
A531
 10
86.8653
 20
72.1502
 30
0.000000
  70
    32
  0
VERTEX
  8
0
  5
A532
 10
86.8910
 20
72.1443
 30
0.000000
  70
    32
  0
VERTEX
  8
0
  5
A533
 10
86.9168
 20
72.1385
 30
0.000000
  70
    32
  0
VERTEX
  8
0
  5
A534
 10
86.9425
 20
72.1327
 30
0.000000
  70
    32
  0
VERTEX
  8
0
  5
A535
 10
86.9682
 20
72.1269
 30
0.000000
  70
    32
  0
VERTEX
  8
0
  5
A536
 10
86.9940
 20
72.1211
 30
0.000000
  70
    32
  0
VERTEX
  8
0
  5
A537
 10
87.0197
 20
72.1154
 30
0.000000
  70
    32
  0
VERTEX
  8
0
  5
A538
 10
87.0455
 20
72.1096
 30
0.000000
  70
    32
  0
VERTEX
  8
0
  5
A539
 10
87.0712
 20
72.1039
 30
0.000000
  70
    32
  0
VERTEX
  8
0
  5
A53A
 10
87.0970
 20
72.0982
 30
0.000000
  70
    32
  0
VERTEX
  8
0
  5
A53B
 10
87.1227
 20
72.0925
 30
0.000000
  70
    32
  0
VERTEX
  8
0
  5
A53C
 10
87.1485
 20
72.0868
 30
0.000000
  70
    32
  0
VERTEX
  8
0
  5
A53D
 10
87.1743
 20
72.0812
 30
0.000000
  70
    32
  0
VERTEX
  8
0
  5
A53E
 10
87.2000
 20
72.0755
 30
0.000000
  70
    32
  0
VERTEX
  8
0
  5
A53F
 10
87.2258
 20
72.0699
 30
0.000000
  70
    32
  0
VERTEX
  8
0
  5
A540
 10
87.2516
 20
72.0643
 30
0.000000
  70
    32
  0
VERTEX
  8
0
  5
A541
 10
87.2774
 20
72.0586
 30
0.000000
  70
    32
  0
VERTEX
  8
0
  5
A542
 10
87.3031
 20
72.0531
 30
0.000000
  70
    32
  0
VERTEX
  8
0
  5
A543
 10
87.3289
 20
72.0475
 30
0.000000
  70
    32
  0
VERTEX
  8
0
  5
A544
 10
87.3547
 20
72.0419
 30
0.000000
  70
    32
  0
VERTEX
  8
0
  5
A545
 10
87.3805
 20
72.0364
 30
0.000000
  70
    32
  0
VERTEX
  8
0
  5
A546
 10
87.4063
 20
72.0308
 30
0.000000
  70
    32
  0
VERTEX
  8
0
  5
A547
 10
87.4321
 20
72.0253
 30
0.000000
  70
    32
  0
VERTEX
  8
0
  5
A548
 10
87.4579
 20
72.0198
 30
0.000000
  70
    32
  0
VERTEX
  8
0
  5
A549
 10
87.4837
 20
72.0143
 30
0.000000
  70
    32
  0
VERTEX
  8
0
  5
A54A
 10
87.5095
 20
72.0089
 30
0.000000
  70
    32
  0
VERTEX
  8
0
  5
A54B
 10
87.5353
 20
72.0034
 30
0.000000
  70
    32
  0
VERTEX
  8
0
  5
A54C
 10
87.5611
 20
71.9980
 30
0.000000
  70
    32
  0
VERTEX
  8
0
  5
A54D
 10
87.5870
 20
71.9925
 30
0.000000
  70
    32
  0
VERTEX
  8
0
  5
A54E
 10
87.6128
 20
71.9871
 30
0.000000
  70
    32
  0
VERTEX
  8
0
  5
A54F
 10
87.6386
 20
71.9817
 30
0.000000
  70
    32
  0
VERTEX
  8
0
  5
A550
 10
87.6644
 20
71.9764
 30
0.000000
  70
    32
  0
VERTEX
  8
0
  5
A551
 10
87.6903
 20
71.9710
 30
0.000000
  70
    32
  0
VERTEX
  8
0
  5
A552
 10
87.7161
 20
71.9656
 30
0.000000
  70
    32
  0
VERTEX
  8
0
  5
A553
 10
87.7419
 20
71.9603
 30
0.000000
  70
    32
  0
VERTEX
  8
0
  5
A554
 10
87.7678
 20
71.9550
 30
0.000000
  70
    32
  0
VERTEX
  8
0
  5
A555
 10
87.7936
 20
71.9497
 30
0.000000
  70
    32
  0
VERTEX
  8
0
  5
A556
 10
87.8195
 20
71.9444
 30
0.000000
  70
    32
  0
VERTEX
  8
0
  5
A557
 10
87.8453
 20
71.9391
 30
0.000000
  70
    32
  0
VERTEX
  8
0
  5
A558
 10
87.8712
 20
71.9339
 30
0.000000
  70
    32
  0
VERTEX
  8
0
  5
A559
 10
87.8970
 20
71.9286
 30
0.000000
  70
    32
  0
VERTEX
  8
0
  5
A55A
 10
87.9229
 20
71.9234
 30
0.000000
  70
    32
  0
VERTEX
  8
0
  5
A55B
 10
87.9487
 20
71.9182
 30
0.000000
  70
    32
  0
VERTEX
  8
0
  5
A55C
 10
87.9746
 20
71.9130
 30
0.000000
  70
    32
  0
VERTEX
  8
0
  5
A55D
 10
88.0005
 20
71.9078
 30
0.000000
  70
    32
  0
VERTEX
  8
0
  5
A55E
 10
88.0263
 20
71.9026
 30
0.000000
  70
    32
  0
VERTEX
  8
0
  5
A55F
 10
88.0522
 20
71.8975
 30
0.000000
  70
    32
  0
VERTEX
  8
0
  5
A560
 10
88.0781
 20
71.8923
 30
0.000000
  70
    32
  0
VERTEX
  8
0
  5
A561
 10
88.1040
 20
71.8872
 30
0.000000
  70
    32
  0
VERTEX
  8
0
  5
A562
 10
88.1298
 20
71.8821
 30
0.000000
  70
    32
  0
VERTEX
  8
0
  5
A563
 10
88.1557
 20
71.8770
 30
0.000000
  70
    32
  0
VERTEX
  8
0
  5
A564
 10
88.1816
 20
71.8719
 30
0.000000
  70
    32
  0
VERTEX
  8
0
  5
A565
 10
88.2075
 20
71.8669
 30
0.000000
  70
    32
  0
VERTEX
  8
0
  5
A566
 10
88.2334
 20
71.8618
 30
0.000000
  70
    32
  0
VERTEX
  8
0
  5
A567
 10
88.2593
 20
71.8568
 30
0.000000
  70
    32
  0
VERTEX
  8
0
  5
A568
 10
88.2852
 20
71.8518
 30
0.000000
  70
    32
  0
VERTEX
  8
0
  5
A569
 10
88.3111
 20
71.8468
 30
0.000000
  70
    32
  0
VERTEX
  8
0
  5
A56A
 10
88.3370
 20
71.8418
 30
0.000000
  70
    32
  0
VERTEX
  8
0
  5
A56B
 10
88.3629
 20
71.8368
 30
0.000000
  70
    32
  0
VERTEX
  8
0
  5
A56C
 10
88.3888
 20
71.8318
 30
0.000000
  70
    32
  0
VERTEX
  8
0
  5
A56D
 10
88.4147
 20
71.8269
 30
0.000000
  70
    32
  0
VERTEX
  8
0
  5
A56E
 10
88.4406
 20
71.8220
 30
0.000000
  70
    32
  0
VERTEX
  8
0
  5
A56F
 10
88.4666
 20
71.8171
 30
0.000000
  70
    32
  0
VERTEX
  8
0
  5
A570
 10
88.4925
 20
71.8122
 30
0.000000
  70
    32
  0
VERTEX
  8
0
  5
A571
 10
88.5184
 20
71.8073
 30
0.000000
  70
    32
  0
VERTEX
  8
0
  5
A572
 10
88.5443
 20
71.8024
 30
0.000000
  70
    32
  0
VERTEX
  8
0
  5
A573
 10
88.5703
 20
71.7976
 30
0.000000
  70
    32
  0
VERTEX
  8
0
  5
A574
 10
88.5962
 20
71.7927
 30
0.000000
  70
    32
  0
VERTEX
  8
0
  5
A575
 10
88.6221
 20
71.7879
 30
0.000000
  70
    32
  0
VERTEX
  8
0
  5
A576
 10
88.6481
 20
71.7831
 30
0.000000
  70
    32
  0
VERTEX
  8
0
  5
A577
 10
88.6740
 20
71.7783
 30
0.000000
  70
    32
  0
SEQEND
  8
0
  5
A578
  0
POLYLINE
  5
9F7F
  8
0
 66
     1
 10
0.0
 20
0.0
 30
0.0
  0
VERTEX
  5
A2FD
  8
0
 10
90.921527901753223
 20
71.503924265143212
 30
0.0
  0
VERTEX
  5
A2FE
  8
0
 10
90.692697055663075
 20
71.510694993174127
 30
0.0
  0
VERTEX
  5
A2FF
  8
0
 10
90.413827272463195
 20
71.530605308894707
 30
0.0
  0
VERTEX
  5
A300
  8
0
 10
90.092458666470108
 20
71.563223125966061
 30
0.0
  0
VERTEX
  5
A301
  8
0
 10
89.738356325217012
 20
71.607404496488755
 30
0.0
  0
VERTEX
  5
A302
  8
0
 10
89.357834377697941
 20
71.662528043462103
 30
0.0
  0
VERTEX
  5
A303
  8
0
 10
88.964729808750576
 20
71.726551170589175
 30
0.0
  0
VERTEX
  5
A304
  8
0
 10
88.674021045102904
 20
71.778299670357143
 30
0.0
  0
SEQEND
  5
A305
  8
0
  0
POLYLINE
  5
9F80
  8
0
 66
     1
 10
0.0
 20
0.0
 30
0.0
  0
VERTEX
  5
A306
  8
0
 10
104.82597895489729
 20
71.778299670357143
 30
0.0
  0
VERTEX
  5
A307
  8
0
 10
104.5568979775308
 20
71.730293487701374
 30
0.0
  0
VERTEX
  5
A308
  8
0
 10
104.2876152022847
 20
71.685413462436657
 30
0.0
  0
VERTEX
  5
A309
  8
0
 10
104.02315606338
 20
71.644506693007884
 30
0.0
  0
VERTEX
  5
A30A
  8
0
 10
103.7658972904092
 20
71.608002180889883
 30
0.0
  0
VERTEX
  5
A30B
  8
0
 10
103.5185574864428
 20
71.576254656694204
 30
0.0
  0
VERTEX
  5
A30C
  8
0
 10
103.2860135802664
 20
71.549901677024636
 30
0.0
  0
VERTEX
  5
A30D
  8
0
 10
103.07391962373561
 20
71.529567547424989
 30
0.0
  0
VERTEX
  5
A30E
  8
0
 10
102.8806400330304
 20
71.514959486828531
 30
0.0
  0
VERTEX
  5
A30F
  8
0
 10
102.70999927280189
 20
71.506375861679942
 30
0.0
  0
VERTEX
  5
A310
  8
0
 10
102.57847215837469
 20
71.503924265143212
 30
0.0
  0
SEQEND
  5
A311
  8
0
  0
POLYLINE
  5
9F81
  8
0
 10
104.82597895489731
 20
71.778299670357057
 30
0.0
 66
     1
 70
     8
  0
VERTEX
  8
0
  5
A579
 10
104.826
 20
71.7783
 30
0.000000
  70
    32
  0
VERTEX
  8
0
  5
A57A
 10
104.852
 20
71.7831
 30
0.000000
  70
    32
  0
VERTEX
  8
0
  5
A57B
 10
104.878
 20
71.7879
 30
0.000000
  70
    32
  0
VERTEX
  8
0
  5
A57C
 10
104.904
 20
71.7927
 30
0.000000
  70
    32
  0
VERTEX
  8
0
  5
A57D
 10
104.930
 20
71.7976
 30
0.000000
  70
    32
  0
VERTEX
  8
0
  5
A57E
 10
104.956
 20
71.8024
 30
0.000000
  70
    32
  0
VERTEX
  8
0
  5
A57F
 10
104.982
 20
71.8073
 30
0.000000
  70
    32
  0
VERTEX
  8
0
  5
A580
 10
105.008
 20
71.8122
 30
0.000000
  70
    32
  0
VERTEX
  8
0
  5
A581
 10
105.033
 20
71.8171
 30
0.000000
  70
    32
  0
VERTEX
  8
0
  5
A582
 10
105.059
 20
71.8220
 30
0.000000
  70
    32
  0
VERTEX
  8
0
  5
A583
 10
105.085
 20
71.8269
 30
0.000000
  70
    32
  0
VERTEX
  8
0
  5
A584
 10
105.111
 20
71.8318
 30
0.000000
  70
    32
  0
VERTEX
  8
0
  5
A585
 10
105.137
 20
71.8368
 30
0.000000
  70
    32
  0
VERTEX
  8
0
  5
A586
 10
105.163
 20
71.8418
 30
0.000000
  70
    32
  0
VERTEX
  8
0
  5
A587
 10
105.189
 20
71.8468
 30
0.000000
  70
    32
  0
VERTEX
  8
0
  5
A588
 10
105.215
 20
71.8518
 30
0.000000
  70
    32
  0
VERTEX
  8
0
  5
A589
 10
105.241
 20
71.8568
 30
0.000000
  70
    32
  0
VERTEX
  8
0
  5
A58A
 10
105.267
 20
71.8618
 30
0.000000
  70
    32
  0
VERTEX
  8
0
  5
A58B
 10
105.292
 20
71.8669
 30
0.000000
  70
    32
  0
VERTEX
  8
0
  5
A58C
 10
105.318
 20
71.8719
 30
0.000000
  70
    32
  0
VERTEX
  8
0
  5
A58D
 10
105.344
 20
71.8770
 30
0.000000
  70
    32
  0
VERTEX
  8
0
  5
A58E
 10
105.370
 20
71.8821
 30
0.000000
  70
    32
  0
VERTEX
  8
0
  5
A58F
 10
105.396
 20
71.8872
 30
0.000000
  70
    32
  0
VERTEX
  8
0
  5
A590
 10
105.422
 20
71.8923
 30
0.000000
  70
    32
  0
VERTEX
  8
0
  5
A591
 10
105.448
 20
71.8975
 30
0.000000
  70
    32
  0
VERTEX
  8
0
  5
A592
 10
105.474
 20
71.9026
 30
0.000000
  70
    32
  0
VERTEX
  8
0
  5
A593
 10
105.500
 20
71.9078
 30
0.000000
  70
    32
  0
VERTEX
  8
0
  5
A594
 10
105.525
 20
71.9130
 30
0.000000
  70
    32
  0
VERTEX
  8
0
  5
A595
 10
105.551
 20
71.9182
 30
0.000000
  70
    32
  0
VERTEX
  8
0
  5
A596
 10
105.577
 20
71.9234
 30
0.000000
  70
    32
  0
VERTEX
  8
0
  5
A597
 10
105.603
 20
71.9286
 30
0.000000
  70
    32
  0
VERTEX
  8
0
  5
A598
 10
105.629
 20
71.9339
 30
0.000000
  70
    32
  0
VERTEX
  8
0
  5
A599
 10
105.655
 20
71.9391
 30
0.000000
  70
    32
  0
VERTEX
  8
0
  5
A59A
 10
105.681
 20
71.9444
 30
0.000000
  70
    32
  0
VERTEX
  8
0
  5
A59B
 10
105.706
 20
71.9497
 30
0.000000
  70
    32
  0
VERTEX
  8
0
  5
A59C
 10
105.732
 20
71.9550
 30
0.000000
  70
    32
  0
VERTEX
  8
0
  5
A59D
 10
105.758
 20
71.9603
 30
0.000000
  70
    32
  0
VERTEX
  8
0
  5
A59E
 10
105.784
 20
71.9656
 30
0.000000
  70
    32
  0
VERTEX
  8
0
  5
A59F
 10
105.810
 20
71.9710
 30
0.000000
  70
    32
  0
VERTEX
  8
0
  5
A5A0
 10
105.836
 20
71.9764
 30
0.000000
  70
    32
  0
VERTEX
  8
0
  5
A5A1
 10
105.861
 20
71.9817
 30
0.000000
  70
    32
  0
VERTEX
  8
0
  5
A5A2
 10
105.887
 20
71.9871
 30
0.000000
  70
    32
  0
VERTEX
  8
0
  5
A5A3
 10
105.913
 20
71.9925
 30
0.000000
  70
    32
  0
VERTEX
  8
0
  5
A5A4
 10
105.939
 20
71.9980
 30
0.000000
  70
    32
  0
VERTEX
  8
0
  5
A5A5
 10
105.965
 20
72.0034
 30
0.000000
  70
    32
  0
VERTEX
  8
0
  5
A5A6
 10
105.990
 20
72.0089
 30
0.000000
  70
    32
  0
VERTEX
  8
0
  5
A5A7
 10
106.016
 20
72.0143
 30
0.000000
  70
    32
  0
VERTEX
  8
0
  5
A5A8
 10
106.042
 20
72.0198
 30
0.000000
  70
    32
  0
VERTEX
  8
0
  5
A5A9
 10
106.068
 20
72.0253
 30
0.000000
  70
    32
  0
VERTEX
  8
0
  5
A5AA
 10
106.094
 20
72.0308
 30
0.000000
  70
    32
  0
VERTEX
  8
0
  5
A5AB
 10
106.119
 20
72.0364
 30
0.000000
  70
    32
  0
VERTEX
  8
0
  5
A5AC
 10
106.145
 20
72.0419
 30
0.000000
  70
    32
  0
VERTEX
  8
0
  5
A5AD
 10
106.171
 20
72.0475
 30
0.000000
  70
    32
  0
VERTEX
  8
0
  5
A5AE
 10
106.197
 20
72.0531
 30
0.000000
  70
    32
  0
VERTEX
  8
0
  5
A5AF
 10
106.223
 20
72.0586
 30
0.000000
  70
    32
  0
VERTEX
  8
0
  5
A5B0
 10
106.248
 20
72.0643
 30
0.000000
  70
    32
  0
VERTEX
  8
0
  5
A5B1
 10
106.274
 20
72.0699
 30
0.000000
  70
    32
  0
VERTEX
  8
0
  5
A5B2
 10
106.300
 20
72.0755
 30
0.000000
  70
    32
  0
VERTEX
  8
0
  5
A5B3
 10
106.326
 20
72.0812
 30
0.000000
  70
    32
  0
VERTEX
  8
0
  5
A5B4
 10
106.351
 20
72.0868
 30
0.000000
  70
    32
  0
VERTEX
  8
0
  5
A5B5
 10
106.377
 20
72.0925
 30
0.000000
  70
    32
  0
VERTEX
  8
0
  5
A5B6
 10
106.403
 20
72.0982
 30
0.000000
  70
    32
  0
VERTEX
  8
0
  5
A5B7
 10
106.429
 20
72.1039
 30
0.000000
  70
    32
  0
VERTEX
  8
0
  5
A5B8
 10
106.455
 20
72.1096
 30
0.000000
  70
    32
  0
VERTEX
  8
0
  5
A5B9
 10
106.480
 20
72.1154
 30
0.000000
  70
    32
  0
VERTEX
  8
0
  5
A5BA
 10
106.506
 20
72.1211
 30
0.000000
  70
    32
  0
VERTEX
  8
0
  5
A5BB
 10
106.532
 20
72.1269
 30
0.000000
  70
    32
  0
VERTEX
  8
0
  5
A5BC
 10
106.558
 20
72.1327
 30
0.000000
  70
    32
  0
VERTEX
  8
0
  5
A5BD
 10
106.583
 20
72.1385
 30
0.000000
  70
    32
  0
VERTEX
  8
0
  5
A5BE
 10
106.609
 20
72.1443
 30
0.000000
  70
    32
  0
VERTEX
  8
0
  5
A5BF
 10
106.635
 20
72.1502
 30
0.000000
  70
    32
  0
VERTEX
  8
0
  5
A5C0
 10
106.660
 20
72.1560
 30
0.000000
  70
    32
  0
VERTEX
  8
0
  5
A5C1
 10
106.686
 20
72.1619
 30
0.000000
  70
    32
  0
VERTEX
  8
0
  5
A5C2
 10
106.712
 20
72.1677
 30
0.000000
  70
    32
  0
VERTEX
  8
0
  5
A5C3
 10
106.738
 20
72.1736
 30
0.000000
  70
    32
  0
VERTEX
  8
0
  5
A5C4
 10
106.763
 20
72.1795
 30
0.000000
  70
    32
  0
VERTEX
  8
0
  5
A5C5
 10
106.789
 20
72.1855
 30
0.000000
  70
    32
  0
VERTEX
  8
0
  5
A5C6
 10
106.815
 20
72.1914
 30
0.000000
  70
    32
  0
VERTEX
  8
0
  5
A5C7
 10
106.840
 20
72.1973
 30
0.000000
  70
    32
  0
VERTEX
  8
0
  5
A5C8
 10
106.866
 20
72.2033
 30
0.000000
  70
    32
  0
VERTEX
  8
0
  5
A5C9
 10
106.892
 20
72.2093
 30
0.000000
  70
    32
  0
VERTEX
  8
0
  5
A5CA
 10
106.917
 20
72.2153
 30
0.000000
  70
    32
  0
VERTEX
  8
0
  5
A5CB
 10
106.943
 20
72.2213
 30
0.000000
  70
    32
  0
VERTEX
  8
0
  5
A5CC
 10
106.969
 20
72.2273
 30
0.000000
  70
    32
  0
VERTEX
  8
0
  5
A5CD
 10
106.995
 20
72.2334
 30
0.000000
  70
    32
  0
VERTEX
  8
0
  5
A5CE
 10
107.020
 20
72.2394
 30
0.000000
  70
    32
  0
VERTEX
  8
0
  5
A5CF
 10
107.046
 20
72.2455
 30
0.000000
  70
    32
  0
VERTEX
  8
0
  5
A5D0
 10
107.072
 20
72.2516
 30
0.000000
  70
    32
  0
VERTEX
  8
0
  5
A5D1
 10
107.097
 20
72.2577
 30
0.000000
  70
    32
  0
VERTEX
  8
0
  5
A5D2
 10
107.123
 20
72.2638
 30
0.000000
  70
    32
  0
VERTEX
  8
0
  5
A5D3
 10
107.149
 20
72.2699
 30
0.000000
  70
    32
  0
VERTEX
  8
0
  5
A5D4
 10
107.174
 20
72.2761
 30
0.000000
  70
    32
  0
VERTEX
  8
0
  5
A5D5
 10
107.200
 20
72.2822
 30
0.000000
  70
    32
  0
VERTEX
  8
0
  5
A5D6
 10
107.226
 20
72.2884
 30
0.000000
  70
    32
  0
VERTEX
  8
0
  5
A5D7
 10
107.251
 20
72.2946
 30
0.000000
  70
    32
  0
VERTEX
  8
0
  5
A5D8
 10
107.277
 20
72.3008
 30
0.000000
  70
    32
  0
VERTEX
  8
0
  5
A5D9
 10
107.302
 20
72.3070
 30
0.000000
  70
    32
  0
VERTEX
  8
0
  5
A5DA
 10
107.328
 20
72.3133
 30
0.000000
  70
    32
  0
VERTEX
  8
0
  5
A5DB
 10
107.354
 20
72.3195
 30
0.000000
  70
    32
  0
VERTEX
  8
0
  5
A5DC
 10
107.379
 20
72.3258
 30
0.000000
  70
    32
  0
VERTEX
  8
0
  5
A5DD
 10
107.405
 20
72.3321
 30
0.000000
  70
    32
  0
VERTEX
  8
0
  5
A5DE
 10
107.431
 20
72.3384
 30
0.000000
  70
    32
  0
VERTEX
  8
0
  5
A5DF
 10
107.456
 20
72.3447
 30
0.000000
  70
    32
  0
VERTEX
  8
0
  5
A5E0
 10
107.482
 20
72.3510
 30
0.000000
  70
    32
  0
VERTEX
  8
0
  5
A5E1
 10
107.507
 20
72.3574
 30
0.000000
  70
    32
  0
VERTEX
  8
0
  5
A5E2
 10
107.533
 20
72.3637
 30
0.000000
  70
    32
  0
VERTEX
  8
0
  5
A5E3
 10
107.559
 20
72.3701
 30
0.000000
  70
    32
  0
VERTEX
  8
0
  5
A5E4
 10
107.584
 20
72.3765
 30
0.000000
  70
    32
  0
VERTEX
  8
0
  5
A5E5
 10
107.610
 20
72.3829
 30
0.000000
  70
    32
  0
VERTEX
  8
0
  5
A5E6
 10
107.635
 20
72.3893
 30
0.000000
  70
    32
  0
VERTEX
  8
0
  5
A5E7
 10
107.661
 20
72.3957
 30
0.000000
  70
    32
  0
VERTEX
  8
0
  5
A5E8
 10
107.687
 20
72.4022
 30
0.000000
  70
    32
  0
VERTEX
  8
0
  5
A5E9
 10
107.712
 20
72.4086
 30
0.000000
  70
    32
  0
VERTEX
  8
0
  5
A5EA
 10
107.738
 20
72.4151
 30
0.000000
  70
    32
  0
VERTEX
  8
0
  5
A5EB
 10
107.763
 20
72.4216
 30
0.000000
  70
    32
  0
VERTEX
  8
0
  5
A5EC
 10
107.789
 20
72.4281
 30
0.000000
  70
    32
  0
VERTEX
  8
0
  5
A5ED
 10
107.814
 20
72.4346
 30
0.000000
  70
    32
  0
VERTEX
  8
0
  5
A5EE
 10
107.840
 20
72.4412
 30
0.000000
  70
    32
  0
VERTEX
  8
0
  5
A5EF
 10
107.866
 20
72.4477
 30
0.000000
  70
    32
  0
VERTEX
  8
0
  5
A5F0
 10
107.891
 20
72.4543
 30
0.000000
  70
    32
  0
VERTEX
  8
0
  5
A5F1
 10
107.917
 20
72.4608
 30
0.000000
  70
    32
  0
VERTEX
  8
0
  5
A5F2
 10
107.942
 20
72.4674
 30
0.000000
  70
    32
  0
VERTEX
  8
0
  5
A5F3
 10
107.968
 20
72.4741
 30
0.000000
  70
    32
  0
VERTEX
  8
0
  5
A5F4
 10
107.993
 20
72.4807
 30
0.000000
  70
    32
  0
VERTEX
  8
0
  5
A5F5
 10
108.019
 20
72.4873
 30
0.000000
  70
    32
  0
VERTEX
  8
0
  5
A5F6
 10
108.044
 20
72.4940
 30
0.000000
  70
    32
  0
VERTEX
  8
0
  5
A5F7
 10
108.070
 20
72.5006
 30
0.000000
  70
    32
  0
VERTEX
  8
0
  5
A5F8
 10
108.095
 20
72.5073
 30
0.000000
  70
    32
  0
VERTEX
  8
0
  5
A5F9
 10
108.121
 20
72.5140
 30
0.000000
  70
    32
  0
SEQEND
  8
0
  5
A5FA
  0
LINE
  5
9F82
  8
0
 10
90.921527901753223
 20
71.503924265143212
 30
0.0
 11
102.57847215837469
 21
71.503924265143212
 31
0.0
  0
LINE
  5
9F83
  8
0
 10
103.5000000000001
 20
53.0
 30
0.0
 11
103.5000000000001
 21
57.0
 31
0.0
  0
LINE
  5
9F84
  8
0
 10
90.000000000000114
 20
57.0
 30
0.0
 11
90.000000000000114
 21
53.0
 31
0.0
  0
LINE
  5
9F85
  8
0
 10
90.000000000000114
 20
53.0
 30
0.0
 11
103.5000000000001
 21
53.0
 31
0.0
  0
LINE
  5
9FDD
  8
1
 10
50.0
 20
50.0
 30
0.0
 11
50.000000000000028
 21
77.700044426558719
 31
0.0
  0
LINE
  5
9FDE
  8
0
 10
43.25
 20
53.0
 30
0.0
 11
56.75
 21
53.0
 31
0.0
  0
LINE
  5
9FDF
  8
0
 10
56.75
 20
53.0
 30
0.0
 11
56.750000000000028
 21
71.503924265143212
 31
0.0
  0
LINE
  5
9FE0
  8
0
 10
43.250000000000021
 20
71.503924265143212
 30
0.0
 11
43.25
 21
53.0
 31
0.0
  0
LINE
  5
9FE1
  8
0
 10
53.404616424791101
 20
71.503924265143212
 30
0.0
 11
53.404616424791072
 21
57.0
 31
0.0
  0
LINE
  5
9FE2
  8
0
 10
52.215146709437192
 20
57.53408187401849
 30
0.0
 11
52.2215472133378
 21
57.59970502993275
 31
0.0
  0
LINE
  5
9FE3
  8
0
 10
46.595383575208949
 20
71.503924265143212
 30
0.0
 11
46.595383575208928
 21
57.0
 31
0.0
  0
POLYLINE
  5
9FE4
  8
0
 66
     1
 10
0.0
 20
0.0
 30
0.0
  0
VERTEX
  5
A312
  8
0
 10
47.076630864887562
 20
71.519553229120618
 30
0.0
  0
VERTEX
  5
A313
  8
0
 10
47.005191483371703
 20
71.514959486828502
 30
0.0
  0
VERTEX
  5
A314
  8
0
 10
46.796669037973771
 20
71.506375861679913
 30
0.0
  0
VERTEX
  5
A315
  8
0
 10
46.595383575208949
 20
71.503924265143212
 30
0.0
  0
SEQEND
  5
A316
  8
0
  0
POLYLINE
  5
9FE5
  8
0
 66
     1
 10
0.0
 20
0.0
 30
0.0
  0
VERTEX
  5
A317
  8
0
 10
47.784853287154988
 20
57.53411750430913
 30
0.0
  0
VERTEX
  5
A318
  8
0
 10
47.782678403718528
 20
57.498207003331629
 30
0.0
  0
VERTEX
  5
A319
  8
0
 10
47.755566280520441
 20
57.401382466938372
 30
0.0
  0
VERTEX
  5
A31A
  8
0
 10
47.696929345692489
 20
57.311327345542189
 30
0.0
  0
VERTEX
  5
A31B
  8
0
 10
47.605696815004109
 20
57.229166087236422
 30
0.0
  0
VERTEX
  5
A31C
  8
0
 10
47.482499006425307
 20
57.156649600237131
 30
0.0
  0
VERTEX
  5
A31D
  8
0
 10
47.329084155892517
 20
57.096101880542527
 30
0.0
  0
VERTEX
  5
A31E
  8
0
 10
47.158878210624721
 20
57.051918231507379
 30
0.0
  0
VERTEX
  5
A31F
  8
0
 10
46.964399267959656
 20
57.02058344148017
 30
0.0
  0
VERTEX
  5
A320
  8
0
 10
46.749614912706363
 20
57.003311225609671
 30
0.0
  0
VERTEX
  5
A321
  8
0
 10
46.595383575209752
 20
56.999999999999488
 30
0.0
  0
SEQEND
  5
A322
  8
0
  0
POLYLINE
  5
9FE6
  8
0
 66
     1
 10
0.0
 20
0.0
 30
0.0
  0
VERTEX
  5
A323
  8
0
 10
53.404616424791101
 20
71.503924265143212
 30
0.0
  0
VERTEX
  5
A324
  8
0
 10
53.18336542316564
 20
71.506948361615173
 30
0.0
  0
VERTEX
  5
A325
  8
0
 10
52.978981320541571
 20
71.515901578920818
 30
0.0
  0
VERTEX
  5
A326
  8
0
 10
52.92371307171976
 20
71.519528469710224
 30
0.0
  0
SEQEND
  5
A327
  8
0
  0
LINE
  5
9FE7
  8
0
 10
53.404616424791101
 20
71.503924265143212
 30
0.0
 11
56.750000000000028
 21
71.503924265143212
 31
0.0
  0
LINE
  5
9FE8
  8
0
 10
43.250000000000021
 20
71.503924265143212
 30
0.0
 11
46.595383575208949
 21
71.503924265143212
 31
0.0
  0
POLYLINE
  5
9FE9
  8
0
 66
     1
 10
0.0
 20
0.0
 30
0.0
  0
VERTEX
  5
A328
  8
0
 10
52.822825646294348
 20
61.561940859144613
 30
0.0
  0
VERTEX
  5
A329
  8
0
 10
52.750786076438878
 20
60.993675195801728
 30
0.0
  0
VERTEX
  5
A32A
  8
0
 10
52.677893585619977
 20
60.446209856114528
 30
0.0
  0
VERTEX
  5
A32B
  8
0
 10
52.604047875675512
 20
59.918910772446701
 30
0.0
  0
VERTEX
  5
A32C
  8
0
 10
52.529408015401479
 20
59.413039620075942
 30
0.0
  0
VERTEX
  5
A32D
  8
0
 10
52.453594937877249
 20
58.926325185208192
 30
0.0
  0
VERTEX
  5
A32E
  8
0
 10
52.377041600887651
 20
58.461874789519783
 30
0.0
  0
VERTEX
  5
A32F
  8
0
 10
52.29963560914743
 20
58.019234640653167
 30
0.0
  0
VERTEX
  5
A330
  8
0
 10
52.2215472133378
 20
57.59970502993275
 30
0.0
  0
SEQEND
  5
A331
  8
0
  0
POLYLINE
  5
9FEA
  8
0
 66
     1
 10
0.0
 20
0.0
 30
0.0
  0
VERTEX
  5
A332
  8
0
 10
47.778452786662193
 20
57.599705029932778
 30
0.0
  0
VERTEX
  5
A333
  8
0
 10
47.701066303200172
 20
58.015343520103812
 30
0.0
  0
VERTEX
  5
A334
  8
0
 10
47.624349697478401
 20
58.453680991750133
 30
0.0
  0
VERTEX
  5
A335
  8
0
 10
47.548193211790483
 20
58.915169338683199
 30
0.0
  0
VERTEX
  5
A336
  8
0
 10
47.47276832174375
 20
59.398690364777771
 30
0.0
  0
VERTEX
  5
A337
  8
0
 10
47.397699854843999
 20
59.906757186448601
 30
0.0
  0
VERTEX
  5
A338
  8
0
 10
47.323433507615221
 20
60.436493600032492
 30
0.0
  0
VERTEX
  5
A339
  8
0
 10
47.249869857892492
 20
60.988626716682319
 30
0.0
  0
VERTEX
  5
A33A
  8
0
 10
47.177174353705652
 20
61.561940859144613
 30
0.0
  0
SEQEND
  5
A33B
  8
0
  0
LINE
  5
9FEB
  8
0
 10
47.778452786662193
 20
57.59970502993275
 30
0.0
 11
47.784853287154988
 21
57.53411750430913
 31
0.0
  0
LINE
  5
9FEC
  8
0
 10
46.595383575208928
 20
57.0
 30
0.0
 11
53.404616424791072
 21
57.0
 31
0.0
  0
POLYLINE
  5
9FED
  8
0
 66
     1
 10
0.0
 20
0.0
 30
0.0
  0
VERTEX
  5
A33C
  8
0
 10
53.404616424791072
 20
57.0
 30
0.0
  0
VERTEX
  5
A33D
  8
0
 10
53.19470238150285
 20
57.006362108401163
 30
0.0
  0
VERTEX
  5
A33E
  8
0
 10
53.000066155067969
 20
57.025018175606903
 30
0.0
  0
VERTEX
  5
A33F
  8
0
 10
52.8243277428559
 20
57.055322814620581
 30
0.0
  0
VERTEX
  5
A340
  8
0
 10
52.669449036043432
 20
57.096671441896831
 30
0.0
  0
VERTEX
  5
A341
  8
0
 10
52.535687003794919
 20
57.148058695129919
 30
0.0
  0
VERTEX
  5
A342
  8
0
 10
52.424790786707888
 20
57.208088665296913
 30
0.0
  0
VERTEX
  5
A343
  8
0
 10
52.334029837515402
 20
57.279027695550099
 30
0.0
  0
VERTEX
  5
A344
  8
0
 10
52.268653130685948
 20
57.357250606638871
 30
0.0
  0
VERTEX
  5
A345
  8
0
 10
52.229070446733431
 20
57.441122851054793
 30
0.0
  0
VERTEX
  5
A346
  8
0
 10
52.215514698654289
 20
57.518954035219679
 30
0.0
  0
VERTEX
  5
A347
  8
0
 10
52.215146709437192
 20
57.53408187401849
 30
0.0
  0
SEQEND
  5
A348
  8
0
  0
LINE
  5
9FEE
  8
0
 10
47.000000000000021
 20
70.387038053187595
 30
0.0
 11
47.0
 21
63.612961946809072
 31
0.0
  0
LINE
  5
9FEF
  8
0
 10
53.000000000000028
 20
70.387038053166975
 30
0.0
 11
53.0
 21
63.612961946821677
 31
0.0
  0
POLYLINE
  5
9FF0
  8
0
 66
     1
 10
0.0
 20
0.0
 30
0.0
  0
VERTEX
  5
A349
  8
0
 10
47.000000000000732
 20
70.387038053181016
 30
0.0
  0
VERTEX
  5
A34A
  8
0
 10
47.021790003669338
 20
70.785465391954176
 30
0.0
  0
VERTEX
  5
A34B
  8
0
 10
47.046091970495979
 20
71.160267263338341
 30
0.0
  0
VERTEX
  5
A34C
  8
0
 10
47.059367581182691
 20
71.340685770175412
 30
0.0
  0
VERTEX
  5
A34D
  8
0
 10
47.073192251712129
 20
71.513189198452551
 30
0.0
  0
VERTEX
  5
A34E
  8
0
 10
47.087648594551098
 20
71.678638915112884
 30
0.0
  0
VERTEX
  5
A34F
  8
0
 10
47.102609444530252
 20
71.835442728922601
 30
0.0
  0
VERTEX
  5
A350
  8
0
 10
47.132804885181542
 20
72.112555479225193
 30
0.0
  0
VERTEX
  5
A351
  8
0
 10
47.164792119032221
 20
72.356104851155393
 30
0.0
  0
VERTEX
  5
A352
  8
0
 10
47.181673003578453
 20
72.466234117240276
 30
0.0
  0
VERTEX
  5
A353
  8
0
 10
47.198879573665288
 20
72.566455415569123
 30
0.0
  0
VERTEX
  5
A354
  8
0
 10
47.216509491224933
 20
72.657205810513716
 30
0.0
  0
VERTEX
  5
A355
  8
0
 10
47.234405896970479
 20
72.737569583623724
 30
0.0
  0
VERTEX
  5
A356
  8
0
 10
47.26970201391137
 20
72.863156358018244
 30
0.0
  0
VERTEX
  5
A357
  8
0
 10
47.305882599318203
 20
72.948912857216143
 30
0.0
  0
VERTEX
  5
A358
  8
0
 10
47.324530018121521
 20
72.976775016863712
 30
0.0
  0
VERTEX
  5
A359
  8
0
 10
47.343246767117023
 20
72.993805530733397
 30
0.0
  0
VERTEX
  5
A35A
  8
0
 10
47.362135331456273
 20
72.999977535212423
 30
0.0
  0
VERTEX
  5
A35B
  8
0
 10
47.363613204093859
 20
72.999998214295346
 30
0.0
  0
SEQEND
  5
A35C
  8
0
  0
POLYLINE
  5
9FF3
  8
0
 66
     1
 10
0.0
 20
0.0
 30
0.0
  0
VERTEX
  5
A35D
  8
0
 10
47.177174353705652
 20
61.561940859144613
 30
0.0
  0
VERTEX
  5
A35E
  8
0
 10
47.144757694837487
 20
61.79085967647967
 30
0.0
  0
VERTEX
  5
A35F
  8
0
 10
47.113833560930289
 20
62.055719047474611
 30
0.0
  0
VERTEX
  5
A360
  8
0
 10
47.093604041013009
 20
62.257304991481881
 30
0.0
  0
VERTEX
  5
A361
  8
0
 10
47.074228370055373
 20
62.47450679827017
 30
0.0
  0
VERTEX
  5
A362
  8
0
 10
47.055801469597533
 20
62.706278645878513
 30
0.0
  0
VERTEX
  5
A363
  8
0
 10
47.04071232287842
 20
62.917412352010388
 30
0.0
  0
VERTEX
  5
A364
  8
0
 10
47.026399153733273
 20
63.138456815947791
 30
0.0
  0
VERTEX
  5
A365
  8
0
 10
47.012768963312141
 20
63.371211826937859
 30
0.0
  0
VERTEX
  5
A366
  8
0
 10
47.0
 20
63.612961946809072
 30
0.0
  0
SEQEND
  5
A367
  8
0
  0
POLYLINE
  5
9FF5
  8
0
 66
     1
 10
0.0
 20
0.0
 30
0.0
  0
VERTEX
  5
A368
  8
0
 10
53.0
 20
63.612961946821677
 30
0.0
  0
VERTEX
  5
A369
  8
0
 10
52.978125929719909
 20
63.213181255001473
 30
0.0
  0
VERTEX
  5
A36A
  8
0
 10
52.953903948492894
 20
62.839674856892941
 30
0.0
  0
VERTEX
  5
A36B
  8
0
 10
52.936014216597073
 20
62.600075843104349
 30
0.0
  0
VERTEX
  5
A36C
  8
0
 10
52.917142260559359
 20
62.374640992817433
 30
0.0
  0
VERTEX
  5
A36D
  8
0
 10
52.897380645412738
 20
62.164457952113203
 30
0.0
  0
VERTEX
  5
A36E
  8
0
 10
52.879665899685278
 20
61.995917392604412
 30
0.0
  0
VERTEX
  5
A36F
  8
0
 10
52.86136938838623
 20
61.839479106516357
 30
0.0
  0
VERTEX
  5
A370
  8
0
 10
52.842348000732699
 20
61.694179532254509
 30
0.0
  0
VERTEX
  5
A371
  8
0
 10
52.822825646294348
 20
61.561940859144613
 30
0.0
  0
SEQEND
  5
A372
  8
0
  0
LINE
  5
9FF8
  8
0
 10
52.637047612579181
 20
73.000000000000057
 30
0.0
 11
47.362772869364299
 21
73.000000000000057
 31
0.0
  0
POLYLINE
  5
9FF9
  8
0
 66
     1
 10
0.0
 20
0.0
 30
0.0
  0
VERTEX
  5
A373
  8
0
 10
52.636543035705529
 20
72.999999477982158
 30
0.0
  0
VERTEX
  5
A374
  8
0
 10
52.641065960269657
 20
72.999706859522703
 30
0.0
  0
VERTEX
  5
A375
  8
0
 10
52.660063924429863
 20
72.991586219117721
 30
0.0
  0
VERTEX
  5
A376
  8
0
 10
52.679159840303349
 20
72.972128691367772
 30
0.0
  0
VERTEX
  5
A377
  8
0
 10
52.698176611335008
 20
72.941390805786767
 30
0.0
  0
VERTEX
  5
A378
  8
0
 10
52.734361016591713
 20
72.850852912322807
 30
0.0
  0
VERTEX
  5
A379
  8
0
 10
52.770116779187362
 20
72.718351583278832
 30
0.0
  0
VERTEX
  5
A37A
  8
0
 10
52.788042357700022
 20
72.634897250543645
 30
0.0
  0
VERTEX
  5
A37B
  8
0
 10
52.805690207654607
 20
72.540985872724093
 30
0.0
  0
VERTEX
  5
A37C
  8
0
 10
52.823155647614151
 20
72.435956174298454
 30
0.0
  0
VERTEX
  5
A37D
  8
0
 10
52.84027303318976
 20
72.320670028771133
 30
0.0
  0
VERTEX
  5
A37E
  8
0
 10
52.872001090636182
 20
72.071706019650037
 30
0.0
  0
VERTEX
  5
A37F
  8
0
 10
52.902314209884587
 20
71.785369572874231
 30
0.0
  0
VERTEX
  5
A380
  8
0
 10
52.917099987744187
 20
71.625873573023554
 30
0.0
  0
VERTEX
  5
A381
  8
0
 10
52.931373398310711
 20
71.457843456092377
 30
0.0
  0
VERTEX
  5
A382
  8
0
 10
52.945207754915522
 20
71.280231358269916
 30
0.0
  0
VERTEX
  5
A383
  8
0
 10
52.958469031029161
 20
71.094594159747771
 30
0.0
  0
VERTEX
  5
A384
  8
0
 10
52.980153135577751
 20
70.75261353570167
 30
0.0
  0
VERTEX
  5
A385
  8
0
 10
53.000000000000028
 20
70.387038053166975
 30
0.0
  0
SEQEND
  5
A386
  8
0
  0
LINE
  5
9FFF
  8
1
 10
96.750000000000114
 20
95.700044426558705
 30
0.0
 11
96.750000000000114
 21
115.2000444265587
 31
0.0
  0
LINE
  5
A000
  8
1
 10
119.74999999999579
 20
105.4500444265587
 30
0.0
 11
73.750000000014325
 21
105.4500444265587
 31
0.0
  0
CIRCLE
  5
A00F
  8
0
 10
96.750000000000185
 20
105.45004442655861
 30
0.0
 40
0.5
  0
CIRCLE
  5
A010
  8
0
 10
96.750000000000114
 20
105.4500444265587
 30
0.0
 40
5.0
  0
POLYLINE
  5
A011
  8
0
 10
99.750688658309627
 20
105.95004442655861
 30
0.0
 66
     1
 70
     8
  0
VERTEX
  8
0
  5
A5FB
 10
99.7507
 20
105.950
 30
0.000000
  70
    32
  0
VERTEX
  8
0
  5
A5FC
 10
99.7276
 20
105.949
 30
0.000000
  70
    32
  0
VERTEX
  8
0
  5
A5FD
 10
99.7046
 20
105.948
 30
0.000000
  70
    32
  0
VERTEX
  8
0
  5
A5FE
 10
99.6817
 20
105.945
 30
0.000000
  70
    32
  0
VERTEX
  8
0
  5
A5FF
 10
99.6590
 20
105.940
 30
0.000000
  70
    32
  0
VERTEX
  8
0
  5
A600
 10
99.6365
 20
105.935
 30
0.000000
  70
    32
  0
VERTEX
  8
0
  5
A601
 10
99.6143
 20
105.929
 30
0.000000
  70
    32
  0
VERTEX
  8
0
  5
A602
 10
99.5924
 20
105.921
 30
0.000000
  70
    32
  0
VERTEX
  8
0
  5
A603
 10
99.5709
 20
105.912
 30
0.000000
  70
    32
  0
VERTEX
  8
0
  5
A604
 10
99.5498
 20
105.902
 30
0.000000
  70
    32
  0
VERTEX
  8
0
  5
A605
 10
99.5292
 20
105.891
 30
0.000000
  70
    32
  0
VERTEX
  8
0
  5
A606
 10
99.5091
 20
105.879
 30
0.000000
  70
    32
  0
VERTEX
  8
0
  5
A607
 10
99.4897
 20
105.866
 30
0.000000
  70
    32
  0
VERTEX
  8
0
  5
A608
 10
99.4708
 20
105.852
 30
0.000000
  70
    32
  0
VERTEX
  8
0
  5
A609
 10
99.4526
 20
105.837
 30
0.000000
  70
    32
  0
VERTEX
  8
0
  5
A60A
 10
99.4352
 20
105.821
 30
0.000000
  70
    32
  0
VERTEX
  8
0
  5
A60B
 10
99.4185
 20
105.804
 30
0.000000
  70
    32
  0
VERTEX
  8
0
  5
A60C
 10
99.4026
 20
105.786
 30
0.000000
  70
    32
  0
VERTEX
  8
0
  5
A60D
 10
99.3875
 20
105.767
 30
0.000000
  70
    32
  0
VERTEX
  8
0
  5
A60E
 10
99.3733
 20
105.748
 30
0.000000
  70
    32
  0
VERTEX
  8
0
  5
A60F
 10
99.3600
 20
105.728
 30
0.000000
  70
    32
  0
VERTEX
  8
0
  5
A610
 10
99.3477
 20
105.707
 30
0.000000
  70
    32
  0
VERTEX
  8
0
  5
A611
 10
99.3363
 20
105.686
 30
0.000000
  70
    32
  0
VERTEX
  8
0
  5
A612
 10
99.3260
 20
105.664
 30
0.000000
  70
    32
  0
VERTEX
  8
0
  5
A613
 10
99.3166
 20
105.641
 30
0.000000
  70
    32
  0
VERTEX
  8
0
  5
A614
 10
99.3083
 20
105.618
 30
0.000000
  70
    32
  0
VERTEX
  8
0
  5
A615
 10
99.3011
 20
105.595
 30
0.000000
  70
    32
  0
VERTEX
  8
0
  5
A616
 10
99.2949
 20
105.572
 30
0.000000
  70
    32
  0
VERTEX
  8
0
  5
A617
 10
99.2899
 20
105.548
 30
0.000000
  70
    32
  0
VERTEX
  8
0
  5
A618
 10
99.2859
 20
105.523
 30
0.000000
  70
    32
  0
VERTEX
  8
0
  5
A619
 10
99.2831
 20
105.499
 30
0.000000
  70
    32
  0
VERTEX
  8
0
  5
A61A
 10
99.2814
 20
105.475
 30
0.000000
  70
    32
  0
VERTEX
  8
0
  5
A61B
 10
99.2808
 20
105.450
 30
0.000000
  70
    32
  0
VERTEX
  8
0
  5
A61C
 10
99.2814
 20
105.426
 30
0.000000
  70
    32
  0
VERTEX
  8
0
  5
A61D
 10
99.2831
 20
105.401
 30
0.000000
  70
    32
  0
VERTEX
  8
0
  5
A61E
 10
99.2859
 20
105.377
 30
0.000000
  70
    32
  0
VERTEX
  8
0
  5
A61F
 10
99.2899
 20
105.352
 30
0.000000
  70
    32
  0
VERTEX
  8
0
  5
A620
 10
99.2949
 20
105.329
 30
0.000000
  70
    32
  0
VERTEX
  8
0
  5
A621
 10
99.3011
 20
105.305
 30
0.000000
  70
    32
  0
VERTEX
  8
0
  5
A622
 10
99.3083
 20
105.282
 30
0.000000
  70
    32
  0
VERTEX
  8
0
  5
A623
 10
99.3166
 20
105.259
 30
0.000000
  70
    32
  0
VERTEX
  8
0
  5
A624
 10
99.3260
 20
105.236
 30
0.000000
  70
    32
  0
VERTEX
  8
0
  5
A625
 10
99.3363
 20
105.214
 30
0.000000
  70
    32
  0
VERTEX
  8
0
  5
A626
 10
99.3477
 20
105.193
 30
0.000000
  70
    32
  0
VERTEX
  8
0
  5
A627
 10
99.3600
 20
105.172
 30
0.000000
  70
    32
  0
VERTEX
  8
0
  5
A628
 10
99.3733
 20
105.152
 30
0.000000
  70
    32
  0
VERTEX
  8
0
  5
A629
 10
99.3875
 20
105.133
 30
0.000000
  70
    32
  0
VERTEX
  8
0
  5
A62A
 10
99.4026
 20
105.114
 30
0.000000
  70
    32
  0
VERTEX
  8
0
  5
A62B
 10
99.4185
 20
105.096
 30
0.000000
  70
    32
  0
VERTEX
  8
0
  5
A62C
 10
99.4352
 20
105.080
 30
0.000000
  70
    32
  0
VERTEX
  8
0
  5
A62D
 10
99.4526
 20
105.064
 30
0.000000
  70
    32
  0
VERTEX
  8
0
  5
A62E
 10
99.4708
 20
105.048
 30
0.000000
  70
    32
  0
VERTEX
  8
0
  5
A62F
 10
99.4897
 20
105.034
 30
0.000000
  70
    32
  0
VERTEX
  8
0
  5
A630
 10
99.5091
 20
105.021
 30
0.000000
  70
    32
  0
VERTEX
  8
0
  5
A631
 10
99.5292
 20
105.009
 30
0.000000
  70
    32
  0
VERTEX
  8
0
  5
A632
 10
99.5498
 20
104.998
 30
0.000000
  70
    32
  0
VERTEX
  8
0
  5
A633
 10
99.5709
 20
104.988
 30
0.000000
  70
    32
  0
VERTEX
  8
0
  5
A634
 10
99.5924
 20
104.979
 30
0.000000
  70
    32
  0
VERTEX
  8
0
  5
A635
 10
99.6143
 20
104.972
 30
0.000000
  70
    32
  0
VERTEX
  8
0
  5
A636
 10
99.6365
 20
104.965
 30
0.000000
  70
    32
  0
VERTEX
  8
0
  5
A637
 10
99.6590
 20
104.960
 30
0.000000
  70
    32
  0
VERTEX
  8
0
  5
A638
 10
99.6817
 20
104.955
 30
0.000000
  70
    32
  0
VERTEX
  8
0
  5
A639
 10
99.7046
 20
104.952
 30
0.000000
  70
    32
  0
VERTEX
  8
0
  5
A63A
 10
99.7276
 20
104.951
 30
0.000000
  70
    32
  0
VERTEX
  8
0
  5
A63B
 10
99.7507
 20
104.950
 30
0.000000
  70
    32
  0
VERTEX
  8
0
  5
A63C
 10
99.7737
 20
104.951
 30
0.000000
  70
    32
  0
VERTEX
  8
0
  5
A63D
 10
99.7967
 20
104.952
 30
0.000000
  70
    32
  0
VERTEX
  8
0
  5
A63E
 10
99.8196
 20
104.955
 30
0.000000
  70
    32
  0
VERTEX
  8
0
  5
A63F
 10
99.8424
 20
104.960
 30
0.000000
  70
    32
  0
VERTEX
  8
0
  5
A640
 10
99.8649
 20
104.965
 30
0.000000
  70
    32
  0
VERTEX
  8
0
  5
A641
 10
99.8871
 20
104.972
 30
0.000000
  70
    32
  0
VERTEX
  8
0
  5
A642
 10
99.9090
 20
104.979
 30
0.000000
  70
    32
  0
VERTEX
  8
0
  5
A643
 10
99.9305
 20
104.988
 30
0.000000
  70
    32
  0
VERTEX
  8
0
  5
A644
 10
99.9516
 20
104.998
 30
0.000000
  70
    32
  0
VERTEX
  8
0
  5
A645
 10
99.9722
 20
105.009
 30
0.000000
  70
    32
  0
VERTEX
  8
0
  5
A646
 10
99.9922
 20
105.021
 30
0.000000
  70
    32
  0
VERTEX
  8
0
  5
A647
 10
100.012
 20
105.034
 30
0.000000
  70
    32
  0
VERTEX
  8
0
  5
A648
 10
100.031
 20
105.048
 30
0.000000
  70
    32
  0
VERTEX
  8
0
  5
A649
 10
100.049
 20
105.064
 30
0.000000
  70
    32
  0
VERTEX
  8
0
  5
A64A
 10
100.066
 20
105.080
 30
0.000000
  70
    32
  0
VERTEX
  8
0
  5
A64B
 10
100.083
 20
105.096
 30
0.000000
  70
    32
  0
VERTEX
  8
0
  5
A64C
 10
100.099
 20
105.114
 30
0.000000
  70
    32
  0
VERTEX
  8
0
  5
A64D
 10
100.114
 20
105.133
 30
0.000000
  70
    32
  0
VERTEX
  8
0
  5
A64E
 10
100.128
 20
105.152
 30
0.000000
  70
    32
  0
VERTEX
  8
0
  5
A64F
 10
100.141
 20
105.172
 30
0.000000
  70
    32
  0
VERTEX
  8
0
  5
A650
 10
100.154
 20
105.193
 30
0.000000
  70
    32
  0
VERTEX
  8
0
  5
A651
 10
100.165
 20
105.214
 30
0.000000
  70
    32
  0
VERTEX
  8
0
  5
A652
 10
100.175
 20
105.236
 30
0.000000
  70
    32
  0
VERTEX
  8
0
  5
A653
 10
100.185
 20
105.259
 30
0.000000
  70
    32
  0
VERTEX
  8
0
  5
A654
 10
100.193
 20
105.282
 30
0.000000
  70
    32
  0
VERTEX
  8
0
  5
A655
 10
100.200
 20
105.305
 30
0.000000
  70
    32
  0
VERTEX
  8
0
  5
A656
 10
100.206
 20
105.329
 30
0.000000
  70
    32
  0
VERTEX
  8
0
  5
A657
 10
100.212
 20
105.352
 30
0.000000
  70
    32
  0
VERTEX
  8
0
  5
A658
 10
100.215
 20
105.377
 30
0.000000
  70
    32
  0
VERTEX
  8
0
  5
A659
 10
100.218
 20
105.401
 30
0.000000
  70
    32
  0
VERTEX
  8
0
  5
A65A
 10
100.220
 20
105.426
 30
0.000000
  70
    32
  0
VERTEX
  8
0
  5
A65B
 10
100.221
 20
105.450
 30
0.000000
  70
    32
  0
VERTEX
  8
0
  5
A65C
 10
100.220
 20
105.475
 30
0.000000
  70
    32
  0
VERTEX
  8
0
  5
A65D
 10
100.218
 20
105.499
 30
0.000000
  70
    32
  0
VERTEX
  8
0
  5
A65E
 10
100.215
 20
105.523
 30
0.000000
  70
    32
  0
VERTEX
  8
0
  5
A65F
 10
100.212
 20
105.548
 30
0.000000
  70
    32
  0
VERTEX
  8
0
  5
A660
 10
100.206
 20
105.572
 30
0.000000
  70
    32
  0
VERTEX
  8
0
  5
A661
 10
100.200
 20
105.595
 30
0.000000
  70
    32
  0
VERTEX
  8
0
  5
A662
 10
100.193
 20
105.618
 30
0.000000
  70
    32
  0
VERTEX
  8
0
  5
A663
 10
100.185
 20
105.641
 30
0.000000
  70
    32
  0
VERTEX
  8
0
  5
A664
 10
100.175
 20
105.664
 30
0.000000
  70
    32
  0
VERTEX
  8
0
  5
A665
 10
100.165
 20
105.686
 30
0.000000
  70
    32
  0
VERTEX
  8
0
  5
A666
 10
100.154
 20
105.707
 30
0.000000
  70
    32
  0
VERTEX
  8
0
  5
A667
 10
100.141
 20
105.728
 30
0.000000
  70
    32
  0
VERTEX
  8
0
  5
A668
 10
100.128
 20
105.748
 30
0.000000
  70
    32
  0
VERTEX
  8
0
  5
A669
 10
100.114
 20
105.767
 30
0.000000
  70
    32
  0
VERTEX
  8
0
  5
A66A
 10
100.099
 20
105.786
 30
0.000000
  70
    32
  0
VERTEX
  8
0
  5
A66B
 10
100.083
 20
105.804
 30
0.000000
  70
    32
  0
VERTEX
  8
0
  5
A66C
 10
100.066
 20
105.821
 30
0.000000
  70
    32
  0
VERTEX
  8
0
  5
A66D
 10
100.049
 20
105.837
 30
0.000000
  70
    32
  0
VERTEX
  8
0
  5
A66E
 10
100.031
 20
105.852
 30
0.000000
  70
    32
  0
VERTEX
  8
0
  5
A66F
 10
100.012
 20
105.866
 30
0.000000
  70
    32
  0
VERTEX
  8
0
  5
A670
 10
99.9922
 20
105.879
 30
0.000000
  70
    32
  0
VERTEX
  8
0
  5
A671
 10
99.9722
 20
105.891
 30
0.000000
  70
    32
  0
VERTEX
  8
0
  5
A672
 10
99.9516
 20
105.902
 30
0.000000
  70
    32
  0
VERTEX
  8
0
  5
A673
 10
99.9305
 20
105.912
 30
0.000000
  70
    32
  0
VERTEX
  8
0
  5
A674
 10
99.9090
 20
105.921
 30
0.000000
  70
    32
  0
VERTEX
  8
0
  5
A675
 10
99.8871
 20
105.929
 30
0.000000
  70
    32
  0
VERTEX
  8
0
  5
A676
 10
99.8649
 20
105.935
 30
0.000000
  70
    32
  0
VERTEX
  8
0
  5
A677
 10
99.8424
 20
105.940
 30
0.000000
  70
    32
  0
VERTEX
  8
0
  5
A678
 10
99.8196
 20
105.945
 30
0.000000
  70
    32
  0
VERTEX
  8
0
  5
A679
 10
99.7967
 20
105.948
 30
0.000000
  70
    32
  0
VERTEX
  8
0
  5
A67A
 10
99.7737
 20
105.949
 30
0.000000
  70
    32
  0
VERTEX
  8
0
  5
A67B
 10
99.7507
 20
105.950
 30
0.000000
  70
    32
  0
SEQEND
  8
0
  5
A67C
  0
POLYLINE
  5
A012
  8
0
 10
93.749311341690643
 20
105.95004442655861
 30
0.0
 66
     1
 70
     8
  0
VERTEX
  8
0
  5
A67D
 10
93.7493
 20
105.950
 30
0.000000
  70
    32
  0
VERTEX
  8
0
  5
A67E
 10
93.7263
 20
105.949
 30
0.000000
  70
    32
  0
VERTEX
  8
0
  5
A67F
 10
93.7033
 20
105.948
 30
0.000000
  70
    32
  0
VERTEX
  8
0
  5
A680
 10
93.6804
 20
105.945
 30
0.000000
  70
    32
  0
VERTEX
  8
0
  5
A681
 10
93.6576
 20
105.940
 30
0.000000
  70
    32
  0
VERTEX
  8
0
  5
A682
 10
93.6351
 20
105.935
 30
0.000000
  70
    32
  0
VERTEX
  8
0
  5
A683
 10
93.6129
 20
105.929
 30
0.000000
  70
    32
  0
VERTEX
  8
0
  5
A684
 10
93.5910
 20
105.921
 30
0.000000
  70
    32
  0
VERTEX
  8
0
  5
A685
 10
93.5695
 20
105.912
 30
0.000000
  70
    32
  0
VERTEX
  8
0
  5
A686
 10
93.5484
 20
105.902
 30
0.000000
  70
    32
  0
VERTEX
  8
0
  5
A687
 10
93.5278
 20
105.891
 30
0.000000
  70
    32
  0
VERTEX
  8
0
  5
A688
 10
93.5078
 20
105.879
 30
0.000000
  70
    32
  0
VERTEX
  8
0
  5
A689
 10
93.4883
 20
105.866
 30
0.000000
  70
    32
  0
VERTEX
  8
0
  5
A68A
 10
93.4694
 20
105.852
 30
0.000000
  70
    32
  0
VERTEX
  8
0
  5
A68B
 10
93.4512
 20
105.837
 30
0.000000
  70
    32
  0
VERTEX
  8
0
  5
A68C
 10
93.4338
 20
105.821
 30
0.000000
  70
    32
  0
VERTEX
  8
0
  5
A68D
 10
93.4171
 20
105.804
 30
0.000000
  70
    32
  0
VERTEX
  8
0
  5
A68E
 10
93.4012
 20
105.786
 30
0.000000
  70
    32
  0
VERTEX
  8
0
  5
A68F
 10
93.3861
 20
105.767
 30
0.000000
  70
    32
  0
VERTEX
  8
0
  5
A690
 10
93.3719
 20
105.748
 30
0.000000
  70
    32
  0
VERTEX
  8
0
  5
A691
 10
93.3586
 20
105.728
 30
0.000000
  70
    32
  0
VERTEX
  8
0
  5
A692
 10
93.3463
 20
105.707
 30
0.000000
  70
    32
  0
VERTEX
  8
0
  5
A693
 10
93.3349
 20
105.686
 30
0.000000
  70
    32
  0
VERTEX
  8
0
  5
A694
 10
93.3246
 20
105.664
 30
0.000000
  70
    32
  0
VERTEX
  8
0
  5
A695
 10
93.3152
 20
105.641
 30
0.000000
  70
    32
  0
VERTEX
  8
0
  5
A696
 10
93.3069
 20
105.618
 30
0.000000
  70
    32
  0
VERTEX
  8
0
  5
A697
 10
93.2997
 20
105.595
 30
0.000000
  70
    32
  0
VERTEX
  8
0
  5
A698
 10
93.2935
 20
105.572
 30
0.000000
  70
    32
  0
VERTEX
  8
0
  5
A699
 10
93.2885
 20
105.548
 30
0.000000
  70
    32
  0
VERTEX
  8
0
  5
A69A
 10
93.2846
 20
105.523
 30
0.000000
  70
    32
  0
VERTEX
  8
0
  5
A69B
 10
93.2817
 20
105.499
 30
0.000000
  70
    32
  0
VERTEX
  8
0
  5
A69C
 10
93.2800
 20
105.475
 30
0.000000
  70
    32
  0
VERTEX
  8
0
  5
A69D
 10
93.2795
 20
105.450
 30
0.000000
  70
    32
  0
VERTEX
  8
0
  5
A69E
 10
93.2800
 20
105.426
 30
0.000000
  70
    32
  0
VERTEX
  8
0
  5
A69F
 10
93.2817
 20
105.401
 30
0.000000
  70
    32
  0
VERTEX
  8
0
  5
A6A0
 10
93.2846
 20
105.377
 30
0.000000
  70
    32
  0
VERTEX
  8
0
  5
A6A1
 10
93.2885
 20
105.352
 30
0.000000
  70
    32
  0
VERTEX
  8
0
  5
A6A2
 10
93.2935
 20
105.329
 30
0.000000
  70
    32
  0
VERTEX
  8
0
  5
A6A3
 10
93.2997
 20
105.305
 30
0.000000
  70
    32
  0
VERTEX
  8
0
  5
A6A4
 10
93.3069
 20
105.282
 30
0.000000
  70
    32
  0
VERTEX
  8
0
  5
A6A5
 10
93.3152
 20
105.259
 30
0.000000
  70
    32
  0
VERTEX
  8
0
  5
A6A6
 10
93.3246
 20
105.236
 30
0.000000
  70
    32
  0
VERTEX
  8
0
  5
A6A7
 10
93.3349
 20
105.214
 30
0.000000
  70
    32
  0
VERTEX
  8
0
  5
A6A8
 10
93.3463
 20
105.193
 30
0.000000
  70
    32
  0
VERTEX
  8
0
  5
A6A9
 10
93.3586
 20
105.172
 30
0.000000
  70
    32
  0
VERTEX
  8
0
  5
A6AA
 10
93.3719
 20
105.152
 30
0.000000
  70
    32
  0
VERTEX
  8
0
  5
A6AB
 10
93.3861
 20
105.133
 30
0.000000
  70
    32
  0
VERTEX
  8
0
  5
A6AC
 10
93.4012
 20
105.114
 30
0.000000
  70
    32
  0
VERTEX
  8
0
  5
A6AD
 10
93.4171
 20
105.096
 30
0.000000
  70
    32
  0
VERTEX
  8
0
  5
A6AE
 10
93.4338
 20
105.080
 30
0.000000
  70
    32
  0
VERTEX
  8
0
  5
A6AF
 10
93.4512
 20
105.064
 30
0.000000
  70
    32
  0
VERTEX
  8
0
  5
A6B0
 10
93.4694
 20
105.048
 30
0.000000
  70
    32
  0
VERTEX
  8
0
  5
A6B1
 10
93.4883
 20
105.034
 30
0.000000
  70
    32
  0
VERTEX
  8
0
  5
A6B2
 10
93.5078
 20
105.021
 30
0.000000
  70
    32
  0
VERTEX
  8
0
  5
A6B3
 10
93.5278
 20
105.009
 30
0.000000
  70
    32
  0
VERTEX
  8
0
  5
A6B4
 10
93.5484
 20
104.998
 30
0.000000
  70
    32
  0
VERTEX
  8
0
  5
A6B5
 10
93.5695
 20
104.988
 30
0.000000
  70
    32
  0
VERTEX
  8
0
  5
A6B6
 10
93.5910
 20
104.979
 30
0.000000
  70
    32
  0
VERTEX
  8
0
  5
A6B7
 10
93.6129
 20
104.972
 30
0.000000
  70
    32
  0
VERTEX
  8
0
  5
A6B8
 10
93.6351
 20
104.965
 30
0.000000
  70
    32
  0
VERTEX
  8
0
  5
A6B9
 10
93.6576
 20
104.960
 30
0.000000
  70
    32
  0
VERTEX
  8
0
  5
A6BA
 10
93.6804
 20
104.955
 30
0.000000
  70
    32
  0
VERTEX
  8
0
  5
A6BB
 10
93.7033
 20
104.952
 30
0.000000
  70
    32
  0
VERTEX
  8
0
  5
A6BC
 10
93.7263
 20
104.951
 30
0.000000
  70
    32
  0
VERTEX
  8
0
  5
A6BD
 10
93.7493
 20
104.950
 30
0.000000
  70
    32
  0
VERTEX
  8
0
  5
A6BE
 10
93.7724
 20
104.951
 30
0.000000
  70
    32
  0
VERTEX
  8
0
  5
A6BF
 10
93.7954
 20
104.952
 30
0.000000
  70
    32
  0
VERTEX
  8
0
  5
A6C0
 10
93.8183
 20
104.955
 30
0.000000
  70
    32
  0
VERTEX
  8
0
  5
A6C1
 10
93.8410
 20
104.960
 30
0.000000
  70
    32
  0
VERTEX
  8
0
  5
A6C2
 10
93.8635
 20
104.965
 30
0.000000
  70
    32
  0
VERTEX
  8
0
  5
A6C3
 10
93.8857
 20
104.972
 30
0.000000
  70
    32
  0
VERTEX
  8
0
  5
A6C4
 10
93.9076
 20
104.979
 30
0.000000
  70
    32
  0
VERTEX
  8
0
  5
A6C5
 10
93.9291
 20
104.988
 30
0.000000
  70
    32
  0
VERTEX
  8
0
  5
A6C6
 10
93.9502
 20
104.998
 30
0.000000
  70
    32
  0
VERTEX
  8
0
  5
A6C7
 10
93.9708
 20
105.009
 30
0.000000
  70
    32
  0
VERTEX
  8
0
  5
A6C8
 10
93.9909
 20
105.021
 30
0.000000
  70
    32
  0
VERTEX
  8
0
  5
A6C9
 10
94.0103
 20
105.034
 30
0.000000
  70
    32
  0
VERTEX
  8
0
  5
A6CA
 10
94.0292
 20
105.048
 30
0.000000
  70
    32
  0
VERTEX
  8
0
  5
A6CB
 10
94.0474
 20
105.064
 30
0.000000
  70
    32
  0
VERTEX
  8
0
  5
A6CC
 10
94.0648
 20
105.080
 30
0.000000
  70
    32
  0
VERTEX
  8
0
  5
A6CD
 10
94.0815
 20
105.096
 30
0.000000
  70
    32
  0
VERTEX
  8
0
  5
A6CE
 10
94.0974
 20
105.114
 30
0.000000
  70
    32
  0
VERTEX
  8
0
  5
A6CF
 10
94.1125
 20
105.133
 30
0.000000
  70
    32
  0
VERTEX
  8
0
  5
A6D0
 10
94.1267
 20
105.152
 30
0.000000
  70
    32
  0
VERTEX
  8
0
  5
A6D1
 10
94.1400
 20
105.172
 30
0.000000
  70
    32
  0
VERTEX
  8
0
  5
A6D2
 10
94.1523
 20
105.193
 30
0.000000
  70
    32
  0
VERTEX
  8
0
  5
A6D3
 10
94.1637
 20
105.214
 30
0.000000
  70
    32
  0
VERTEX
  8
0
  5
A6D4
 10
94.1740
 20
105.236
 30
0.000000
  70
    32
  0
VERTEX
  8
0
  5
A6D5
 10
94.1834
 20
105.259
 30
0.000000
  70
    32
  0
VERTEX
  8
0
  5
A6D6
 10
94.1917
 20
105.282
 30
0.000000
  70
    32
  0
VERTEX
  8
0
  5
A6D7
 10
94.1989
 20
105.305
 30
0.000000
  70
    32
  0
VERTEX
  8
0
  5
A6D8
 10
94.2051
 20
105.329
 30
0.000000
  70
    32
  0
VERTEX
  8
0
  5
A6D9
 10
94.2101
 20
105.352
 30
0.000000
  70
    32
  0
VERTEX
  8
0
  5
A6DA
 10
94.2141
 20
105.377
 30
0.000000
  70
    32
  0
VERTEX
  8
0
  5
A6DB
 10
94.2169
 20
105.401
 30
0.000000
  70
    32
  0
VERTEX
  8
0
  5
A6DC
 10
94.2186
 20
105.426
 30
0.000000
  70
    32
  0
VERTEX
  8
0
  5
A6DD
 10
94.2192
 20
105.450
 30
0.000000
  70
    32
  0
VERTEX
  8
0
  5
A6DE
 10
94.2186
 20
105.475
 30
0.000000
  70
    32
  0
VERTEX
  8
0
  5
A6DF
 10
94.2169
 20
105.499
 30
0.000000
  70
    32
  0
VERTEX
  8
0
  5
A6E0
 10
94.2141
 20
105.523
 30
0.000000
  70
    32
  0
VERTEX
  8
0
  5
A6E1
 10
94.2101
 20
105.548
 30
0.000000
  70
    32
  0
VERTEX
  8
0
  5
A6E2
 10
94.2051
 20
105.572
 30
0.000000
  70
    32
  0
VERTEX
  8
0
  5
A6E3
 10
94.1989
 20
105.595
 30
0.000000
  70
    32
  0
VERTEX
  8
0
  5
A6E4
 10
94.1917
 20
105.618
 30
0.000000
  70
    32
  0
VERTEX
  8
0
  5
A6E5
 10
94.1834
 20
105.641
 30
0.000000
  70
    32
  0
VERTEX
  8
0
  5
A6E6
 10
94.1740
 20
105.664
 30
0.000000
  70
    32
  0
VERTEX
  8
0
  5
A6E7
 10
94.1637
 20
105.686
 30
0.000000
  70
    32
  0
VERTEX
  8
0
  5
A6E8
 10
94.1523
 20
105.707
 30
0.000000
  70
    32
  0
VERTEX
  8
0
  5
A6E9
 10
94.1400
 20
105.728
 30
0.000000
  70
    32
  0
VERTEX
  8
0
  5
A6EA
 10
94.1267
 20
105.748
 30
0.000000
  70
    32
  0
VERTEX
  8
0
  5
A6EB
 10
94.1125
 20
105.767
 30
0.000000
  70
    32
  0
VERTEX
  8
0
  5
A6EC
 10
94.0974
 20
105.786
 30
0.000000
  70
    32
  0
VERTEX
  8
0
  5
A6ED
 10
94.0815
 20
105.804
 30
0.000000
  70
    32
  0
VERTEX
  8
0
  5
A6EE
 10
94.0648
 20
105.821
 30
0.000000
  70
    32
  0
VERTEX
  8
0
  5
A6EF
 10
94.0474
 20
105.837
 30
0.000000
  70
    32
  0
VERTEX
  8
0
  5
A6F0
 10
94.0292
 20
105.852
 30
0.000000
  70
    32
  0
VERTEX
  8
0
  5
A6F1
 10
94.0103
 20
105.866
 30
0.000000
  70
    32
  0
VERTEX
  8
0
  5
A6F2
 10
93.9909
 20
105.879
 30
0.000000
  70
    32
  0
VERTEX
  8
0
  5
A6F3
 10
93.9708
 20
105.891
 30
0.000000
  70
    32
  0
VERTEX
  8
0
  5
A6F4
 10
93.9502
 20
105.902
 30
0.000000
  70
    32
  0
VERTEX
  8
0
  5
A6F5
 10
93.9291
 20
105.912
 30
0.000000
  70
    32
  0
VERTEX
  8
0
  5
A6F6
 10
93.9076
 20
105.921
 30
0.000000
  70
    32
  0
VERTEX
  8
0
  5
A6F7
 10
93.8857
 20
105.929
 30
0.000000
  70
    32
  0
VERTEX
  8
0
  5
A6F8
 10
93.8635
 20
105.935
 30
0.000000
  70
    32
  0
VERTEX
  8
0
  5
A6F9
 10
93.8410
 20
105.940
 30
0.000000
  70
    32
  0
VERTEX
  8
0
  5
A6FA
 10
93.8183
 20
105.945
 30
0.000000
  70
    32
  0
VERTEX
  8
0
  5
A6FB
 10
93.7954
 20
105.948
 30
0.000000
  70
    32
  0
VERTEX
  8
0
  5
A6FC
 10
93.7724
 20
105.949
 30
0.000000
  70
    32
  0
VERTEX
  8
0
  5
A6FD
 10
93.7493
 20
105.950
 30
0.000000
  70
    32
  0
SEQEND
  8
0
  5
A6FE
  0
POLYLINE
  5
A013
  8
0
 10
98.294807589946757
 20
105.95004442655861
 30
0.0
 66
     1
 70
     8
  0
VERTEX
  8
0
  5
A6FF
 10
98.2948
 20
105.950
 30
0.000000
  70
    32
  0
VERTEX
  8
0
  5
A700
 10
98.2705
 20
105.949
 30
0.000000
  70
    32
  0
VERTEX
  8
0
  5
A701
 10
98.2463
 20
105.948
 30
0.000000
  70
    32
  0
VERTEX
  8
0
  5
A702
 10
98.2222
 20
105.945
 30
0.000000
  70
    32
  0
VERTEX
  8
0
  5
A703
 10
98.1982
 20
105.940
 30
0.000000
  70
    32
  0
VERTEX
  8
0
  5
A704
 10
98.1745
 20
105.935
 30
0.000000
  70
    32
  0
VERTEX
  8
0
  5
A705
 10
98.1511
 20
105.929
 30
0.000000
  70
    32
  0
VERTEX
  8
0
  5
A706
 10
98.1280
 20
105.921
 30
0.000000
  70
    32
  0
VERTEX
  8
0
  5
A707
 10
98.1053
 20
105.912
 30
0.000000
  70
    32
  0
VERTEX
  8
0
  5
A708
 10
98.0831
 20
105.902
 30
0.000000
  70
    32
  0
VERTEX
  8
0
  5
A709
 10
98.0614
 20
105.891
 30
0.000000
  70
    32
  0
VERTEX
  8
0
  5
A70A
 10
98.0403
 20
105.879
 30
0.000000
  70
    32
  0
VERTEX
  8
0
  5
A70B
 10
98.0197
 20
105.866
 30
0.000000
  70
    32
  0
VERTEX
  8
0
  5
A70C
 10
97.9999
 20
105.852
 30
0.000000
  70
    32
  0
VERTEX
  8
0
  5
A70D
 10
97.9807
 20
105.837
 30
0.000000
  70
    32
  0
VERTEX
  8
0
  5
A70E
 10
97.9623
 20
105.821
 30
0.000000
  70
    32
  0
VERTEX
  8
0
  5
A70F
 10
97.9447
 20
105.804
 30
0.000000
  70
    32
  0
VERTEX
  8
0
  5
A710
 10
97.9279
 20
105.786
 30
0.000000
  70
    32
  0
VERTEX
  8
0
  5
A711
 10
97.9121
 20
105.767
 30
0.000000
  70
    32
  0
VERTEX
  8
0
  5
A712
 10
97.8971
 20
105.748
 30
0.000000
  70
    32
  0
VERTEX
  8
0
  5
A713
 10
97.8831
 20
105.728
 30
0.000000
  70
    32
  0
VERTEX
  8
0
  5
A714
 10
97.8701
 20
105.707
 30
0.000000
  70
    32
  0
VERTEX
  8
0
  5
A715
 10
97.8581
 20
105.686
 30
0.000000
  70
    32
  0
VERTEX
  8
0
  5
A716
 10
97.8472
 20
105.664
 30
0.000000
  70
    32
  0
VERTEX
  8
0
  5
A717
 10
97.8374
 20
105.641
 30
0.000000
  70
    32
  0
VERTEX
  8
0
  5
A718
 10
97.8286
 20
105.618
 30
0.000000
  70
    32
  0
VERTEX
  8
0
  5
A719
 10
97.8210
 20
105.595
 30
0.000000
  70
    32
  0
VERTEX
  8
0
  5
A71A
 10
97.8145
 20
105.572
 30
0.000000
  70
    32
  0
VERTEX
  8
0
  5
A71B
 10
97.8092
 20
105.548
 30
0.000000
  70
    32
  0
VERTEX
  8
0
  5
A71C
 10
97.8050
 20
105.523
 30
0.000000
  70
    32
  0
VERTEX
  8
0
  5
A71D
 10
97.8021
 20
105.499
 30
0.000000
  70
    32
  0
VERTEX
  8
0
  5
A71E
 10
97.8003
 20
105.475
 30
0.000000
  70
    32
  0
VERTEX
  8
0
  5
A71F
 10
97.7997
 20
105.450
 30
0.000000
  70
    32
  0
VERTEX
  8
0
  5
A720
 10
97.8003
 20
105.426
 30
0.000000
  70
    32
  0
VERTEX
  8
0
  5
A721
 10
97.8021
 20
105.401
 30
0.000000
  70
    32
  0
VERTEX
  8
0
  5
A722
 10
97.8050
 20
105.377
 30
0.000000
  70
    32
  0
VERTEX
  8
0
  5
A723
 10
97.8092
 20
105.352
 30
0.000000
  70
    32
  0
VERTEX
  8
0
  5
A724
 10
97.8145
 20
105.329
 30
0.000000
  70
    32
  0
VERTEX
  8
0
  5
A725
 10
97.8210
 20
105.305
 30
0.000000
  70
    32
  0
VERTEX
  8
0
  5
A726
 10
97.8286
 20
105.282
 30
0.000000
  70
    32
  0
VERTEX
  8
0
  5
A727
 10
97.8374
 20
105.259
 30
0.000000
  70
    32
  0
VERTEX
  8
0
  5
A728
 10
97.8472
 20
105.236
 30
0.000000
  70
    32
  0
VERTEX
  8
0
  5
A729
 10
97.8581
 20
105.214
 30
0.000000
  70
    32
  0
VERTEX
  8
0
  5
A72A
 10
97.8701
 20
105.193
 30
0.000000
  70
    32
  0
VERTEX
  8
0
  5
A72B
 10
97.8831
 20
105.172
 30
0.000000
  70
    32
  0
VERTEX
  8
0
  5
A72C
 10
97.8971
 20
105.152
 30
0.000000
  70
    32
  0
VERTEX
  8
0
  5
A72D
 10
97.9121
 20
105.133
 30
0.000000
  70
    32
  0
VERTEX
  8
0
  5
A72E
 10
97.9279
 20
105.114
 30
0.000000
  70
    32
  0
VERTEX
  8
0
  5
A72F
 10
97.9447
 20
105.096
 30
0.000000
  70
    32
  0
VERTEX
  8
0
  5
A730
 10
97.9623
 20
105.080
 30
0.000000
  70
    32
  0
VERTEX
  8
0
  5
A731
 10
97.9807
 20
105.064
 30
0.000000
  70
    32
  0
VERTEX
  8
0
  5
A732
 10
97.9999
 20
105.048
 30
0.000000
  70
    32
  0
VERTEX
  8
0
  5
A733
 10
98.0197
 20
105.034
 30
0.000000
  70
    32
  0
VERTEX
  8
0
  5
A734
 10
98.0403
 20
105.021
 30
0.000000
  70
    32
  0
VERTEX
  8
0
  5
A735
 10
98.0614
 20
105.009
 30
0.000000
  70
    32
  0
VERTEX
  8
0
  5
A736
 10
98.0831
 20
104.998
 30
0.000000
  70
    32
  0
VERTEX
  8
0
  5
A737
 10
98.1053
 20
104.988
 30
0.000000
  70
    32
  0
VERTEX
  8
0
  5
A738
 10
98.1280
 20
104.979
 30
0.000000
  70
    32
  0
VERTEX
  8
0
  5
A739
 10
98.1511
 20
104.972
 30
0.000000
  70
    32
  0
VERTEX
  8
0
  5
A73A
 10
98.1745
 20
104.965
 30
0.000000
  70
    32
  0
VERTEX
  8
0
  5
A73B
 10
98.1982
 20
104.960
 30
0.000000
  70
    32
  0
VERTEX
  8
0
  5
A73C
 10
98.2222
 20
104.955
 30
0.000000
  70
    32
  0
VERTEX
  8
0
  5
A73D
 10
98.2463
 20
104.952
 30
0.000000
  70
    32
  0
VERTEX
  8
0
  5
A73E
 10
98.2705
 20
104.951
 30
0.000000
  70
    32
  0
VERTEX
  8
0
  5
A73F
 10
98.2948
 20
104.950
 30
0.000000
  70
    32
  0
VERTEX
  8
0
  5
A740
 10
98.3191
 20
104.951
 30
0.000000
  70
    32
  0
VERTEX
  8
0
  5
A741
 10
98.3433
 20
104.952
 30
0.000000
  70
    32
  0
VERTEX
  8
0
  5
A742
 10
98.3675
 20
104.955
 30
0.000000
  70
    32
  0
VERTEX
  8
0
  5
A743
 10
98.3914
 20
104.960
 30
0.000000
  70
    32
  0
VERTEX
  8
0
  5
A744
 10
98.4151
 20
104.965
 30
0.000000
  70
    32
  0
VERTEX
  8
0
  5
A745
 10
98.4385
 20
104.972
 30
0.000000
  70
    32
  0
VERTEX
  8
0
  5
A746
 10
98.4616
 20
104.979
 30
0.000000
  70
    32
  0
VERTEX
  8
0
  5
A747
 10
98.4843
 20
104.988
 30
0.000000
  70
    32
  0
VERTEX
  8
0
  5
A748
 10
98.5065
 20
104.998
 30
0.000000
  70
    32
  0
VERTEX
  8
0
  5
A749
 10
98.5282
 20
105.009
 30
0.000000
  70
    32
  0
VERTEX
  8
0
  5
A74A
 10
98.5494
 20
105.021
 30
0.000000
  70
    32
  0
VERTEX
  8
0
  5
A74B
 10
98.5699
 20
105.034
 30
0.000000
  70
    32
  0
VERTEX
  8
0
  5
A74C
 10
98.5898
 20
105.048
 30
0.000000
  70
    32
  0
VERTEX
  8
0
  5
A74D
 10
98.6089
 20
105.064
 30
0.000000
  70
    32
  0
VERTEX
  8
0
  5
A74E
 10
98.6273
 20
105.080
 30
0.000000
  70
    32
  0
VERTEX
  8
0
  5
A74F
 10
98.6449
 20
105.096
 30
0.000000
  70
    32
  0
VERTEX
  8
0
  5
A750
 10
98.6617
 20
105.114
 30
0.000000
  70
    32
  0
VERTEX
  8
0
  5
A751
 10
98.6776
 20
105.133
 30
0.000000
  70
    32
  0
VERTEX
  8
0
  5
A752
 10
98.6925
 20
105.152
 30
0.000000
  70
    32
  0
VERTEX
  8
0
  5
A753
 10
98.7065
 20
105.172
 30
0.000000
  70
    32
  0
VERTEX
  8
0
  5
A754
 10
98.7195
 20
105.193
 30
0.000000
  70
    32
  0
VERTEX
  8
0
  5
A755
 10
98.7315
 20
105.214
 30
0.000000
  70
    32
  0
VERTEX
  8
0
  5
A756
 10
98.7424
 20
105.236
 30
0.000000
  70
    32
  0
VERTEX
  8
0
  5
A757
 10
98.7523
 20
105.259
 30
0.000000
  70
    32
  0
VERTEX
  8
0
  5
A758
 10
98.7610
 20
105.282
 30
0.000000
  70
    32
  0
VERTEX
  8
0
  5
A759
 10
98.7686
 20
105.305
 30
0.000000
  70
    32
  0
VERTEX
  8
0
  5
A75A
 10
98.7751
 20
105.329
 30
0.000000
  70
    32
  0
VERTEX
  8
0
  5
A75B
 10
98.7804
 20
105.352
 30
0.000000
  70
    32
  0
VERTEX
  8
0
  5
A75C
 10
98.7846
 20
105.377
 30
0.000000
  70
    32
  0
VERTEX
  8
0
  5
A75D
 10
98.7876
 20
105.401
 30
0.000000
  70
    32
  0
VERTEX
  8
0
  5
A75E
 10
98.7893
 20
105.426
 30
0.000000
  70
    32
  0
VERTEX
  8
0
  5
A75F
 10
98.7899
 20
105.450
 30
0.000000
  70
    32
  0
VERTEX
  8
0
  5
A760
 10
98.7893
 20
105.475
 30
0.000000
  70
    32
  0
VERTEX
  8
0
  5
A761
 10
98.7876
 20
105.499
 30
0.000000
  70
    32
  0
VERTEX
  8
0
  5
A762
 10
98.7846
 20
105.523
 30
0.000000
  70
    32
  0
VERTEX
  8
0
  5
A763
 10
98.7804
 20
105.548
 30
0.000000
  70
    32
  0
VERTEX
  8
0
  5
A764
 10
98.7751
 20
105.572
 30
0.000000
  70
    32
  0
VERTEX
  8
0
  5
A765
 10
98.7686
 20
105.595
 30
0.000000
  70
    32
  0
VERTEX
  8
0
  5
A766
 10
98.7610
 20
105.618
 30
0.000000
  70
    32
  0
VERTEX
  8
0
  5
A767
 10
98.7523
 20
105.641
 30
0.000000
  70
    32
  0
VERTEX
  8
0
  5
A768
 10
98.7424
 20
105.664
 30
0.000000
  70
    32
  0
VERTEX
  8
0
  5
A769
 10
98.7315
 20
105.686
 30
0.000000
  70
    32
  0
VERTEX
  8
0
  5
A76A
 10
98.7195
 20
105.707
 30
0.000000
  70
    32
  0
VERTEX
  8
0
  5
A76B
 10
98.7065
 20
105.728
 30
0.000000
  70
    32
  0
VERTEX
  8
0
  5
A76C
 10
98.6925
 20
105.748
 30
0.000000
  70
    32
  0
VERTEX
  8
0
  5
A76D
 10
98.6776
 20
105.767
 30
0.000000
  70
    32
  0
VERTEX
  8
0
  5
A76E
 10
98.6617
 20
105.786
 30
0.000000
  70
    32
  0
VERTEX
  8
0
  5
A76F
 10
98.6449
 20
105.804
 30
0.000000
  70
    32
  0
VERTEX
  8
0
  5
A770
 10
98.6273
 20
105.821
 30
0.000000
  70
    32
  0
VERTEX
  8
0
  5
A771
 10
98.6089
 20
105.837
 30
0.000000
  70
    32
  0
VERTEX
  8
0
  5
A772
 10
98.5898
 20
105.852
 30
0.000000
  70
    32
  0
VERTEX
  8
0
  5
A773
 10
98.5699
 20
105.866
 30
0.000000
  70
    32
  0
VERTEX
  8
0
  5
A774
 10
98.5494
 20
105.879
 30
0.000000
  70
    32
  0
VERTEX
  8
0
  5
A775
 10
98.5282
 20
105.891
 30
0.000000
  70
    32
  0
VERTEX
  8
0
  5
A776
 10
98.5065
 20
105.902
 30
0.000000
  70
    32
  0
VERTEX
  8
0
  5
A777
 10
98.4843
 20
105.912
 30
0.000000
  70
    32
  0
VERTEX
  8
0
  5
A778
 10
98.4616
 20
105.921
 30
0.000000
  70
    32
  0
VERTEX
  8
0
  5
A779
 10
98.4385
 20
105.929
 30
0.000000
  70
    32
  0
VERTEX
  8
0
  5
A77A
 10
98.4151
 20
105.935
 30
0.000000
  70
    32
  0
VERTEX
  8
0
  5
A77B
 10
98.3914
 20
105.940
 30
0.000000
  70
    32
  0
VERTEX
  8
0
  5
A77C
 10
98.3675
 20
105.945
 30
0.000000
  70
    32
  0
VERTEX
  8
0
  5
A77D
 10
98.3433
 20
105.948
 30
0.000000
  70
    32
  0
VERTEX
  8
0
  5
A77E
 10
98.3191
 20
105.949
 30
0.000000
  70
    32
  0
VERTEX
  8
0
  5
A77F
 10
98.2948
 20
105.950
 30
0.000000
  70
    32
  0
SEQEND
  8
0
  5
A780
  0
POLYLINE
  5
A014
  8
0
 10
95.205192410053584
 20
105.95004442655861
 30
0.0
 66
     1
 70
     8
  0
VERTEX
  8
0
  5
A781
 10
95.2052
 20
105.950
 30
0.000000
  70
    32
  0
VERTEX
  8
0
  5
A782
 10
95.1809
 20
105.949
 30
0.000000
  70
    32
  0
VERTEX
  8
0
  5
A783
 10
95.1567
 20
105.948
 30
0.000000
  70
    32
  0
VERTEX
  8
0
  5
A784
 10
95.1325
 20
105.945
 30
0.000000
  70
    32
  0
VERTEX
  8
0
  5
A785
 10
95.1086
 20
105.940
 30
0.000000
  70
    32
  0
VERTEX
  8
0
  5
A786
 10
95.0849
 20
105.935
 30
0.000000
  70
    32
  0
VERTEX
  8
0
  5
A787
 10
95.0615
 20
105.929
 30
0.000000
  70
    32
  0
VERTEX
  8
0
  5
A788
 10
95.0384
 20
105.921
 30
0.000000
  70
    32
  0
VERTEX
  8
0
  5
A789
 10
95.0157
 20
105.912
 30
0.000000
  70
    32
  0
VERTEX
  8
0
  5
A78A
 10
94.9935
 20
105.902
 30
0.000000
  70
    32
  0
VERTEX
  8
0
  5
A78B
 10
94.9718
 20
105.891
 30
0.000000
  70
    32
  0
VERTEX
  8
0
  5
A78C
 10
94.9506
 20
105.879
 30
0.000000
  70
    32
  0
VERTEX
  8
0
  5
A78D
 10
94.9301
 20
105.866
 30
0.000000
  70
    32
  0
VERTEX
  8
0
  5
A78E
 10
94.9102
 20
105.852
 30
0.000000
  70
    32
  0
VERTEX
  8
0
  5
A78F
 10
94.8911
 20
105.837
 30
0.000000
  70
    32
  0
VERTEX
  8
0
  5
A790
 10
94.8727
 20
105.821
 30
0.000000
  70
    32
  0
VERTEX
  8
0
  5
A791
 10
94.8551
 20
105.804
 30
0.000000
  70
    32
  0
VERTEX
  8
0
  5
A792
 10
94.8383
 20
105.786
 30
0.000000
  70
    32
  0
VERTEX
  8
0
  5
A793
 10
94.8224
 20
105.767
 30
0.000000
  70
    32
  0
VERTEX
  8
0
  5
A794
 10
94.8075
 20
105.748
 30
0.000000
  70
    32
  0
VERTEX
  8
0
  5
A795
 10
94.7935
 20
105.728
 30
0.000000
  70
    32
  0
VERTEX
  8
0
  5
A796
 10
94.7805
 20
105.707
 30
0.000000
  70
    32
  0
VERTEX
  8
0
  5
A797
 10
94.7685
 20
105.686
 30
0.000000
  70
    32
  0
VERTEX
  8
0
  5
A798
 10
94.7576
 20
105.664
 30
0.000000
  70
    32
  0
VERTEX
  8
0
  5
A799
 10
94.7477
 20
105.641
 30
0.000000
  70
    32
  0
VERTEX
  8
0
  5
A79A
 10
94.7390
 20
105.618
 30
0.000000
  70
    32
  0
VERTEX
  8
0
  5
A79B
 10
94.7314
 20
105.595
 30
0.000000
  70
    32
  0
VERTEX
  8
0
  5
A79C
 10
94.7249
 20
105.572
 30
0.000000
  70
    32
  0
VERTEX
  8
0
  5
A79D
 10
94.7196
 20
105.548
 30
0.000000
  70
    32
  0
VERTEX
  8
0
  5
A79E
 10
94.7154
 20
105.523
 30
0.000000
  70
    32
  0
VERTEX
  8
0
  5
A79F
 10
94.7124
 20
105.499
 30
0.000000
  70
    32
  0
VERTEX
  8
0
  5
A7A0
 10
94.7107
 20
105.475
 30
0.000000
  70
    32
  0
VERTEX
  8
0
  5
A7A1
 10
94.7101
 20
105.450
 30
0.000000
  70
    32
  0
VERTEX
  8
0
  5
A7A2
 10
94.7107
 20
105.426
 30
0.000000
  70
    32
  0
VERTEX
  8
0
  5
A7A3
 10
94.7124
 20
105.401
 30
0.000000
  70
    32
  0
VERTEX
  8
0
  5
A7A4
 10
94.7154
 20
105.377
 30
0.000000
  70
    32
  0
VERTEX
  8
0
  5
A7A5
 10
94.7196
 20
105.352
 30
0.000000
  70
    32
  0
VERTEX
  8
0
  5
A7A6
 10
94.7249
 20
105.329
 30
0.000000
  70
    32
  0
VERTEX
  8
0
  5
A7A7
 10
94.7314
 20
105.305
 30
0.000000
  70
    32
  0
VERTEX
  8
0
  5
A7A8
 10
94.7390
 20
105.282
 30
0.000000
  70
    32
  0
VERTEX
  8
0
  5
A7A9
 10
94.7477
 20
105.259
 30
0.000000
  70
    32
  0
VERTEX
  8
0
  5
A7AA
 10
94.7576
 20
105.236
 30
0.000000
  70
    32
  0
VERTEX
  8
0
  5
A7AB
 10
94.7685
 20
105.214
 30
0.000000
  70
    32
  0
VERTEX
  8
0
  5
A7AC
 10
94.7805
 20
105.193
 30
0.000000
  70
    32
  0
VERTEX
  8
0
  5
A7AD
 10
94.7935
 20
105.172
 30
0.000000
  70
    32
  0
VERTEX
  8
0
  5
A7AE
 10
94.8075
 20
105.152
 30
0.000000
  70
    32
  0
VERTEX
  8
0
  5
A7AF
 10
94.8224
 20
105.133
 30
0.000000
  70
    32
  0
VERTEX
  8
0
  5
A7B0
 10
94.8383
 20
105.114
 30
0.000000
  70
    32
  0
VERTEX
  8
0
  5
A7B1
 10
94.8551
 20
105.096
 30
0.000000
  70
    32
  0
VERTEX
  8
0
  5
A7B2
 10
94.8727
 20
105.080
 30
0.000000
  70
    32
  0
VERTEX
  8
0
  5
A7B3
 10
94.8911
 20
105.064
 30
0.000000
  70
    32
  0
VERTEX
  8
0
  5
A7B4
 10
94.9102
 20
105.048
 30
0.000000
  70
    32
  0
VERTEX
  8
0
  5
A7B5
 10
94.9301
 20
105.034
 30
0.000000
  70
    32
  0
VERTEX
  8
0
  5
A7B6
 10
94.9506
 20
105.021
 30
0.000000
  70
    32
  0
VERTEX
  8
0
  5
A7B7
 10
94.9718
 20
105.009
 30
0.000000
  70
    32
  0
VERTEX
  8
0
  5
A7B8
 10
94.9935
 20
104.998
 30
0.000000
  70
    32
  0
VERTEX
  8
0
  5
A7B9
 10
95.0157
 20
104.988
 30
0.000000
  70
    32
  0
VERTEX
  8
0
  5
A7BA
 10
95.0384
 20
104.979
 30
0.000000
  70
    32
  0
VERTEX
  8
0
  5
A7BB
 10
95.0615
 20
104.972
 30
0.000000
  70
    32
  0
VERTEX
  8
0
  5
A7BC
 10
95.0849
 20
104.965
 30
0.000000
  70
    32
  0
VERTEX
  8
0
  5
A7BD
 10
95.1086
 20
104.960
 30
0.000000
  70
    32
  0
VERTEX
  8
0
  5
A7BE
 10
95.1325
 20
104.955
 30
0.000000
  70
    32
  0
VERTEX
  8
0
  5
A7BF
 10
95.1567
 20
104.952
 30
0.000000
  70
    32
  0
VERTEX
  8
0
  5
A7C0
 10
95.1809
 20
104.951
 30
0.000000
  70
    32
  0
VERTEX
  8
0
  5
A7C1
 10
95.2052
 20
104.950
 30
0.000000
  70
    32
  0
VERTEX
  8
0
  5
A7C2
 10
95.2295
 20
104.951
 30
0.000000
  70
    32
  0
VERTEX
  8
0
  5
A7C3
 10
95.2537
 20
104.952
 30
0.000000
  70
    32
  0
VERTEX
  8
0
  5
A7C4
 10
95.2778
 20
104.955
 30
0.000000
  70
    32
  0
VERTEX
  8
0
  5
A7C5
 10
95.3018
 20
104.960
 30
0.000000
  70
    32
  0
VERTEX
  8
0
  5
A7C6
 10
95.3255
 20
104.965
 30
0.000000
  70
    32
  0
VERTEX
  8
0
  5
A7C7
 10
95.3489
 20
104.972
 30
0.000000
  70
    32
  0
VERTEX
  8
0
  5
A7C8
 10
95.3720
 20
104.979
 30
0.000000
  70
    32
  0
VERTEX
  8
0
  5
A7C9
 10
95.3947
 20
104.988
 30
0.000000
  70
    32
  0
VERTEX
  8
0
  5
A7CA
 10
95.4169
 20
104.998
 30
0.000000
  70
    32
  0
VERTEX
  8
0
  5
A7CB
 10
95.4386
 20
105.009
 30
0.000000
  70
    32
  0
VERTEX
  8
0
  5
A7CC
 10
95.4597
 20
105.021
 30
0.000000
  70
    32
  0
VERTEX
  8
0
  5
A7CD
 10
95.4803
 20
105.034
 30
0.000000
  70
    32
  0
VERTEX
  8
0
  5
A7CE
 10
95.5001
 20
105.048
 30
0.000000
  70
    32
  0
VERTEX
  8
0
  5
A7CF
 10
95.5193
 20
105.064
 30
0.000000
  70
    32
  0
VERTEX
  8
0
  5
A7D0
 10
95.5377
 20
105.080
 30
0.000000
  70
    32
  0
VERTEX
  8
0
  5
A7D1
 10
95.5553
 20
105.096
 30
0.000000
  70
    32
  0
VERTEX
  8
0
  5
A7D2
 10
95.5721
 20
105.114
 30
0.000000
  70
    32
  0
VERTEX
  8
0
  5
A7D3
 10
95.5879
 20
105.133
 30
0.000000
  70
    32
  0
VERTEX
  8
0
  5
A7D4
 10
95.6029
 20
105.152
 30
0.000000
  70
    32
  0
VERTEX
  8
0
  5
A7D5
 10
95.6169
 20
105.172
 30
0.000000
  70
    32
  0
VERTEX
  8
0
  5
A7D6
 10
95.6299
 20
105.193
 30
0.000000
  70
    32
  0
VERTEX
  8
0
  5
A7D7
 10
95.6419
 20
105.214
 30
0.000000
  70
    32
  0
VERTEX
  8
0
  5
A7D8
 10
95.6528
 20
105.236
 30
0.000000
  70
    32
  0
VERTEX
  8
0
  5
A7D9
 10
95.6626
 20
105.259
 30
0.000000
  70
    32
  0
VERTEX
  8
0
  5
A7DA
 10
95.6714
 20
105.282
 30
0.000000
  70
    32
  0
VERTEX
  8
0
  5
A7DB
 10
95.6790
 20
105.305
 30
0.000000
  70
    32
  0
VERTEX
  8
0
  5
A7DC
 10
95.6855
 20
105.329
 30
0.000000
  70
    32
  0
VERTEX
  8
0
  5
A7DD
 10
95.6908
 20
105.352
 30
0.000000
  70
    32
  0
VERTEX
  8
0
  5
A7DE
 10
95.6950
 20
105.377
 30
0.000000
  70
    32
  0
VERTEX
  8
0
  5
A7DF
 10
95.6979
 20
105.401
 30
0.000000
  70
    32
  0
VERTEX
  8
0
  5
A7E0
 10
95.6997
 20
105.426
 30
0.000000
  70
    32
  0
VERTEX
  8
0
  5
A7E1
 10
95.7003
 20
105.450
 30
0.000000
  70
    32
  0
VERTEX
  8
0
  5
A7E2
 10
95.6997
 20
105.475
 30
0.000000
  70
    32
  0
VERTEX
  8
0
  5
A7E3
 10
95.6979
 20
105.499
 30
0.000000
  70
    32
  0
VERTEX
  8
0
  5
A7E4
 10
95.6950
 20
105.523
 30
0.000000
  70
    32
  0
VERTEX
  8
0
  5
A7E5
 10
95.6908
 20
105.548
 30
0.000000
  70
    32
  0
VERTEX
  8
0
  5
A7E6
 10
95.6855
 20
105.572
 30
0.000000
  70
    32
  0
VERTEX
  8
0
  5
A7E7
 10
95.6790
 20
105.595
 30
0.000000
  70
    32
  0
VERTEX
  8
0
  5
A7E8
 10
95.6714
 20
105.618
 30
0.000000
  70
    32
  0
VERTEX
  8
0
  5
A7E9
 10
95.6626
 20
105.641
 30
0.000000
  70
    32
  0
VERTEX
  8
0
  5
A7EA
 10
95.6528
 20
105.664
 30
0.000000
  70
    32
  0
VERTEX
  8
0
  5
A7EB
 10
95.6419
 20
105.686
 30
0.000000
  70
    32
  0
VERTEX
  8
0
  5
A7EC
 10
95.6299
 20
105.707
 30
0.000000
  70
    32
  0
VERTEX
  8
0
  5
A7ED
 10
95.6169
 20
105.728
 30
0.000000
  70
    32
  0
VERTEX
  8
0
  5
A7EE
 10
95.6029
 20
105.748
 30
0.000000
  70
    32
  0
VERTEX
  8
0
  5
A7EF
 10
95.5879
 20
105.767
 30
0.000000
  70
    32
  0
VERTEX
  8
0
  5
A7F0
 10
95.5721
 20
105.786
 30
0.000000
  70
    32
  0
VERTEX
  8
0
  5
A7F1
 10
95.5553
 20
105.804
 30
0.000000
  70
    32
  0
VERTEX
  8
0
  5
A7F2
 10
95.5377
 20
105.821
 30
0.000000
  70
    32
  0
VERTEX
  8
0
  5
A7F3
 10
95.5193
 20
105.837
 30
0.000000
  70
    32
  0
VERTEX
  8
0
  5
A7F4
 10
95.5001
 20
105.852
 30
0.000000
  70
    32
  0
VERTEX
  8
0
  5
A7F5
 10
95.4803
 20
105.866
 30
0.000000
  70
    32
  0
VERTEX
  8
0
  5
A7F6
 10
95.4597
 20
105.879
 30
0.000000
  70
    32
  0
VERTEX
  8
0
  5
A7F7
 10
95.4386
 20
105.891
 30
0.000000
  70
    32
  0
VERTEX
  8
0
  5
A7F8
 10
95.4169
 20
105.902
 30
0.000000
  70
    32
  0
VERTEX
  8
0
  5
A7F9
 10
95.3947
 20
105.912
 30
0.000000
  70
    32
  0
VERTEX
  8
0
  5
A7FA
 10
95.3720
 20
105.921
 30
0.000000
  70
    32
  0
VERTEX
  8
0
  5
A7FB
 10
95.3489
 20
105.929
 30
0.000000
  70
    32
  0
VERTEX
  8
0
  5
A7FC
 10
95.3255
 20
105.935
 30
0.000000
  70
    32
  0
VERTEX
  8
0
  5
A7FD
 10
95.3018
 20
105.940
 30
0.000000
  70
    32
  0
VERTEX
  8
0
  5
A7FE
 10
95.2778
 20
105.945
 30
0.000000
  70
    32
  0
VERTEX
  8
0
  5
A7FF
 10
95.2537
 20
105.948
 30
0.000000
  70
    32
  0
VERTEX
  8
0
  5
A800
 10
95.2295
 20
105.949
 30
0.000000
  70
    32
  0
VERTEX
  8
0
  5
A801
 10
95.2052
 20
105.950
 30
0.000000
  70
    32
  0
SEQEND
  8
0
  5
A802
  0
LINE
  5
A015
  8
0
 10
88.674021045102904
 20
107.6715916398965
 30
0.0
 11
78.036368604677648
 21
108.4500444265587
 31
0.0
  0
LINE
  5
A016
  8
0
 10
104.82597895489729
 20
103.2284972132209
 30
0.0
 11
115.46363139532259
 21
102.4500444265587
 31
0.0
  0
LINE
  5
A017
  8
0
 10
115.46363139532259
 20
108.4500444265587
 30
0.0
 11
104.82597895489729
 21
107.6715916398965
 31
0.0
  0
LINE
  5
A018
  8
0
 10
78.036368604677648
 20
102.4500444265587
 30
0.0
 11
88.674021045102904
 21
103.2284972132209
 31
0.0
  0
ARC
  5
A019
  8
0
 10
96.750000000000114
 20
105.4500444265587
 30
0.0
 40
5.0
 50
270.0
 51
180.0
  0
POLYLINE
  5
A01A
  8
0
 66
     1
 10
0.0
 20
0.0
 30
0.0
  0
VERTEX
  5
A387
  8
0
 10
88.674021045102904
 20
107.6715916398965
 30
0.0
  0
VERTEX
  5
A388
  8
0
 10
88.943102022469404
 20
107.6672162867746
 30
0.0
  0
VERTEX
  5
A389
  8
0
 10
89.212384797715586
 20
107.6930211974481
 30
0.0
  0
VERTEX
  5
A38A
  8
0
 10
89.476843936620241
 20
107.74871950233771
 30
0.0
  0
VERTEX
  5
A38B
  8
0
 10
89.73410270959107
 20
107.83450928921761
 30
0.0
  0
VERTEX
  5
A38C
  8
0
 10
89.981442513557454
 20
107.94929548135561
 30
0.0
  0
VERTEX
  5
A38D
  8
0
 10
90.213986419733814
 20
108.09103064979389
 30
0.0
  0
VERTEX
  5
A38E
  8
0
 10
90.426080376264565
 20
108.256209023972
 30
0.0
  0
VERTEX
  5
A38F
  8
0
 10
90.619359966969867
 20
108.444852943187
 30
0.0
  0
VERTEX
  5
A390
  8
0
 10
90.79000072719839
 20
108.65337538858491
 30
0.0
  0
VERTEX
  5
A391
  8
0
 10
90.921527901753223
 20
108.85466085134981
 30
0.0
  0
SEQEND
  5
A392
  8
0
  0
POLYLINE
  5
A01B
  8
0
 66
     1
 10
0.0
 20
0.0
 30
0.0
  0
VERTEX
  5
A393
  8
0
 10
90.921527901753223
 20
102.0454280017676
 30
0.0
  0
VERTEX
  5
A394
  8
0
 10
90.77507877308912
 20
102.26667900339309
 30
0.0
  0
VERTEX
  5
A395
  8
0
 10
90.604755456335965
 20
102.4710631060171
 30
0.0
  0
VERTEX
  5
A396
  8
0
 10
90.413827272463195
 20
102.6547565048639
 30
0.0
  0
VERTEX
  5
A397
  8
0
 10
90.20392926710943
 20
102.8157511080522
 30
0.0
  0
VERTEX
  5
A398
  8
0
 10
89.977350984135228
 20
102.9529990837361
 30
0.0
  0
VERTEX
  5
A399
  8
0
 10
89.738356325217012
 20
103.0641059835484
 30
0.0
  0
VERTEX
  5
A39A
  8
0
 10
89.486861590756405
 20
103.1484491812602
 30
0.0
  0
VERTEX
  5
A39B
  8
0
 10
89.227409095591895
 20
103.2047284854098
 30
0.0
  0
VERTEX
  5
A39C
  8
0
 10
88.964729808750576
 20
103.2321145965208
 30
0.0
  0
VERTEX
  5
A39D
  8
0
 10
88.674021045102904
 20
103.2284972132209
 30
0.0
  0
SEQEND
  5
A39E
  8
0
  0
ARC
  5
A01C
  8
0
 10
96.750000000000114
 20
105.4500444265587
 30
0.0
 40
6.75
 50
210.29070954861629
 51
329.70929146326398
  0
POLYLINE
  5
A01D
  8
0
 66
     1
 10
0.0
 20
0.0
 30
0.0
  0
VERTEX
  5
A39F
  8
0
 10
104.82597895489729
 20
103.2284972132209
 30
0.0
  0
VERTEX
  5
A3A0
  8
0
 10
104.5568979775308
 20
103.23287256634281
 30
0.0
  0
VERTEX
  5
A3A1
  8
0
 10
104.2876152022847
 20
103.20706765566931
 30
0.0
  0
VERTEX
  5
A3A2
  8
0
 10
104.02315606338
 20
103.1513693507797
 30
0.0
  0
VERTEX
  5
A3A3
  8
0
 10
103.7658972904092
 20
103.0655795638997
 30
0.0
  0
VERTEX
  5
A3A4
  8
0
 10
103.5185574864428
 20
102.9507933717618
 30
0.0
  0
VERTEX
  5
A3A5
  8
0
 10
103.2860135802664
 20
102.8090582033235
 30
0.0
  0
VERTEX
  5
A3A6
  8
0
 10
103.07391962373561
 20
102.6438798291454
 30
0.0
  0
VERTEX
  5
A3A7
  8
0
 10
102.8806400330304
 20
102.45523590993039
 30
0.0
  0
VERTEX
  5
A3A8
  8
0
 10
102.70999927280189
 20
102.24671346453241
 30
0.0
  0
VERTEX
  5
A3A9
  8
0
 10
102.57847215837469
 20
102.0454281047021
 30
0.0
  0
SEQEND
  5
A3AA
  8
0
  0
POLYLINE
  5
A01E
  8
0
 66
     1
 10
0.0
 20
0.0
 30
0.0
  0
VERTEX
  5
A3AB
  8
0
 10
102.578472098247
 20
108.85466085134981
 30
0.0
  0
VERTEX
  5
A3AC
  8
0
 10
102.72492122691111
 20
108.6334098497243
 30
0.0
  0
VERTEX
  5
A3AD
  8
0
 10
102.8952445436643
 20
108.4290257471002
 30
0.0
  0
VERTEX
  5
A3AE
  8
0
 10
103.0861727275371
 20
108.2453323482535
 30
0.0
  0
VERTEX
  5
A3AF
  8
0
 10
103.2960707328908
 20
108.0843377450652
 30
0.0
  0
VERTEX
  5
A3B0
  8
0
 10
103.522649015865
 20
107.94708976938119
 30
0.0
  0
VERTEX
  5
A3B1
  8
0
 10
103.7616436747832
 20
107.83598286956899
 30
0.0
  0
VERTEX
  5
A3B2
  8
0
 10
104.01313840924379
 20
107.75163967185721
 30
0.0
  0
VERTEX
  5
A3B3
  8
0
 10
104.2725909044083
 20
107.69536036770759
 30
0.0
  0
VERTEX
  5
A3B4
  8
0
 10
104.53527019124969
 20
107.66797425659649
 30
0.0
  0
VERTEX
  5
A3B5
  8
0
 10
104.82597895489729
 20
107.6715916398965
 30
0.0
  0
SEQEND
  5
A3B6
  8
0
  0
ARC
  5
A01F
  8
0
 10
96.750000000000114
 20
105.4500444265587
 30
0.0
 40
6.7500000000000053
 50
30.290709548616341
 51
149.70929045138359
  0
POLYLINE
  5
A020
  8
0
 66
     1
 10
0.0
 20
0.0
 30
0.0
  0
VERTEX
  5
A3B7
  8
0
 10
116.6581184997799
 20
103.5351507483806
 30
0.0
  0
VERTEX
  5
A3B8
  8
0
 10
116.65747977046421
 20
103.5286934596415
 30
0.0
  0
VERTEX
  5
A3B9
  8
0
 10
116.64010132901289
 20
103.41357787754499
 30
0.0
  0
VERTEX
  5
A3BA
  8
0
 10
116.6115543547823
 20
103.3003690354525
 30
0.0
  0
VERTEX
  5
A3BB
  8
0
 10
116.5715771911262
 20
103.1891164702912
 30
0.0
  0
VERTEX
  5
A3BC
  8
0
 10
116.5203724998993
 20
103.0814512170512
 30
0.0
  0
VERTEX
  5
A3BD
  8
0
 10
116.4564086003853
 20
102.97595746478299
 30
0.0
  0
VERTEX
  5
A3BE
  8
0
 10
116.3807611955245
 20
102.8761756201181
 30
0.0
  0
VERTEX
  5
A3BF
  8
0
 10
116.2926147508193
 20
102.7824100989794
 30
0.0
  0
VERTEX
  5
A3C0
  8
0
 10
116.1926514603542
 20
102.6968761597866
 30
0.0
  0
VERTEX
  5
A3C1
  8
0
 10
116.0433981195857
 20
102.5993919885768
 30
0.0
  0
VERTEX
  5
A3C2
  8
0
 10
115.8731327966334
 20
102.5220778480093
 30
0.0
  0
VERTEX
  5
A3C3
  8
0
 10
115.67898419775
 20
102.4695262477547
 30
0.0
  0
VERTEX
  5
A3C4
  8
0
 10
115.5735924649094
 20
102.45509065683549
 30
0.0
  0
VERTEX
  5
A3C5
  8
0
 10
115.46363139532259
 20
102.4500444265587
 30
0.0
  0
SEQEND
  5
A3C6
  8
0
  0
POLYLINE
  5
A021
  8
0
 66
     1
 10
0.0
 20
0.0
 30
0.0
  0
VERTEX
  5
A3C7
  8
0
 10
115.46363139532259
 20
108.4500444265587
 30
0.0
  0
VERTEX
  5
A3C8
  8
0
 10
115.62999788283361
 20
108.4384684197814
 30
0.0
  0
VERTEX
  5
A3C9
  8
0
 10
115.78533989566689
 20
108.4061169332841
 30
0.0
  0
VERTEX
  5
A3CA
  8
0
 10
115.9318898282432
 20
108.35492020195259
 30
0.0
  0
VERTEX
  5
A3CB
  8
0
 10
116.0655388841414
 20
108.28817128533071
 30
0.0
  0
VERTEX
  5
A3CC
  8
0
 10
116.19069875106069
 20
108.2047182023265
 30
0.0
  0
VERTEX
  5
A3CD
  8
0
 10
116.30144428267489
 20
108.1091635056537
 30
0.0
  0
VERTEX
  5
A3CE
  8
0
 10
116.3974922275905
 20
108.0036384458795
 30
0.0
  0
VERTEX
  5
A3CF
  8
0
 10
116.5167387440588
 20
107.82533184044961
 30
0.0
  0
VERTEX
  5
A3D0
  8
0
 10
116.60096624634799
 20
107.6327576829834
 30
0.0
  0
VERTEX
  5
A3D1
  8
0
 10
116.63654779616699
 20
107.50355402525339
 30
0.0
  0
VERTEX
  5
A3D2
  8
0
 10
116.65747977046431
 20
107.3713953934754
 30
0.0
  0
VERTEX
  5
A3D3
  8
0
 10
116.6581185056762
 20
107.3649380435813
 30
0.0
  0
SEQEND
  5
A3D4
  8
0
  0
ARC
  5
A022
  8
0
 10
96.750000000000284
 20
105.4500444265587
 30
0.0
 40
19.999999999999929
 50
354.50575056119573
 51
5.4941736886975958
  0
POLYLINE
  5
A023
  8
0
 66
     1
 10
0.0
 20
0.0
 30
0.0
  0
VERTEX
  5
A3D5
  8
0
 10
76.841881500220353
 20
107.36493810473679
 30
0.0
  0
VERTEX
  5
A3D6
  8
0
 10
76.842520229535964
 20
107.37139539347569
 30
0.0
  0
VERTEX
  5
A3D7
  8
0
 10
76.85989867098732
 20
107.4865109755724
 30
0.0
  0
VERTEX
  5
A3D8
  8
0
 10
76.888445645217587
 20
107.5997198176638
 30
0.0
  0
VERTEX
  5
A3D9
  8
0
 10
76.928422808873393
 20
107.71097238282459
 30
0.0
  0
VERTEX
  5
A3DA
  8
0
 10
76.979627500099809
 20
107.8186376360641
 30
0.0
  0
VERTEX
  5
A3DB
  8
0
 10
77.043591399613263
 20
107.9241313883319
 30
0.0
  0
VERTEX
  5
A3DC
  8
0
 10
77.119238804473468
 20
108.02391323299651
 30
0.0
  0
VERTEX
  5
A3DD
  8
0
 10
77.207385249177833
 20
108.117678754135
 30
0.0
  0
VERTEX
  5
A3DE
  8
0
 10
77.307348539642021
 20
108.2032126933277
 30
0.0
  0
VERTEX
  5
A3DF
  8
0
 10
77.456601880413018
 20
108.3006968645397
 30
0.0
  0
VERTEX
  5
A3E0
  8
0
 10
77.626867203368477
 20
108.3780110051087
 30
0.0
  0
VERTEX
  5
A3E1
  8
0
 10
77.821015802255886
 20
108.4305626053637
 30
0.0
  0
VERTEX
  5
A3E2
  8
0
 10
77.926407535093574
 20
108.4449981962824
 30
0.0
  0
VERTEX
  5
A3E3
  8
0
 10
78.036368604677648
 20
108.4500444265587
 30
0.0
  0
SEQEND
  5
A3E4
  8
0
  0
POLYLINE
  5
A024
  8
0
 66
     1
 10
0.0
 20
0.0
 30
0.0
  0
VERTEX
  5
A3E5
  8
0
 10
78.036368604677648
 20
102.4500444265587
 30
0.0
  0
VERTEX
  5
A3E6
  8
0
 10
77.870002117166592
 20
102.46162043333599
 30
0.0
  0
VERTEX
  5
A3E7
  8
0
 10
77.714660104333404
 20
102.4939719198333
 30
0.0
  0
VERTEX
  5
A3E8
  8
0
 10
77.568110171757041
 20
102.5451686511648
 30
0.0
  0
VERTEX
  5
A3E9
  8
0
 10
77.434461115858767
 20
102.6119175677867
 30
0.0
  0
VERTEX
  5
A3EA
  8
0
 10
77.309301248939505
 20
102.69537065079091
 30
0.0
  0
VERTEX
  5
A3EB
  8
0
 10
77.198555717325377
 20
102.7909253474637
 30
0.0
  0
VERTEX
  5
A3EC
  8
0
 10
77.102507772409808
 20
102.89645040723789
 30
0.0
  0
VERTEX
  5
A3ED
  8
0
 10
76.983261255941471
 20
103.0747570126678
 30
0.0
  0
VERTEX
  5
A3EE
  8
0
 10
76.899033753652304
 20
103.267331170134
 30
0.0
  0
VERTEX
  5
A3EF
  8
0
 10
76.863452203833276
 20
103.396534827864
 30
0.0
  0
VERTEX
  5
A3F0
  8
0
 10
76.84252022953595
 20
103.5286934596421
 30
0.0
  0
VERTEX
  5
A3F1
  8
0
 10
76.841881494323985
 20
103.53515080953611
 30
0.0
  0
SEQEND
  5
A3F2
  8
0
  0
ARC
  5
A025
  8
0
 10
96.750000000000455
 20
105.4500444265587
 30
0.0
 40
20.000000000000419
 50
174.5058825690908
 51
185.49425447866159
  0
POINT
  5
A026
  8
1
 10
96.750000000000185
 20
105.45004442655861
 30
0.0
 50
180.0
  0
LINE
  5
A16F
  8
2
 10
91.750000000000085
 20
65.0
 30
0.0
 11
91.750000000000014
 21
53.0
 31
0.0
  0
LINE
  5
A170
  8
2
 10
101.7500000000001
 20
66.199999999999989
 30
0.0
 11
101.7500000000001
 21
71.503924265143212
 31
0.0
  0
LINE
  5
A255
  8
0
 10
50.500000000000028
 20
74.700044426558719
 30
0.0
 11
49.500000000000021
 21
74.700044426558719
 31
0.0
  0
LINE
  5
A256
  8
0
 10
48.83485738751898
 20
74.571691160751527
 30
0.0
 11
47.994482214465528
 21
74.324703994621558
 31
0.0
  0
LINE
  5
A257
  8
0
 10
47.500018927840102
 20
74.108641544823911
 30
0.0
 11
46.625251049994603
 21
73.588242136314761
 31
0.0
  0
ARC
  5
A258
  8
0
 10
50.247456599529308
 20
68.494900701808163
 30
0.0
 40
6.2500000010392709
 50
96.868617269742501
 51
101.8503942507345
  0
ARC
  5
A259
  8
0
 10
50.24745659922128
 20
68.494900703186914
 30
0.0
 40
6.2499999996150191
 50
111.12942563995909
 51
116.0777262049024
  0
ARC
  5
A25A
  8
0
 10
50.247456599374502
 20
68.49490070284439
 30
0.0
 40
6.2499999999891642
 50
125.4191012986759
 51
144.0021794459465
  0
LINE
  5
A25B
  8
0
 10
48.963975779716861
 20
74.611695368802032
 30
0.0
 11
48.83485738751898
 21
74.571691160751527
 31
0.0
  0
ARC
  5
A25C
  8
0
 10
46.000000000000028
 20
71.580611712695514
 30
0.0
 40
0.9999999999999836
 50
144.00217944593831
 51
180.0
  0
LINE
  5
A25D
  8
0
 10
45.000000000000021
 20
71.580611712695514
 30
0.0
 11
45.000000000000021
 21
71.503924265143212
 31
0.0
  0
LINE
  5
A25E
  8
0
 10
51.165142612481077
 20
74.571691160751527
 30
0.0
 11
52.005517785534522
 21
74.324703994621558
 31
0.0
  0
LINE
  5
A25F
  8
0
 10
52.499981072159947
 20
74.108641544823911
 30
0.0
 11
53.374748950005447
 21
73.588242136314761
 31
0.0
  0
ARC
  5
A260
  8
0
 10
49.752543400470742
 20
68.494900701808163
 30
0.0
 40
6.2500000010392709
 50
78.149605749265831
 51
83.131382730257485
  0
ARC
  5
A261
  8
0
 10
49.752543400778777
 20
68.494900703186914
 30
0.0
 40
6.2499999996150191
 50
63.922273795097922
 51
68.870574360040521
  0
ARC
  5
A262
  8
0
 10
49.752543400625548
 20
68.49490070284439
 30
0.0
 40
6.2499999999891642
 50
35.99782055405349
 51
54.580898701324429
  0
LINE
  5
A263
  8
0
 10
51.036024220283203
 20
74.611695368802032
 30
0.0
 11
51.165142612481077
 21
74.571691160751527
 31
0.0
  0
ARC
  5
A264
  8
0
 10
54.000000000000028
 20
71.580611712695514
 30
0.0
 40
0.9999999999999836
 50
0.0
 51
35.997820554061633
  0
LINE
  5
A265
  8
0
 10
55.000000000000028
 20
71.580611712695514
 30
0.0
 11
55.000000000000028
 21
71.503924265143212
 31
0.0
  0
ENDSEC
  0
EOF
