  0
SECTION
  2
HEADER
  9
$ACADVER
  1
AC1009
  9
$INSBASE
 10
0.0
 20
0.0
 30
0.0
  9
$EXTMIN
 10
0.0
 20
-2.960436562073669
 30
-7.0
  9
$EXTMAX
 10
153.88698291084421
 20
216.27821530951019
 30
14.00000000000011
  9
$LIMMIN
 10
0.0
 20
0.0
  9
$LIMMAX
 10
375.0
 20
270.0
  9
$ORTHOMODE
 70
     1
  9
$REGENMODE
 70
     1
  9
$FILLMODE
 70
     1
  9
$QTEXTMODE
 70
     0
  9
$MIRRTEXT
 70
     0
  9
$DRAGMODE
 70
     2
  9
$LTSCALE
 40
5.0
  9
$OSMODE
 70
  3071
  9
$ATTMODE
 70
     1
  9
$TEXTSIZE
 40
0.2
  9
$TRACEWID
 40
0.05
  9
$TEXTSTYLE
  7
STANDARD
  9
$CLAYER
  8
0
  9
$CELTYPE
  6
BYLAYER
  9
$CECOLOR
 62
   256
  9
$DIMSCALE
 40
1.0
  9
$DIMASZ
 40
3.0
  9
$DIMEXO
 40
2.0
  9
$DIMDLI
 40
0.38
  9
$DIMRND
 40
0.0
  9
$DIMDLE
 40
0.0
  9
$DIMEXE
 40
2.0
  9
$DIMTP
 40
0.0
  9
$DIMTM
 40
0.0
  9
$DIMTXT
 40
3.2000000000000002
  9
$DIMCEN
 40
0.09
  9
$DIMTSZ
 40
0.0
  9
$DIMTOL
 70
     0
  9
$DIMLIM
 70
     0
  9
$DIMTIH
 70
     0
  9
$DIMTOH
 70
     0
  9
$DIMSE1
 70
     0
  9
$DIMSE2
 70
     0
  9
$DIMTAD
 70
     1
  9
$DIMZIN
 70
     0
  9
$DIMBLK
  1

  9
$DIMASO
 70
     1
  9
$DIMSHO
 70
     0
  9
$DIMPOST
  1

  9
$DIMAPOST
  1

  9
$DIMALT
 70
     0
  9
$DIMALTD
 70
     2
  9
$DIMALTF
 40
25.399999999999999
  9
$DIMLFAC
 40
1.0
  9
$DIMTOFL
 70
     0
  9
$DIMTVP
 40
1.6000000000000001
  9
$DIMTIX
 70
     1
  9
$DIMSOXD
 70
     0
  9
$DIMSAH
 70
     0
  9
$DIMBLK1
  1

  9
$DIMBLK2
  1

  9
$DIMSTYLE
  2
STANDARD
  9
$DIMCLRD
 70
     0
  9
$DIMCLRE
 70
     0
  9
$DIMCLRT
 70
     0
  9
$DIMTFAC
 40
1.0
  9
$DIMGAP
 40
0.09
  9
$LUNITS
 70
     2
  9
$LUPREC
 70
     4
  9
$SKETCHINC
 40
0.1
  9
$FILLETRAD
 40
2.0
  9
$AUNITS
 70
     0
  9
$AUPREC
 70
     0
  9
$MENU
  1
E:\r13\win\SUPPORT\ACAD
  9
$ELEVATION
 40
0.0
  9
$PELEVATION
 40
0.0
  9
$THICKNESS
 40
0.0
  9
$LIMCHECK
 70
     0
  9
$BLIPMODE
 70
     0
  9
$CHAMFERA
 40
0.0
  9
$CHAMFERB
 40
0.0
  9
$SKPOLY
 70
     0
  9
$TDCREATE
 40
2447977.5416277782
  9
$TDUPDATE
 40
2456598.6874793288
  9
$TDINDWG
 40
0.0126382755
  9
$TDUSRTIMER
 40
0.0126382755
  9
$USRTIMER
 70
     1
  9
$ANGBASE
 50
0.0
  9
$ANGDIR
 70
     0
  9
$PDMODE
 70
     0
  9
$PDSIZE
 40
0.0
  9
$PLINEWID
 40
0.0
  9
$COORDS
 70
     1
  9
$SPLFRAME
 70
     0
  9
$SPLINETYPE
 70
     6
  9
$SPLINESEGS
 70
     8
  9
$ATTDIA
 70
     0
  9
$ATTREQ
 70
     1
  9
$HANDLING
 70
     1
  9
$HANDSEED
  5
512
  9
$SURFTAB1
 70
     6
  9
$SURFTAB2
 70
     6
  9
$SURFTYPE
 70
     6
  9
$SURFU
 70
     6
  9
$SURFV
 70
     6
  9
$UCSNAME
  2

  9
$UCSORG
 10
0.0
 20
0.0
 30
0.0
  9
$UCSXDIR
 10
1.0
 20
0.0
 30
0.0
  9
$UCSYDIR
 10
0.0
 20
1.0
 30
0.0
  9
$PUCSNAME
  2

  9
$PUCSORG
 10
0.0
 20
0.0
 30
0.0
  9
$PUCSXDIR
 10
1.0
 20
0.0
 30
0.0
  9
$PUCSYDIR
 10
0.0
 20
1.0
 30
0.0
  9
$USERI1
 70
     0
  9
$USERI2
 70
     1
  9
$USERI3
 70
     1
  9
$USERI4
 70
     0
  9
$USERI5
 70
     0
  9
$USERR1
 40
0.0
  9
$USERR2
 40
0.0
  9
$USERR3
 40
0.0
  9
$USERR4
 40
0.0
  9
$USERR5
 40
0.0
  9
$WORLDVIEW
 70
     1
  9
$SHADEDGE
 70
     3
  9
$SHADEDIF
 70
    70
  9
$TILEMODE
 70
     1
  9
$MAXACTVP
 70
    16
  9
$PLIMCHECK
 70
     0
  9
$PEXTMIN
 10
1.0000000000000000E+020
 20
1.0000000000000000E+020
 30
1.0000000000000000E+020
  9
$PEXTMAX
 10
-1.0000000000000000E+020
 20
-1.0000000000000000E+020
 30
-1.0000000000000000E+020
  9
$PLIMMIN
 10
0.0
 20
0.0
  9
$PLIMMAX
 10
12.0
 20
9.0
  9
$UNITMODE
 70
     0
  9
$VISRETAIN
 70
     0
  9
$PLINEGEN
 70
     1
  9
$PSLTSCALE
 70
     0
  0
ENDSEC
  0
SECTION
  2
TABLES
  0
TABLE
  2
VPORT
 70
     1
  0
VPORT
  2
*ACTIVE
 70
     0
 10
0.0
 20
0.0
 11
1.0
 21
1.0
 12
187.49427839065231
 22
169.9063198933564
 13
0.0
 23
0.0
 14
10.0
 24
10.0
 15
10.0
 25
10.0
 16
0.0
 26
0.0
 36
1.0
 17
0.0
 27
0.0
 37
0.0
 40
348.89937369551939
 41
1.831871345029239
 42
50.0
 43
0.0
 44
0.0
 50
0.0
 51
0.0
 71
     0
 72
   500
 73
     1
 74
     0
 75
     0
 76
     0
 77
     0
 78
     2
  0
ENDTAB
  0
TABLE
  2
LTYPE
 70
     4
  0
LTYPE
  2
CONTINUOUS
 70
     0
  3
Solid Line
 72
    65
 73
     0
 40
0.0
  0
LTYPE
  2
CENTER
 70
     0
  3
____ _ ____ _ ____ _ ____ _ ____ _ ____ _ ____
 72
    65
 73
     4
 40
2.0
 49
1.25
 49
-0.25
 49
0.25
 49
-0.25
  0
LTYPE
  2
HIDDEN
 70
     0
  3
_ _ _ _ _ _ _ _ _ _ _ _ _ _ _ _ _ _ _ _ _ _ _
 72
    65
 73
     2
 40
0.375
 49
0.25
 49
-0.125
  0
LTYPE
  2
PHANTOM2
 70
     0
  3
___ _ _ ___ _ _ ___ _ _ ___ _ _
 72
    65
 73
     6
 40
1.25
 49
0.625
 49
-0.125
 49
0.125
 49
-0.125
 49
0.125
 49
-0.125
  0
ENDTAB
  0
TABLE
  2
LAYER
 70
     4
  0
LAYER
  2
0
 70
     0
 62
     7
  6
CONTINUOUS
  0
LAYER
  2
1
 70
     0
 62
     1
  6
CENTER
  0
LAYER
  2
2
 70
     0
 62
     2
  6
HIDDEN
  0
LAYER
  2
3
 70
     0
 62
     3
  6
CONTINUOUS
  0
ENDTAB
  0
TABLE
  2
STYLE
 70
     2
  0
STYLE
  2
STANDARD
 70
     0
 40
0.0
 41
1.0
 50
0.0
 71
     0
 42
0.2
  3
TXT
  4
BIGFONT
  0
STYLE
  2
STANDARD1
 70
     0
 40
0.0
 41
1.0
 50
0.0
 71
     0
 42
3.0
  3
txt
  4

  0
ENDTAB
  0
TABLE
  2
VIEW
 70
     1
  0
VIEW
  2
ALL
 70
     0
 40
270.0
 10
220.99159663865549
 20
135.0
 41
0.0
 11
0.0
 21
0.0
 31
1.0
 12
0.0
 22
0.0
 32
0.0
 42
0.0
 43
0.0
 44
0.0
 50
0.0
 71
     0
  0
ENDTAB
  0
TABLE
  2
UCS
 70
     0
  0
ENDTAB
  0
TABLE
  2
APPID
 70
     3
  0
APPID
  2
ACAD
 70
     0
  0
APPID
  2
ACAD_MLEADERVER
 70
     0
  0
APPID
  2
ACAD_NAV_VCDISPLAY
 70
     0
  0
ENDTAB
  0
TABLE
  2
DIMSTYLE
 70
     1
  0
DIMSTYLE
  2
STANDARD
 70
     0
  3

  4

  5

  6

  7

 40
1.0
 41
0.18
 42
0.0625
 43
0.38
 44
0.18
 45
0.0
 46
0.0
 47
0.0
 48
0.0
140
0.18
141
0.09
142
0.0
143
25.399999999999999
144
1.0
145
0.0
146
1.0
147
0.09
 71
     0
 72
     0
 73
     1
 74
     1
 75
     0
 76
     0
 77
     0
 78
     0
170
     0
171
     2
172
     0
173
     0
174
     0
175
     0
176
     0
177
     0
178
     0
  0
ENDTAB
  0
ENDSEC
  0
SECTION
  2
BLOCKS
  0
BLOCK
  8
0
  2
$MODEL_SPACE
 70
     0
 10
0.0
 20
0.0
 30
0.0
  3
$MODEL_SPACE
  1

  0
ENDBLK
  5
19F
  8
0
  0
BLOCK
 67
     1
  8
0
  2
$PAPER_SPACE
 70
     0
 10
0.0
 20
0.0
 30
0.0
  3
$PAPER_SPACE
  1

  0
ENDBLK
  5
19D
 67
     1
  8
0
  0
ENDSEC
  0
SECTION
  2
ENTITIES
  0
LINE
  5
34B
  8
0
 10
72.886982910844495
 20
212.87821530951021
 30
0.0
 11
77.886982910844495
 21
212.87821530951021
 31
0.0
  0
LINE
  5
34C
  8
0
 10
76.986982910844404
 20
213.77821530951019
 30
0.0
 11
77.886982910844495
 21
212.87821530951021
 31
0.0
  0
LINE
  5
34D
  8
0
 10
72.886982910844495
 20
212.87821530951021
 30
0.0
 11
73.786982910844472
 21
213.77821530951019
 31
0.0
  0
LINE
  5
34E
  8
0
 10
73.786982910844472
 20
213.77821530951019
 30
0.0
 11
76.986982910844404
 21
213.77821530951019
 31
0.0
  0
LINE
  5
34F
  8
0
 10
72.886982910844495
 20
201.77821530951019
 30
0.0
 11
72.886982910844495
 21
212.87821530951021
 31
0.0
  0
LINE
  5
350
  8
3
 10
73.319982910844374
 20
201.77821530951019
 30
0.0
 11
73.31998291084426
 21
213.31121530950989
 31
0.0
  0
LINE
  5
351
  8
3
 10
77.453982910844616
 20
201.77821530951019
 30
0.0
 11
77.453982910844616
 21
213.31121530951
 31
0.0
  0
LINE
  5
352
  8
0
 10
77.886982910844381
 20
201.77821530951019
 30
0.0
 11
77.886982910844495
 21
212.87821530951021
 31
0.0
  0
ARC
  5
353
  8
0
 10
75.386982910844381
 20
187.78285995692741
 30
0.0
 40
7.0046446474170976
 50
181.03733460175221
 51
358.96266539824779
  0
LINE
  5
354
  8
1
 10
75.386982910844495
 20
216.27821530951019
 30
0.0
 11
75.386982910844495
 21
175.7782153095103
 31
0.0
  0
LINE
  5
355
  8
0
 10
82.636982910844495
 20
201.77821530951019
 30
0.0
 11
68.136982910844495
 21
201.77821530951019
 31
0.0
  0
LINE
  5
356
  8
0
 10
82.636982910844495
 20
201.77821530951019
 30
0.0
 11
82.390479571844367
 21
187.65604846451021
 31
0.0
  0
LINE
  5
357
  8
0
 10
68.136982910844495
 20
201.77821530951019
 30
0.0
 11
68.383486249844623
 21
187.65604846451021
 31
0.0
  0
LINE
  5
358
  8
1
 10
87.391626659744702
 20
187.77821530951019
 30
0.0
 11
63.38233916194406
 21
187.77821530951019
 31
0.0
  0
CIRCLE
  5
359
  8
2
 10
75.386982910844381
 20
187.78285995692741
 30
0.0
 40
4.0
  0
LINE
  5
35A
  8
0
 10
78.386982910844495
 20
24.677342576613292
 30
0.0
 11
73.386982910844495
 21
24.677342576613292
 31
0.0
  0
LINE
  5
35B
  8
0
 10
74.286982910844586
 20
23.777342576613201
 30
0.0
 11
73.386982910844495
 21
24.677342576613292
 31
0.0
  0
LINE
  5
35C
  8
0
 10
78.386982910844495
 20
24.677342576613292
 30
0.0
 11
77.486982910844503
 21
23.777342576613201
 31
0.0
  0
LINE
  5
35D
  8
0
 10
77.486982910844503
 20
23.777342576613201
 30
0.0
 11
74.286982910844586
 21
23.777342576613201
 31
0.0
  0
LINE
  5
35E
  8
0
 10
78.386982910844495
 20
35.777342576613187
 30
0.0
 11
78.386982910844495
 21
24.677342576613292
 31
0.0
  0
LINE
  5
35F
  8
3
 10
77.953982910844616
 20
35.777342576613187
 30
0.0
 11
77.953982910844729
 21
24.244342576613519
 31
0.0
  0
LINE
  5
360
  8
3
 10
73.819982910844374
 20
35.777342576613187
 30
0.0
 11
73.819982910844374
 21
24.244342576613409
 31
0.0
  0
LINE
  5
361
  8
0
 10
73.386982910844608
 20
35.777342576613187
 30
0.0
 11
73.386982910844495
 21
24.677342576613292
 31
0.0
  0
LINE
  5
362
  8
1
 10
136.88698291084441
 20
92.777807552613297
 30
0.0
 11
153.88698291084421
 21
92.777807552613297
 31
0.0
  0
LINE
  5
363
  8
1
 10
136.88698291084441
 20
111.7778075526133
 30
0.0
 11
153.88698291084421
 21
111.7778075526133
 31
0.0
  0
LINE
  5
364
  8
0
 10
150.48698291084429
 20
114.2778075526132
 30
0.0
 11
150.48698291084429
 21
109.2778075526132
 31
0.0
  0
LINE
  5
365
  8
0
 10
151.3869829108443
 20
110.1778075526133
 30
0.0
 11
150.48698291084429
 21
109.2778075526132
 31
0.0
  0
LINE
  5
366
  8
0
 10
150.48698291084429
 20
114.2778075526133
 30
0.0
 11
151.3869829108443
 21
113.37780755261331
 31
0.0
  0
LINE
  5
367
  8
0
 10
151.3869829108443
 20
113.37780755261331
 30
0.0
 11
151.3869829108443
 21
110.1778075526133
 31
0.0
  0
LINE
  5
368
  8
0
 10
139.38698291084421
 20
114.2778075526133
 30
0.0
 11
150.48698291084429
 21
114.2778075526133
 31
0.0
  0
LINE
  5
369
  8
3
 10
139.38698291084441
 20
113.8448075526135
 30
0.0
 11
150.919982910844
 21
113.8448075526135
 31
0.0
  0
LINE
  5
36A
  8
3
 10
139.38698291084421
 20
109.7108075526131
 30
0.0
 11
150.91998291084411
 21
109.7108075526131
 31
0.0
  0
LINE
  5
36B
  8
0
 10
139.38698291084421
 20
109.2778075526133
 30
0.0
 11
150.48698291084429
 21
109.2778075526132
 31
0.0
  0
LINE
  5
36C
  8
0
 10
139.38698291084421
 20
90.277807552613297
 30
0.0
 11
150.48698291084429
 21
90.277807552613268
 31
0.0
  0
LINE
  5
36D
  8
3
 10
139.38698291084421
 20
90.71080755261309
 30
0.0
 11
150.91998291084411
 21
90.71080755261309
 31
0.0
  0
LINE
  5
36E
  8
3
 10
139.38698291084441
 20
94.844807552613531
 30
0.0
 11
150.919982910844
 21
94.844807552613474
 31
0.0
  0
LINE
  5
36F
  8
0
 10
139.38698291084421
 20
95.277807552613297
 30
0.0
 11
150.48698291084429
 21
95.277807552613297
 31
0.0
  0
LINE
  5
370
  8
0
 10
151.3869829108443
 20
94.377807552613291
 30
0.0
 11
151.3869829108443
 21
91.177807552613274
 31
0.0
  0
LINE
  5
371
  8
0
 10
150.48698291084429
 20
95.277807552613297
 30
0.0
 11
151.3869829108443
 21
94.377807552613291
 31
0.0
  0
LINE
  5
372
  8
0
 10
151.3869829108443
 20
91.177807552613274
 30
0.0
 11
150.48698291084429
 21
90.277807552613268
 31
0.0
  0
LINE
  5
373
  8
0
 10
150.48698291084429
 20
95.277807552613268
 30
0.0
 11
150.48698291084429
 21
90.277807552613268
 31
0.0
  0
LINE
  5
374
  8
1
 10
136.88698291084441
 20
125.7777789426133
 30
0.0
 11
153.88698291084421
 21
125.7777789426133
 31
0.0
  0
LINE
  5
375
  8
0
 10
150.48698291084429
 20
128.27777894261331
 30
0.0
 11
150.48698291084429
 21
123.2777789426133
 31
0.0
  0
LINE
  5
376
  8
0
 10
151.3869829108443
 20
124.1777789426133
 30
0.0
 11
150.48698291084429
 21
123.2777789426133
 31
0.0
  0
LINE
  5
377
  8
0
 10
150.48698291084429
 20
128.27777894261331
 30
0.0
 11
151.3869829108443
 21
127.3777789426133
 31
0.0
  0
LINE
  5
378
  8
0
 10
151.3869829108443
 20
127.3777789426133
 30
0.0
 11
151.3869829108443
 21
124.1777789426133
 31
0.0
  0
LINE
  5
379
  8
0
 10
139.38698291084421
 20
128.27777894261331
 30
0.0
 11
150.48698291084429
 21
128.27777894261331
 31
0.0
  0
LINE
  5
37A
  8
3
 10
139.38698291084441
 20
127.8447789426135
 30
0.0
 11
150.919982910844
 21
127.8447789426135
 31
0.0
  0
LINE
  5
37B
  8
3
 10
139.38698291084421
 20
123.7107789426131
 30
0.0
 11
150.91998291084411
 21
123.7107789426131
 31
0.0
  0
LINE
  5
37C
  8
0
 10
139.38698291084421
 20
123.2777789426133
 30
0.0
 11
150.48698291084429
 21
123.2777789426133
 31
0.0
  0
LINE
  5
37D
  8
0
 10
139.38698291084421
 20
142.27777894261331
 30
0.0
 11
150.48698291084429
 21
142.27777894261331
 31
0.0
  0
LINE
  5
37E
  8
3
 10
139.38698291084421
 20
142.7107789426131
 30
0.0
 11
150.91998291084411
 21
142.7107789426131
 31
0.0
  0
LINE
  5
37F
  8
3
 10
139.38698291084441
 20
146.84477894261349
 30
0.0
 11
150.919982910844
 21
146.84477894261349
 31
0.0
  0
LINE
  5
380
  8
0
 10
139.38698291084421
 20
147.27777894261331
 30
0.0
 11
150.48698291084429
 21
147.27777894261331
 31
0.0
  0
LINE
  5
381
  8
0
 10
151.3869829108443
 20
146.3777789426133
 30
0.0
 11
151.3869829108443
 21
143.17777894261329
 31
0.0
  0
LINE
  5
382
  8
0
 10
150.48698291084429
 20
147.27777894261331
 30
0.0
 11
151.3869829108443
 21
146.3777789426133
 31
0.0
  0
LINE
  5
383
  8
0
 10
151.3869829108443
 20
143.17777894261329
 30
0.0
 11
150.48698291084429
 21
142.27777894261331
 31
0.0
  0
LINE
  5
384
  8
0
 10
150.48698291084429
 20
147.27777894261331
 30
0.0
 11
150.48698291084429
 21
142.27777894261331
 31
0.0
  0
LINE
  5
385
  8
1
 10
125.3869829108444
 20
82.02321614761334
 30
0.0
 11
125.3869829108444
 21
155.53234173661329
 31
0.0
  0
LINE
  5
386
  8
0
 10
139.38698291084441
 20
119.7777789426133
 30
0.0
 11
139.38698291084441
 21
150.77777894261331
 31
0.0
  0
LINE
  5
387
  8
0
 10
118.3869829108443
 20
120.2777789426133
 30
0.0
 11
118.3869829108443
 21
143.53234173661329
 31
0.0
  0
LINE
  5
388
  8
0
 10
139.38698291084441
 20
117.7777789426133
 30
0.0
 11
118.8869829108444
 21
117.7777789426133
 31
0.0
  0
LINE
  5
389
  8
0
 10
139.38698291084441
 20
86.777778942613295
 30
0.0
 11
125.2648160658441
 21
87.024282281613324
 31
0.0
  0
LINE
  5
38A
  8
0
 10
139.38698291084441
 20
117.7777789426133
 30
0.0
 11
139.38698291084441
 21
86.777778942613295
 31
0.0
  0
LINE
  5
38B
  8
0
 10
118.3869829108443
 20
117.2777789426133
 30
0.0
 11
118.3869829108443
 21
94.023216147613326
 31
0.0
  0
ARC
  5
38C
  8
0
 10
125.3869829108444
 20
94.023216147613326
 30
0.0
 40
7.0
 50
180.0
 51
268.99999999999829
  0
LINE
  5
38D
  8
0
 10
118.9869828148444
 20
119.7777789426133
 30
0.0
 11
139.38698291084449
 21
119.7777789426133
 31
0.0
  0
LINE
  5
38E
  8
0
 10
131.78698300584429
 20
119.7777789426133
 30
0.0
 11
131.78698300584429
 21
117.7777789426133
 31
0.0
  0
LINE
  5
38F
  8
0
 10
118.9869828148444
 20
119.7777789426133
 30
0.0
 11
118.9869828148444
 21
117.7777789426133
 31
0.0
  0
ARC
  5
390
  8
0
 10
118.8869829108444
 20
117.2777789426133
 30
0.0
 40
0.5
 50
90.0
 51
180.0
  0
ARC
  5
391
  8
0
 10
118.8869829108444
 20
120.2777789426133
 30
0.0
 40
0.5
 50
180.0
 51
270.0
  0
LINE
  5
392
  8
0
 10
139.38698291084441
 20
150.77777894261331
 30
0.0
 11
125.2648160658441
 21
150.53127560261331
 31
0.0
  0
ARC
  5
393
  8
0
 10
125.3869829108444
 20
143.53234173661329
 30
0.0
 40
7.0
 50
91.000000000001776
 51
180.0
  0
LINE
  5
394
  8
0
 10
68.1369830691998
 20
120.2777789426133
 30
-6.9999999999999432
 11
68.136982752489189
 21
143.53234173761331
 31
7.000000000000056
  0
LINE
  5
395
  8
0
 10
82.636983069200028
 20
120.2777789426133
 30
-7.0
 11
82.636982752489416
 21
143.53234173761331
 31
7.0
  0
LINE
  5
396
  8
0
 10
83.136982910844722
 20
117.2777789426133
 30
-6.9999999999998836
 11
83.136982910844722
 21
94.023216147613326
 31
7.000000000000111
  0
LINE
  5
397
  8
0
 10
68.636982910844722
 20
117.2777789426133
 30
-6.9999999999999982
 11
68.636982910844722
 21
94.023216147613326
 31
6.9999999999999982
  0
ARC
  5
398
  8
0
 10
-75.886982910544134
 20
94.027780378617535
 30
-14.00000000000011
 40
7.2500014360041121
210
0.0
220
0.0
230
-1.0
 50
180.03607050189521
 51
359.96393450395573
  0
ARC
  5
399
  8
0
 10
69.137020995844637
 20
117.2777408586131
 30
-6.9999999999999982
 40
0.500038086
 50
89.995639834999466
 51
179.99563614600049
  0
ARC
  5
39A
  8
0
 10
68.637021154199715
 20
120.2778170276132
 30
-6.9999999999999432
 40
0.500038086
 50
180.00436631199881
 51
270.00436198599829
  0
ARC
  5
39B
  8
0
 10
82.63694482584458
 20
117.2777408576131
 30
-6.9999999999998836
 40
0.500038086
 50
0.004366311998841
 51
90.004361985998258
  0
ARC
  5
39C
  8
0
 10
82.136944984199886
 20
120.2778170276132
 30
-7.0
 40
0.500038086
 50
269.99563983499951
 51
359.99563614600061
  0
ARC
  5
39D
  8
0
 10
-75.386982751789901
 20
143.52777750660891
 30
-14.00000000000005
 40
7.2500014360044531
210
0.0
220
0.0
230
-1.0
 50
0.0360705018968307
 51
179.96393450394589
  0
LINE
  5
39E
  8
1
 10
75.386982910844608
 20
112.7777789427017
 30
0.0
 11
75.386982910844495
 21
155.77821530861311
 31
0.0
  0
LINE
  5
39F
  8
1
 10
75.886982910844608
 20
124.77777894306161
 30
0.0
 11
75.886982910844495
 21
81.777342576613165
 31
0.0
  0
LINE
  5
3A0
  8
3
 10
75.886983668844664
 20
116.7777819726133
 30
0.0
 11
74.636984016844622
 21
111.7777833656131
 31
0.0
  0
LINE
  5
3A1
  8
3
 10
77.136983903844452
 20
111.77777497361321
 30
0.0
 11
75.886981822844632
 21
116.7777832956131
 31
0.0
  0
LINE
  5
3A2
  8
3
 10
77.136982968844563
 20
111.7777789426133
 30
0.0
 11
74.636982730844579
 21
111.7777789426133
 31
0.0
  0
ARC
  5
3A3
  8
0
 10
75.886982910844608
 20
49.772697929196063
 30
0.0
 40
7.0046446474170976
 50
1.0373346017522269
 51
178.96266539824771
  0
LINE
  5
3A4
  8
1
 10
75.886982910844495
 20
21.277342576613201
 30
0.0
 11
75.886982910844495
 21
61.777342576613172
 31
0.0
  0
LINE
  5
3A5
  8
0
 10
68.636982910844495
 20
35.777342576613187
 30
0.0
 11
83.136982910844495
 21
35.777342576613187
 31
0.0
  0
LINE
  5
3A6
  8
0
 10
68.636982910844495
 20
35.777342576613187
 30
0.0
 11
68.883486249844623
 21
49.899509421613232
 31
0.0
  0
LINE
  5
3A7
  8
0
 10
83.136982910844495
 20
35.777342576613187
 30
0.0
 11
82.890479571844367
 21
49.899509421613232
 31
0.0
  0
LINE
  5
3A8
  8
1
 10
136.88698291084441
 20
144.77777894261331
 30
0.0
 11
153.88698291084421
 21
144.77777894261331
 31
0.0
  0
LINE
  5
3A9
  8
0
 10
68.637059222607945
 20
119.7777789430623
 30
-6.9999999999999432
 11
82.286983172146066
 21
119.77777894306099
 31
-7.0
  0
LINE
  5
3AA
  8
0
 10
82.63690675743635
 20
117.77777894216401
 30
-6.9999999999998836
 11
69.13705904836047
 21
117.7777789431652
 31
-6.9999999999999982
  0
LINE
  5
3AB
  8
0
 10
75.886982902898467
 20
117.7777789426646
 30
-6.9999999999999414
 11
75.386982910844381
 21
117.7777789426646
 31
-0.0000000000000213
  0
LINE
  5
3AC
  8
0
 10
82.286983172146066
 20
119.7777789430617
 30
-6.9999999999999707
 11
82.286983172146066
 21
117.7777789430617
 31
-6.9999999999999707
  0
LINE
  5
3AD
  8
0
 10
76.636983077146056
 20
119.7777789430617
 30
-6.9999999999999707
 11
76.636983077146056
 21
117.7777789430617
 31
-6.9999999999999707
  0
LINE
  5
3AE
  8
0
 10
75.136983077146056
 20
119.7777789430617
 30
-6.9999999999999707
 11
75.136983077146056
 21
117.7777789430617
 31
-6.9999999999999707
  0
LINE
  5
3AF
  8
0
 10
69.48698298214606
 20
119.7777789430617
 30
-6.9999999999999707
 11
69.48698298214606
 21
117.7777789430617
 31
-6.9999999999999707
  0
LINE
  5
3B0
  8
2
 10
129.38698082356819
 20
119.77779511125389
 30
0.0
 11
129.38698082356819
 21
138.5816328807488
 31
0.0
  0
ARC
  5
3B1
  8
2
 10
-115.3869881255349
 20
138.5816328807488
 30
0.0
 40
13.99999269803325
210
0.0
220
0.0
230
-1.0
 50
158.21321070200159
 51
180.0
  0
LINE
  5
3B2
  8
2
 10
128.38698134513729
 20
143.77778259359661
 30
0.0
 11
122.3869844745514
 21
143.77778259359661
 31
0.0
  0
ARC
  5
3B3
  8
2
 10
-135.38697769415381
 20
138.5816328807488
 30
0.0
 40
13.99999269803325
210
0.0
220
0.0
230
-1.0
 50
0.0
 51
21.786789297998389
  0
LINE
  5
3B4
  8
2
 10
121.3869849961207
 20
119.77779511125389
 30
0.0
 11
121.3869849961207
 21
138.5816328807488
 31
0.0
  0
LINE
  5
3B5
  8
2
 10
130.1369801176071
 20
115.27779745831469
 30
0.0
 11
120.6369850725131
 21
115.27779745831469
 31
0.0
  0
LINE
  5
3B6
  8
2
 10
121.3869847353362
 20
115.27779745831469
 30
0.0
 11
121.3869847353361
 21
98.973958384896932
 31
0.0
  0
LINE
  5
3B7
  8
2
 10
120.6369850725131
 20
117.77779615439189
 30
0.0
 11
120.6369850725131
 21
115.27779745831469
 31
0.0
  0
LINE
  5
3B8
  8
2
 10
123.4194690872546
 20
117.77779615439189
 30
0.0
 11
123.4194690872546
 21
115.27779745831469
 31
0.0
  0
LINE
  5
3B9
  8
2
 10
127.3544960928655
 20
117.77779615439189
 30
0.0
 11
127.3544960928655
 21
115.27779745831469
 31
0.0
  0
LINE
  5
3BA
  8
2
 10
130.1369801176071
 20
117.77779615439189
 30
0.0
 11
130.1369801176071
 21
115.27779745831469
 31
0.0
  0
LINE
  5
3BB
  8
2
 10
129.3869805627838
 20
115.27779745831469
 30
0.0
 11
129.3869805627838
 21
98.973958384896932
 31
0.0
  0
ARC
  5
3BC
  8
2
 10
-115.38698786475049
 20
98.973958384896932
 30
0.0
 40
13.99999269803325
210
0.0
220
0.0
230
-1.0
 50
180.0
 51
201.78678929799841
  0
LINE
  5
3BD
  8
2
 10
128.38698108435261
 20
93.777808672049304
 30
0.0
 11
122.38698421376699
 21
93.777808672049304
 31
0.0
  0
ARC
  5
3BE
  8
2
 10
-135.3869774333694
 20
98.973958384896932
 30
0.0
 40
13.99999269803325
210
0.0
220
0.0
230
-1.0
 50
338.21321070200162
 51
0.0
  0
LINE
  5
3BF
  8
1
 10
63.882339161944287
 20
49.777342576613187
 30
0.0
 11
87.891626659744915
 21
49.777342576613187
 31
0.0
  0
CIRCLE
  5
3C0
  8
2
 10
75.886982910844608
 20
49.772697929196063
 30
0.0
 40
4.0
  0
TEXT
  5
485
  8
0
 62
     3
 10
0.0
 20
0.0
 30
0.0
 40
10.0
  1
ESJB2864TT
  7
STANDARD1
  0
ENDSEC
  0
EOF
