  0
SECTION
  2
HEADER
  9
$ACADVER
  1
AC1009
  9
$INSBASE
 10
0.0
 20
0.0
 30
0.0
  9
$EXTMIN
 10
0.0
 20
-2.960436562073669
 30
0.0
  9
$EXTMAX
 10
194.16431994836199
 20
150.75510274018029
 30
0.0
  9
$LIMMIN
 10
0.0
 20
0.0
  9
$LIMMAX
 10
375.0
 20
270.0
  9
$ORTHOMODE
 70
     0
  9
$REGENMODE
 70
     1
  9
$FILLMODE
 70
     1
  9
$QTEXTMODE
 70
     0
  9
$MIRRTEXT
 70
     0
  9
$DRAGMODE
 70
     2
  9
$LTSCALE
 40
10.0
  9
$OSMODE
 70
  3071
  9
$ATTMODE
 70
     1
  9
$TEXTSIZE
 40
0.2
  9
$TRACEWID
 40
0.05
  9
$TEXTSTYLE
  7
STANDARD
  9
$CLAYER
  8
0
  9
$CELTYPE
  6
BYLAYER
  9
$CECOLOR
 62
   256
  9
$DIMSCALE
 40
1.0
  9
$DIMASZ
 40
3.0
  9
$DIMEXO
 40
2.0
  9
$DIMDLI
 40
0.38
  9
$DIMRND
 40
0.0
  9
$DIMDLE
 40
0.0
  9
$DIMEXE
 40
2.0
  9
$DIMTP
 40
0.0
  9
$DIMTM
 40
0.0
  9
$DIMTXT
 40
3.2000000000000002
  9
$DIMCEN
 40
0.09
  9
$DIMTSZ
 40
0.0
  9
$DIMTOL
 70
     0
  9
$DIMLIM
 70
     0
  9
$DIMTIH
 70
     0
  9
$DIMTOH
 70
     0
  9
$DIMSE1
 70
     0
  9
$DIMSE2
 70
     0
  9
$DIMTAD
 70
     1
  9
$DIMZIN
 70
     0
  9
$DIMBLK
  1

  9
$DIMASO
 70
     1
  9
$DIMSHO
 70
     0
  9
$DIMPOST
  1

  9
$DIMAPOST
  1

  9
$DIMALT
 70
     0
  9
$DIMALTD
 70
     2
  9
$DIMALTF
 40
25.399999999999999
  9
$DIMLFAC
 40
1.0
  9
$DIMTOFL
 70
     0
  9
$DIMTVP
 40
1.6000000000000001
  9
$DIMTIX
 70
     1
  9
$DIMSOXD
 70
     0
  9
$DIMSAH
 70
     0
  9
$DIMBLK1
  1

  9
$DIMBLK2
  1

  9
$DIMSTYLE
  2
STANDARD
  9
$DIMCLRD
 70
     0
  9
$DIMCLRE
 70
     0
  9
$DIMCLRT
 70
     0
  9
$DIMTFAC
 40
1.0
  9
$DIMGAP
 40
0.09
  9
$LUNITS
 70
     2
  9
$LUPREC
 70
     4
  9
$SKETCHINC
 40
0.1
  9
$FILLETRAD
 40
2.0
  9
$AUNITS
 70
     0
  9
$AUPREC
 70
     0
  9
$MENU
  1
E:\r13\win\SUPPORT\ACAD
  9
$ELEVATION
 40
0.0
  9
$PELEVATION
 40
0.0
  9
$THICKNESS
 40
0.0
  9
$LIMCHECK
 70
     0
  9
$BLIPMODE
 70
     0
  9
$CHAMFERA
 40
0.0
  9
$CHAMFERB
 40
0.0
  9
$SKPOLY
 70
     0
  9
$TDCREATE
 40
2447977.5416277782
  9
$TDUPDATE
 40
2456598.6873786459
  9
$TDINDWG
 40
0.0163447569
  9
$TDUSRTIMER
 40
0.0163447569
  9
$USRTIMER
 70
     1
  9
$ANGBASE
 50
0.0
  9
$ANGDIR
 70
     0
  9
$PDMODE
 70
     0
  9
$PDSIZE
 40
0.0
  9
$PLINEWID
 40
0.0
  9
$COORDS
 70
     1
  9
$SPLFRAME
 70
     0
  9
$SPLINETYPE
 70
     6
  9
$SPLINESEGS
 70
     8
  9
$ATTDIA
 70
     0
  9
$ATTREQ
 70
     1
  9
$HANDLING
 70
     1
  9
$HANDSEED
  5
521
  9
$SURFTAB1
 70
     6
  9
$SURFTAB2
 70
     6
  9
$SURFTYPE
 70
     6
  9
$SURFU
 70
     6
  9
$SURFV
 70
     6
  9
$UCSNAME
  2

  9
$UCSORG
 10
0.0
 20
0.0
 30
0.0
  9
$UCSXDIR
 10
1.0
 20
0.0
 30
0.0
  9
$UCSYDIR
 10
0.0
 20
1.0
 30
0.0
  9
$PUCSNAME
  2

  9
$PUCSORG
 10
0.0
 20
0.0
 30
0.0
  9
$PUCSXDIR
 10
1.0
 20
0.0
 30
0.0
  9
$PUCSYDIR
 10
0.0
 20
1.0
 30
0.0
  9
$USERI1
 70
     0
  9
$USERI2
 70
     1
  9
$USERI3
 70
     1
  9
$USERI4
 70
     0
  9
$USERI5
 70
     0
  9
$USERR1
 40
0.0
  9
$USERR2
 40
0.0
  9
$USERR3
 40
0.0
  9
$USERR4
 40
0.0
  9
$USERR5
 40
0.0
  9
$WORLDVIEW
 70
     1
  9
$SHADEDGE
 70
     3
  9
$SHADEDIF
 70
    70
  9
$TILEMODE
 70
     1
  9
$MAXACTVP
 70
    16
  9
$PLIMCHECK
 70
     0
  9
$PEXTMIN
 10
1.0000000000000000E+020
 20
1.0000000000000000E+020
 30
1.0000000000000000E+020
  9
$PEXTMAX
 10
-1.0000000000000000E+020
 20
-1.0000000000000000E+020
 30
-1.0000000000000000E+020
  9
$PLIMMIN
 10
0.0
 20
0.0
  9
$PLIMMAX
 10
12.0
 20
9.0
  9
$UNITMODE
 70
     0
  9
$VISRETAIN
 70
     0
  9
$PLINEGEN
 70
     1
  9
$PSLTSCALE
 70
     0
  0
ENDSEC
  0
SECTION
  2
TABLES
  0
TABLE
  2
VPORT
 70
     1
  0
VPORT
  2
*ACTIVE
 70
     0
 10
0.0
 20
0.0
 11
1.0
 21
1.0
 12
187.49427839065231
 22
169.9063198933564
 13
0.0
 23
0.0
 14
10.0
 24
10.0
 15
10.0
 25
10.0
 16
0.0
 26
0.0
 36
1.0
 17
0.0
 27
0.0
 37
0.0
 40
348.89937369551939
 41
1.831871345029239
 42
50.0
 43
0.0
 44
0.0
 50
0.0
 51
0.0
 71
     0
 72
   500
 73
     1
 74
     0
 75
     0
 76
     0
 77
     0
 78
     2
  0
ENDTAB
  0
TABLE
  2
LTYPE
 70
     4
  0
LTYPE
  2
CONTINUOUS
 70
     0
  3
Solid Line
 72
    65
 73
     0
 40
0.0
  0
LTYPE
  2
CENTER
 70
     0
  3
____ _ ____ _ ____ _ ____ _ ____ _ ____ _ ____
 72
    65
 73
     4
 40
2.0
 49
1.25
 49
-0.25
 49
0.25
 49
-0.25
  0
LTYPE
  2
HIDDEN
 70
     0
  3
_ _ _ _ _ _ _ _ _ _ _ _ _ _ _ _ _ _ _ _ _ _ _
 72
    65
 73
     2
 40
0.375
 49
0.25
 49
-0.125
  0
LTYPE
  2
PHANTOM2
 70
     0
  3
___ _ _ ___ _ _ ___ _ _ ___ _ _
 72
    65
 73
     6
 40
1.25
 49
0.625
 49
-0.125
 49
0.125
 49
-0.125
 49
0.125
 49
-0.125
  0
ENDTAB
  0
TABLE
  2
LAYER
 70
     4
  0
LAYER
  2
0
 70
     0
 62
     7
  6
CONTINUOUS
  0
LAYER
  2
1
 70
     0
 62
     1
  6
CENTER
  0
LAYER
  2
2
 70
     0
 62
     2
  6
HIDDEN
  0
LAYER
  2
3
 70
     0
 62
     3
  6
CONTINUOUS
  0
ENDTAB
  0
TABLE
  2
STYLE
 70
     2
  0
STYLE
  2
STANDARD
 70
     0
 40
0.0
 41
1.0
 50
0.0
 71
     0
 42
0.2
  3
TXT
  4
BIGFONT
  0
STYLE
  2
STANDARD1
 70
     0
 40
0.0
 41
1.0
 50
0.0
 71
     0
 42
3.0
  3
txt
  4

  0
ENDTAB
  0
TABLE
  2
VIEW
 70
     1
  0
VIEW
  2
ALL
 70
     0
 40
270.0
 10
220.99159663865549
 20
135.0
 41
0.0
 11
0.0
 21
0.0
 31
1.0
 12
0.0
 22
0.0
 32
0.0
 42
0.0
 43
0.0
 44
0.0
 50
0.0
 71
     0
  0
ENDTAB
  0
TABLE
  2
UCS
 70
     0
  0
ENDTAB
  0
TABLE
  2
APPID
 70
     3
  0
APPID
  2
ACAD
 70
     0
  0
APPID
  2
ACAD_MLEADERVER
 70
     0
  0
APPID
  2
ACAD_NAV_VCDISPLAY
 70
     0
  0
ENDTAB
  0
TABLE
  2
DIMSTYLE
 70
     1
  0
DIMSTYLE
  2
STANDARD
 70
     0
  3

  4

  5

  6

  7

 40
1.0
 41
0.18
 42
0.0625
 43
0.38
 44
0.18
 45
0.0
 46
0.0
 47
0.0
 48
0.0
140
0.18
141
0.09
142
0.0
143
25.399999999999999
144
1.0
145
0.0
146
1.0
147
0.09
 71
     0
 72
     0
 73
     1
 74
     1
 75
     0
 76
     0
 77
     0
 78
     0
170
     0
171
     2
172
     0
173
     0
174
     0
175
     0
176
     0
177
     0
178
     0
  0
ENDTAB
  0
ENDSEC
  0
SECTION
  2
BLOCKS
  0
BLOCK
  8
0
  2
$MODEL_SPACE
 70
     0
 10
0.0
 20
0.0
 30
0.0
  3
$MODEL_SPACE
  1

  0
ENDBLK
  5
19F
  8
0
  0
BLOCK
 67
     1
  8
0
  2
$PAPER_SPACE
 70
     0
 10
0.0
 20
0.0
 30
0.0
  3
$PAPER_SPACE
  1

  0
ENDBLK
  5
19D
 67
     1
  8
0
  0
ENDSEC
  0
SECTION
  2
ENTITIES
  0
LINE
  5
267
  8
1
 10
168.16431994836199
 20
96.055102693180288
 30
0.0
 11
194.16431994836191
 21
96.055102693180316
 31
0.0
  0
LINE
  5
268
  8
1
 10
168.16431994836211
 20
129.05510269318029
 30
0.0
 11
194.16431994836199
 21
129.05510269318029
 31
0.0
  0
LINE
  5
269
  8
1
 10
39.664319948361822
 20
116.5551026931803
 30
0.0
 11
39.664319948361822
 21
74.355102645180281
 31
0.0
  0
LINE
  5
26A
  8
1
 10
17.164319948361818
 20
96.055102693180288
 30
0.0
 11
51.664319948361822
 21
96.055102693180288
 31
0.0
  0
LINE
  5
26B
  8
0
 10
46.164319948361822
 20
80.555102693180288
 30
0.0
 11
22.664319948361818
 21
80.555102693180288
 31
0.0
  0
LINE
  5
26C
  8
0
 10
24.164319943361878
 20
81.605102690180317
 30
0.0
 11
33.664319943361882
 21
81.605102690180317
 31
0.0
  0
LINE
  5
26D
  8
0
 10
22.664319948361818
 20
111.5551026931803
 30
0.0
 11
46.164319948361822
 21
111.5551026931803
 31
0.0
  0
LINE
  5
26E
  8
0
 10
24.164319943361878
 20
110.5051026951803
 30
0.0
 11
33.664319943361882
 21
110.5051026951803
 31
0.0
  0
LINE
  5
26F
  8
0
 10
22.164319948361818
 20
81.055102693180288
 30
0.0
 11
22.164319948361818
 21
111.0551026931803
 31
0.0
  0
LINE
  5
270
  8
0
 10
23.164319943361878
 20
82.605102690180303
 30
0.0
 11
23.164319943361878
 21
109.5051026951803
 31
0.0
  0
ARC
  5
271
  8
0
 10
24.164319943361878
 20
82.605102690180303
 30
0.0
 40
1.0
 50
180.0
 51
270.0
  0
ARC
  5
272
  8
0
 10
22.664319948361818
 20
81.055102693180288
 30
0.0
 40
0.5
 50
180.0
 51
270.0
  0
ARC
  5
273
  8
0
 10
24.164319943361878
 20
109.5051026951803
 30
0.0
 40
1.0
 50
90.0
 51
180.0
  0
ARC
  5
274
  8
0
 10
22.664319948361818
 20
111.0551026931803
 30
0.0
 40
0.5
 50
90.0
 51
180.0
  0
LINE
  5
275
  8
1
 10
40.164319948361822
 20
108.5551026931803
 30
0.0
 11
40.164319948361822
 21
150.75510274018029
 31
0.0
  0
LINE
  5
276
  8
0
 10
56.664319953361769
 20
142.50510269518031
 30
0.0
 11
56.664319953361769
 21
115.6051026901802
 31
0.0
  0
LINE
  5
277
  8
0
 10
57.664319948361822
 20
144.05510269318029
 30
0.0
 11
57.664319948361822
 21
114.0551026931803
 31
0.0
  0
LINE
  5
278
  8
0
 10
45.164319953361762
 20
142.50510269518031
 30
0.0
 11
45.164319953361762
 21
115.6051026901802
 31
0.0
  0
LINE
  5
279
  8
0
 10
33.164319948361822
 20
114.0551026931803
 30
0.0
 11
33.164319948361822
 21
144.05510269318029
 31
0.0
  0
LINE
  5
27A
  8
1
 10
62.664319948361928
 20
129.0551026931802
 30
0.0
 11
28.164319948361818
 21
129.05510269318029
 31
0.0
  0
LINE
  5
27B
  8
0
 10
34.664319943361761
 20
82.605102690180303
 30
0.0
 11
34.664319943361761
 21
109.5051026951803
 31
0.0
  0
LINE
  5
27C
  8
0
 10
46.664319948361822
 20
111.0551026931803
 30
0.0
 11
46.664319948361822
 21
81.055102693180288
 31
0.0
  0
ARC
  5
27D
  8
0
 10
39.664319948361822
 20
94.955102073180285
 30
0.0
 40
15.599999428
 50
247.38013417599839
 51
292.61986582400158
  0
ARC
  5
27E
  8
0
 10
39.664319948361822
 20
94.955102073180285
 30
0.0
 40
15.599999428
 50
247.38013417599839
 51
292.61986582400158
  0
LINE
  5
27F
  8
3
 10
39.664319948361822
 20
81.555102693180274
 30
0.0
 11
38.414319948361822
 21
86.555102693180274
 31
0.0
  0
LINE
  5
280
  8
3
 10
39.664319948361822
 20
81.555102693180274
 30
0.0
 11
40.914319948361822
 21
86.555102693180274
 31
0.0
  0
ARC
  5
281
  8
0
 10
33.664319943361882
 20
82.605102690180303
 30
0.0
 40
1.0
 50
270.0
 51
0.0
  0
LINE
  5
282
  8
3
 10
38.414319948361822
 20
86.555102693180274
 30
0.0
 11
40.914319948361822
 21
86.555102693180274
 31
0.0
  0
ARC
  5
283
  8
0
 10
46.164319948361822
 20
81.055102693180288
 30
0.0
 40
0.5
 50
270.0
 51
0.0
  0
LINE
  5
284
  8
0
 10
57.164319948361822
 20
113.5551026931803
 30
0.0
 11
33.264319853361833
 21
113.5551026931803
 31
0.0
  0
ARC
  5
285
  8
0
 10
33.664319943361882
 20
109.5051026951803
 30
0.0
 40
1.0
 50
0.0
 51
90.0
  0
LINE
  5
286
  8
0
 10
33.264319853361833
 20
113.5551026931803
 30
0.0
 11
33.264319853361833
 21
111.5551026931803
 31
0.0
  0
ARC
  5
287
  8
0
 10
33.664319948361822
 20
114.0551026931803
 30
0.0
 40
0.5
 50
180.0
 51
270.0
  0
LINE
  5
288
  8
3
 10
39.664319948361822
 20
110.5551026931803
 30
0.0
 11
38.414319948361822
 21
105.5551026931803
 31
0.0
  0
LINE
  5
289
  8
3
 10
39.664319948361822
 20
110.5551026931803
 30
0.0
 11
40.914319948361822
 21
105.5551026931803
 31
0.0
  0
LINE
  5
28A
  8
3
 10
38.414319948361822
 20
105.5551026931803
 30
0.0
 11
40.914319948361822
 21
105.5551026931803
 31
0.0
  0
LINE
  5
28B
  8
0
 10
38.914319948361822
 20
113.5551026931803
 30
0.0
 11
38.914319948361822
 21
111.5551026931803
 31
0.0
  0
LINE
  5
28C
  8
0
 10
40.414319948361822
 20
113.5551026931803
 30
0.0
 11
40.414319948361822
 21
111.5551026931803
 31
0.0
  0
LINE
  5
28D
  8
0
 10
55.664319953361769
 20
114.6051026901802
 30
0.0
 11
46.164319953361769
 21
114.6051026901802
 31
0.0
  0
ARC
  5
28E
  8
0
 10
46.164319948361822
 20
111.0551026931803
 30
0.0
 40
0.5
 50
0.0
 51
90.0
  0
LINE
  5
28F
  8
0
 10
46.064320043361811
 20
113.5551026931803
 30
0.0
 11
46.064320043361811
 21
111.5551026931803
 31
0.0
  0
ARC
  5
290
  8
0
 10
46.164319953361769
 20
115.6051026901802
 30
0.0
 40
1.0
 50
180.0
 51
270.0
  0
ARC
  5
291
  8
0
 10
55.664319953361769
 20
115.6051026901802
 30
0.0
 40
1.0
 50
270.0
 51
0.0
  0
ARC
  5
292
  8
0
 10
57.164319948361822
 20
114.0551026931803
 30
0.0
 40
0.5
 50
270.0
 51
0.0
  0
ARC
  5
293
  8
0
 10
40.164319948361822
 20
130.1551033121803
 30
0.0
 40
15.599999428
 50
67.380134175998364
 51
112.61986582400159
  0
LINE
  5
294
  8
0
 10
33.664319948361822
 20
144.55510269318029
 30
0.0
 11
57.164319948361822
 21
144.55510269318029
 31
0.0
  0
ARC
  5
295
  8
0
 10
33.664319948361822
 20
144.05510269318029
 30
0.0
 40
0.5
 50
90.0
 51
180.0
  0
LINE
  5
296
  8
1
 10
42.91431550517666
 20
138.55512925418029
 30
0.0
 11
56.414312636546917
 21
138.55512925418029
 31
0.0
  0
LINE
  5
297
  8
0
 10
55.664319953361769
 20
143.50510269518031
 30
0.0
 11
46.164319953361769
 21
143.50510269518031
 31
0.0
  0
LINE
  5
298
  8
1
 10
49.6643140713619
 20
131.80513068849521
 30
0.0
 11
49.664314071361673
 21
145.30512781986539
 31
0.0
  0
ARC
  5
299
  8
0
 10
46.164319953361769
 20
142.50510269518031
 30
0.0
 40
1.0
 50
90.0
 51
180.0
  0
ARC
  5
29A
  8
0
 10
55.664319953361769
 20
142.50510269518031
 30
0.0
 40
1.0
 50
0.0
 51
90.0
  0
ARC
  5
29B
  8
0
 10
57.164319948361822
 20
144.05510269318029
 30
0.0
 40
0.5
 50
0.0
 51
90.0
  0
LINE
  5
29C
  8
0
 10
34.164319949961737
 20
144.55510269318029
 30
0.0
 11
33.664319948361822
 21
144.55510269318029
 31
0.0
  0
CIRCLE
  5
29D
  8
2
 10
49.664314070861792
 20
138.55512925418029
 30
0.0
 40
2.749998565685102
  0
LINE
  5
29E
  8
2
 10
49.414304653610202
 20
133.79201771225311
 30
0.0
 11
45.664306861618911
 21
135.9570799439428
 31
0.0
  0
LINE
  5
29F
  8
2
 10
49.914304653657041
 20
133.79201771225311
 30
0.0
 11
53.66430243440039
 21
135.95707994394269
 31
0.0
  0
ARC
  5
2A0
  8
2
 10
49.664304653633621
 20
134.22503041413179
 30
0.0
 40
0.5
 50
239.99999999690789
 51
300.0000000030916
  0
LINE
  5
2A1
  8
2
 10
53.914302434376957
 20
136.3900926458214
 30
0.0
 11
53.91430243437707
 21
140.72021710840539
 31
0.0
  0
ARC
  5
2A2
  8
2
 10
53.414302434376957
 20
136.3900926458214
 30
0.0
 40
0.5
 50
300.00000000309171
 51
359.99999999999841
  0
ARC
  5
2A3
  8
2
 10
53.414302434377078
 20
140.72021710840539
 30
0.0
 40
0.5
 50
0.0
 51
59.999999996908258
  0
LINE
  5
2A4
  8
2
 10
53.66430243440039
 20
141.1532298102841
 30
0.0
 11
49.914304648032953
 21
143.31829204197379
 31
0.0
  0
ARC
  5
2A5
  8
2
 10
49.664304648009541
 20
142.88527934009511
 30
0.0
 40
0.5
 50
59.999999996908258
 51
120.0000000030919
  0
LINE
  5
2A6
  8
2
 10
45.664306861618911
 20
141.15322981028419
 30
0.0
 11
49.414304647986228
 21
143.31829204197379
 31
0.0
  0
LINE
  5
2A7
  8
2
 10
45.414306861642331
 20
136.39009264582151
 30
0.0
 11
45.414306861642331
 21
140.72021710840551
 31
0.0
  0
ARC
  5
2A8
  8
2
 10
45.914306861642316
 20
136.39009264582151
 30
0.0
 40
0.5
 50
180.0
 51
239.99999999690809
  0
ARC
  5
2A9
  8
2
 10
45.914306861642316
 20
140.72021710840551
 30
0.0
 40
0.5
 50
120.0000000030919
 51
179.9999999999992
  0
ARC
  5
2AA
  8
2
 10
49.664304648009541
 20
123.885279340095
 30
0.0
 40
0.5
 50
59.999999996908258
 51
120.0000000030919
  0
LINE
  5
2AB
  8
2
 10
53.66430243440039
 20
122.1532298102841
 30
0.0
 11
49.914304648032953
 21
124.31829204197381
 31
0.0
  0
ARC
  5
2AC
  8
2
 10
53.414302434377078
 20
121.72021710840539
 30
0.0
 40
0.5
 50
0.0
 51
59.999999996908258
  0
ARC
  5
2AD
  8
2
 10
53.414302434376957
 20
117.3900926458214
 30
0.0
 40
0.5
 50
300.00000000309171
 51
359.99999999999841
  0
LINE
  5
2AE
  8
2
 10
53.914302434376957
 20
117.3900926458214
 30
0.0
 11
53.91430243437707
 21
121.72021710840539
 31
0.0
  0
ARC
  5
2AF
  8
2
 10
49.664304653633621
 20
115.22503041413179
 30
0.0
 40
0.5
 50
239.99999999690789
 51
300.0000000030916
  0
LINE
  5
2B0
  8
2
 10
49.914304653657041
 20
114.7920177122531
 30
0.0
 11
53.66430243440039
 21
116.9570799439427
 31
0.0
  0
CIRCLE
  5
2B1
  8
2
 10
49.664314070861792
 20
119.5551292541803
 30
0.0
 40
2.749998565685102
  0
LINE
  5
2B2
  8
1
 10
49.6643140713619
 20
112.8051306884952
 30
0.0
 11
49.664314071361673
 21
126.3051278198654
 31
0.0
  0
LINE
  5
2B3
  8
2
 10
45.664306861618911
 20
122.1532298102842
 30
0.0
 11
49.414304647986228
 21
124.31829204197381
 31
0.0
  0
LINE
  5
2B4
  8
2
 10
49.414304653610202
 20
114.7920177122531
 30
0.0
 11
45.664306861618911
 21
116.9570799439428
 31
0.0
  0
LINE
  5
2B5
  8
1
 10
42.91431550517666
 20
119.5551292541803
 30
0.0
 11
56.414312636546917
 21
119.5551292541803
 31
0.0
  0
ARC
  5
2B6
  8
2
 10
45.914306861642316
 20
121.72021710840551
 30
0.0
 40
0.5
 50
120.0000000030919
 51
179.9999999999992
  0
ARC
  5
2B7
  8
2
 10
45.914306861642316
 20
117.3900926458215
 30
0.0
 40
0.5
 50
180.0
 51
239.99999999690809
  0
LINE
  5
2B8
  8
2
 10
45.414306861642331
 20
117.3900926458215
 30
0.0
 11
45.414306861642331
 21
121.72021710840551
 31
0.0
  0
LINE
  5
2B9
  8
2
 10
25.914322105142329
 20
103.3900408578215
 30
0.0
 11
25.914322105142329
 21
107.7201653204055
 31
0.0
  0
ARC
  5
2BA
  8
2
 10
26.41432210514234
 20
103.3900408578215
 30
0.0
 40
0.5
 50
180.0
 51
239.99999999690809
  0
ARC
  5
2BB
  8
2
 10
26.41432210514234
 20
107.7201653204055
 30
0.0
 40
0.5
 50
120.0000000030919
 51
179.9999999999992
  0
LINE
  5
2BC
  8
2
 10
26.16432210511892
 20
108.15317802228419
 30
0.0
 11
29.91431989148623
 21
110.3182402539738
 31
0.0
  0
CIRCLE
  5
2BD
  8
2
 10
30.164329314361801
 20
105.55507746618029
 30
0.0
 40
2.749998565685102
  0
LINE
  5
2BE
  8
2
 10
34.414317677876973
 20
103.3900408578214
 30
0.0
 11
34.414317677877079
 21
107.7201653204054
 31
0.0
  0
ARC
  5
2BF
  8
2
 10
33.914317677876973
 20
103.3900408578214
 30
0.0
 40
0.5
 50
300.00000000309171
 51
359.99999999999841
  0
ARC
  5
2C0
  8
2
 10
33.914317677877079
 20
107.7201653204054
 30
0.0
 40
0.5
 50
0.0
 51
59.999999996908258
  0
LINE
  5
2C1
  8
2
 10
34.164317677900392
 20
108.1531780222841
 30
0.0
 11
30.414319891532951
 21
110.3182402539738
 31
0.0
  0
ARC
  5
2C2
  8
2
 10
30.164319891509539
 20
109.885227552095
 30
0.0
 40
0.5
 50
59.999999996908258
 51
120.0000000030919
  0
LINE
  5
2C3
  8
1
 10
23.414330748676662
 20
105.55507746618029
 30
0.0
 11
36.914327880046933
 21
105.55507746618029
 31
0.0
  0
LINE
  5
2C4
  8
2
 10
29.914319897110211
 20
100.79196592425311
 30
0.0
 11
26.16432210511892
 21
102.95702815594279
 31
0.0
  0
LINE
  5
2C5
  8
1
 10
30.164329314861899
 20
98.805078900495204
 30
0.0
 11
30.164329314861678
 21
112.3050760318654
 31
0.0
  0
LINE
  5
2C6
  8
2
 10
30.414319897157039
 20
100.79196592425311
 30
0.0
 11
34.164317677900392
 21
102.95702815594269
 31
0.0
  0
ARC
  5
2C7
  8
2
 10
30.16431989713363
 20
101.2249786261318
 30
0.0
 40
0.5
 50
239.99999999690789
 51
300.0000000030916
  0
ARC
  5
2C8
  8
2
 10
30.16431989713363
 20
82.224977008631839
 30
0.0
 40
0.5
 50
239.99999999690789
 51
300.0000000030916
  0
LINE
  5
2C9
  8
2
 10
30.414319897157039
 20
81.791964306753115
 30
0.0
 11
34.164317677900392
 21
83.957026538442719
 31
0.0
  0
LINE
  5
2CA
  8
2
 10
29.914319897110211
 20
81.791964306753144
 30
0.0
 11
26.16432210511892
 21
83.957026538442832
 31
0.0
  0
LINE
  5
2CB
  8
1
 10
23.414330748676662
 20
86.555075848680303
 30
0.0
 11
36.914327880046933
 21
86.555075848680303
 31
0.0
  0
ARC
  5
2CC
  8
2
 10
33.914317677877079
 20
88.720163702905424
 30
0.0
 40
0.5
 50
0.0
 51
59.999999996908258
  0
ARC
  5
2CD
  8
2
 10
33.914317677876973
 20
84.390039240321457
 30
0.0
 40
0.5
 50
300.00000000309171
 51
359.99999999999841
  0
LINE
  5
2CE
  8
2
 10
34.414317677876973
 20
84.390039240321414
 30
0.0
 11
34.414317677877079
 21
88.720163702905424
 31
0.0
  0
CIRCLE
  5
2CF
  8
2
 10
30.164329314361801
 20
86.555075848680303
 30
0.0
 40
2.749998565685102
  0
ARC
  5
2D0
  8
2
 10
26.41432210514234
 20
88.720163702905495
 30
0.0
 40
0.5
 50
120.0000000030919
 51
179.9999999999992
  0
ARC
  5
2D1
  8
2
 10
26.41432210514234
 20
84.390039240321556
 30
0.0
 40
0.5
 50
180.0
 51
239.99999999690809
  0
LINE
  5
2D2
  8
2
 10
25.914322105142329
 20
84.390039240321556
 30
0.0
 11
25.914322105142329
 21
88.720163702905495
 31
0.0
  0
LINE
  5
2D3
  8
1
 10
30.164329314861899
 20
79.805077282995214
 30
0.0
 11
30.164329314861678
 21
93.305074414365436
 31
0.0
  0
LINE
  5
2D4
  8
2
 10
34.164317677900392
 20
89.153176404784162
 30
0.0
 11
30.414319891532951
 21
91.318238636473808
 31
0.0
  0
LINE
  5
2D5
  8
2
 10
26.16432210511892
 20
89.153176404784219
 30
0.0
 11
29.91431989148623
 21
91.318238636473808
 31
0.0
  0
ARC
  5
2D6
  8
2
 10
30.164319891509539
 20
90.885225934595084
 30
0.0
 40
0.5
 50
59.999999996908258
 51
120.0000000030919
  0
LINE
  5
2D7
  8
2
 10
34.914322740599118
 20
109.0551212088816
 30
0.0
 11
44.414317785693122
 21
109.0551212088816
 31
0.0
  0
LINE
  5
2D8
  8
2
 10
34.914322740599118
 20
83.055134769677025
 30
0.0
 11
44.414317785693122
 21
83.055134769677025
 31
0.0
  0
ARC
  5
2D9
  8
2
 10
-49.664314993455719
 20
92.751282135463896
 30
0.0
 40
13.99999269803325
210
0.0
220
0.0
230
-1.0
 50
338.21321070200202
 51
0.0
  0
ARC
  5
2DA
  8
2
 10
-29.664325424836761
 20
92.751282135463896
 30
0.0
 40
13.99999269803325
210
0.0
220
0.0
230
-1.0
 50
180.0
 51
201.78678929799801
  0
LINE
  5
2DB
  8
2
 10
35.66432229542238
 20
109.0551212088816
 30
0.0
 11
35.66432229542238
 21
80.555102693180288
 31
0.0
  0
LINE
  5
2DC
  8
2
 10
43.664318122869979
 20
109.0551212088816
 30
0.0
 11
43.664318122870178
 21
80.555102693180288
 31
0.0
  0
LINE
  5
2DD
  8
2
 10
37.696806765340739
 20
80.555136073599684
 30
0.0
 11
37.696806765340739
 21
83.055134769677025
 31
0.0
  0
LINE
  5
2DE
  8
2
 10
44.414317785693122
 20
80.555136073599684
 30
0.0
 11
44.414317785693122
 21
83.055134769677025
 31
0.0
  0
LINE
  5
2DF
  8
2
 10
41.63183377095163
 20
80.555136073599684
 30
0.0
 11
41.63183377095163
 21
83.055134769677025
 31
0.0
  0
LINE
  5
2E0
  8
2
 10
36.664321773853551
 20
87.555132422616282
 30
0.0
 11
42.664318644439163
 21
87.555132422616282
 31
0.0
  0
LINE
  5
2E1
  8
2
 10
36.164322034637969
 20
113.5551188618209
 30
0.0
 11
36.164322034637969
 21
144.5551026931802
 31
0.0
  0
LINE
  5
2E2
  8
2
 10
44.164317862085447
 20
113.5551188618209
 30
0.0
 11
44.164317862085447
 21
144.5551026931802
 31
0.0
  0
LINE
  5
2E3
  8
2
 10
37.696806765340739
 20
111.5551199049589
 30
0.0
 11
37.696806765340739
 21
109.0551212088816
 31
0.0
  0
LINE
  5
2E4
  8
2
 10
41.63183377095163
 20
111.5551199049589
 30
0.0
 11
41.63183377095163
 21
109.0551212088816
 31
0.0
  0
LINE
  5
2E5
  8
2
 10
44.414317785693122
 20
111.5551199049589
 30
0.0
 11
44.414317785693122
 21
109.0551212088816
 31
0.0
  0
ARC
  5
2E6
  8
2
 10
-50.164314732671301
 20
132.35895663131581
 30
0.0
 40
13.99999269803325
210
0.0
220
0.0
230
-1.0
 50
0.0
 51
21.786789297998009
  0
ARC
  5
2E7
  8
2
 10
-30.16432516405235
 20
132.35895663131581
 30
0.0
 40
13.99999269803325
210
0.0
220
0.0
230
-1.0
 50
158.21321070200199
 51
180.0
  0
LINE
  5
2E8
  8
2
 10
37.164321513068899
 20
137.55510634416351
 30
0.0
 11
43.164318383654738
 21
137.55510634416351
 31
0.0
  0
LINE
  5
2E9
  8
2
 10
34.914322740599118
 20
80.555136073599684
 30
0.0
 11
34.914322740599118
 21
83.055134769677025
 31
0.0
  0
LINE
  5
2EA
  8
2
 10
34.914322740599118
 20
111.5551199049589
 30
0.0
 11
34.914322740599118
 21
109.0551212088816
 31
0.0
  0
LINE
  5
2EB
  8
2
 10
120.4143171561247
 20
111.5551199049589
 30
0.0
 11
120.4143171561247
 21
109.0551212088816
 31
0.0
  0
LINE
  5
2EC
  8
2
 10
120.4143171561247
 20
80.555136073599684
 30
0.0
 11
120.4143171561247
 21
83.055134769677025
 31
0.0
  0
LINE
  5
2ED
  8
2
 10
118.1643183836549
 20
137.55510634416351
 30
0.0
 11
112.1643215130691
 21
137.55510634416351
 31
0.0
  0
ARC
  5
2EE
  8
2
 10
-125.1643147326715
 20
132.35895663131581
 30
0.0
 40
13.99999269803325
210
0.0
220
0.0
230
-1.0
 50
0.0
 51
21.786789297998009
  0
ARC
  5
2EF
  8
2
 10
-105.1643251640525
 20
132.35895663131581
 30
0.0
 40
13.99999269803325
210
0.0
220
0.0
230
-1.0
 50
158.21321070200199
 51
180.0
  0
LINE
  5
2F0
  8
2
 10
110.9143221110307
 20
111.5551199049589
 30
0.0
 11
110.9143221110307
 21
109.0551212088816
 31
0.0
  0
LINE
  5
2F1
  8
2
 10
113.6968061257722
 20
111.5551199049589
 30
0.0
 11
113.6968061257722
 21
109.0551212088816
 31
0.0
  0
LINE
  5
2F2
  8
2
 10
117.6318331313831
 20
111.5551199049589
 30
0.0
 11
117.6318331313831
 21
109.0551212088816
 31
0.0
  0
LINE
  5
2F3
  8
2
 10
111.1643220346384
 20
113.5551188618209
 30
0.0
 11
111.1643220346384
 21
144.5551026931802
 31
0.0
  0
LINE
  5
2F4
  8
2
 10
119.16431786208589
 20
113.5551188618209
 30
0.0
 11
119.16431786208589
 21
144.5551026931802
 31
0.0
  0
LINE
  5
2F5
  8
2
 10
118.6643181228703
 20
87.555132422616282
 30
0.0
 11
112.66432125228469
 21
87.555132422616282
 31
0.0
  0
LINE
  5
2F6
  8
2
 10
113.6968061257722
 20
80.555136073599684
 30
0.0
 11
113.6968061257722
 21
83.055134769677025
 31
0.0
  0
LINE
  5
2F7
  8
2
 10
110.9143221110307
 20
80.555136073599684
 30
0.0
 11
110.9143221110307
 21
83.055134769677025
 31
0.0
  0
LINE
  5
2F8
  8
2
 10
117.6318331313831
 20
80.555136073599684
 30
0.0
 11
117.6318331313831
 21
83.055134769677025
 31
0.0
  0
LINE
  5
2F9
  8
2
 10
111.6643217738539
 20
109.0551212088816
 30
0.0
 11
111.6643217738537
 21
80.555102693180288
 31
0.0
  0
LINE
  5
2FA
  8
2
 10
119.66431760130151
 20
109.0551212088816
 30
0.0
 11
119.66431760130141
 21
80.555102693180288
 31
0.0
  0
ARC
  5
2FB
  8
2
 10
-125.6643144718871
 20
92.751282135463896
 30
0.0
 40
13.99999269803325
210
0.0
220
0.0
230
-1.0
 50
338.21321070200202
 51
0.0
  0
ARC
  5
2FC
  8
2
 10
-105.6643249032681
 20
92.751282135463896
 30
0.0
 40
13.99999269803325
210
0.0
220
0.0
230
-1.0
 50
180.0
 51
201.78678929799801
  0
LINE
  5
2FD
  8
2
 10
120.4143171561247
 20
83.055134769677025
 30
0.0
 11
110.9143221110307
 21
83.055134769677025
 31
0.0
  0
LINE
  5
2FE
  8
2
 10
120.4143171561247
 20
109.0551212088816
 30
0.0
 11
110.9143221110307
 21
109.0551212088816
 31
0.0
  0
LINE
  5
2FF
  8
1
 10
180.16431994836211
 20
150.75510274016389
 30
0.0
 11
180.16431994836211
 21
74.355102645196695
 31
0.0
  0
ARC
  5
300
  8
0
 10
180.1642939603623
 20
94.955102073180285
 30
0.0
 40
15.599999428
 50
247.38013417599839
 51
292.61986582400158
  0
ARC
  5
301
  8
0
 10
180.1642939603623
 20
130.1551033121803
 30
0.0
 40
15.599999428
 50
67.380134175998364
 51
112.61986582400159
  0
LINE
  5
302
  8
0
 10
173.55182829959631
 20
81.555102693180302
 30
0.0
 11
173.55182829959639
 21
110.5551026931803
 31
0.0
  0
LINE
  5
303
  8
0
 10
183.59655559886221
 20
81.555102693180274
 30
0.0
 11
183.5965555988623
 21
110.5551026931803
 31
0.0
  0
LINE
  5
304
  8
2
 10
175.16431994836199
 20
143.38522755209499
 30
0.0
 11
186.66431994836199
 21
143.38522755209499
 31
0.0
  0
LINE
  5
305
  8
2
 10
175.16431994836199
 20
140.97016532039379
 30
0.0
 11
186.66431994836199
 21
140.97016532039379
 31
0.0
  0
LINE
  5
306
  8
2
 10
175.16431994836199
 20
133.7249786261319
 30
0.0
 11
186.66431994836199
 21
133.7249786261319
 31
0.0
  0
LINE
  5
307
  8
2
 10
175.16431994836199
 20
136.14004085783321
 30
0.0
 11
186.66431994836199
 21
136.14004085783321
 31
0.0
  0
LINE
  5
308
  8
2
 10
175.16431994836191
 20
133.7249786261319
 30
0.0
 11
175.16431994836199
 21
143.3852275520951
 31
0.0
  0
LINE
  5
309
  8
2
 10
186.66431994836199
 20
143.32749478218031
 30
0.0
 11
186.66431994836191
 21
133.7249786261319
 31
0.0
  0
LINE
  5
30A
  8
2
 10
189.16431994836199
 20
141.30512919968029
 30
0.0
 11
186.66431994836199
 21
141.30512919968029
 31
0.0
  0
LINE
  5
30B
  8
2
 10
189.16431994836199
 20
135.80512919968021
 30
0.0
 11
186.66431994836199
 21
135.80512919968021
 31
0.0
  0
LINE
  5
314
  8
2
 10
175.16431994836211
 20
91.385174430095034
 30
0.0
 11
186.66431994836211
 21
91.385174430095034
 31
0.0
  0
LINE
  5
315
  8
2
 10
175.16431994836211
 20
88.970112198393764
 30
0.0
 11
186.66431994836211
 21
88.970112198393764
 31
0.0
  0
LINE
  5
316
  8
2
 10
175.16431994836211
 20
81.724925504131804
 30
0.0
 11
186.66431994836211
 21
81.724925504131804
 31
0.0
  0
LINE
  5
317
  8
2
 10
175.16431994836211
 20
84.139987735833188
 30
0.0
 11
186.66431994836211
 21
84.139987735833188
 31
0.0
  0
LINE
  5
318
  8
2
 10
175.16431994836199
 20
81.724925504131804
 30
0.0
 11
175.16431994836211
 21
91.385174430095034
 31
0.0
  0
LINE
  5
319
  8
2
 10
186.66431994836211
 20
91.327441660180298
 30
0.0
 11
186.66431994836199
 21
81.724925504131804
 31
0.0
  0
LINE
  5
31A
  8
2
 10
189.16431994836211
 20
89.305076077680226
 30
0.0
 11
186.66431994836211
 21
89.305076077680226
 31
0.0
  0
LINE
  5
31B
  8
2
 10
189.16431994836211
 20
83.805076077680226
 30
0.0
 11
186.66431994836211
 21
83.805076077680226
 31
0.0
  0
ARC
  5
31C
  8
0
 10
115.16431994836201
 20
32.355128633189572
 30
0.0
 40
7.0
 50
87.950369929703328
 51
90.0
  0
ARC
  5
31D
  8
0
 10
113.66431994836201
 20
23.355128633189569
 30
0.0
 40
16.0
 50
90.0
 51
180.0
  0
LINE
  5
31E
  8
0
 10
97.664319948362049
 20
23.355128633189569
 30
0.0
 11
113.66431994836201
 21
23.355128633189569
 31
0.0
  0
LINE
  5
31F
  8
1
 10
105.6643200028621
 20
20.855128633189569
 30
0.0
 11
105.664320002862
 21
40.035955976939647
 31
0.0
  0
ARC
  5
320
  8
0
 10
115.16431994836201
 20
32.355128633189572
 30
0.0
 40
7.0
 50
270.0
 51
272.04367388162291
  0
LINE
  5
321
  8
0
 10
113.839297275362
 20
25.355128633189558
 30
0.0
 11
115.16431994836201
 21
25.355128633189558
 31
0.0
  0
LINE
  5
322
  8
0
 10
113.66431994836201
 20
23.355128633189569
 30
0.0
 11
113.839297275362
 21
25.355128633189558
 31
0.0
  0
LINE
  5
323
  8
2
 10
101.4143071791425
 20
31.11316876707372
 30
0.0
 11
101.4143071791425
 21
25.85512863318959
 31
0.0
  0
LINE
  5
324
  8
2
 10
98.664319943361988
 20
28.922892982689579
 30
0.0
 11
100.27589211986199
 21
28.922892982689579
 31
0.0
  0
LINE
  5
325
  8
2
 10
102.914320002862
 20
23.355128633189569
 30
0.0
 11
102.914320002862
 21
25.855128633189569
 31
0.0
  0
LINE
  5
326
  8
2
 10
101.4143071791424
 20
25.855128633189569
 30
0.0
 11
109.9143027518771
 21
25.855128633189569
 31
0.0
  0
ARC
  5
327
  8
2
 10
113.66431994836201
 20
23.355128633189569
 30
0.0
 40
14.499999985000001
 50
103.9680234859502
 51
157.41933538299909
  0
LINE
  5
328
  8
2
 10
108.414320002862
 20
23.355128633189569
 30
0.0
 11
108.414320002862
 21
25.855128633189569
 31
0.0
  0
LINE
  5
329
  8
2
 10
109.9143027518771
 20
37.361818841481721
 30
0.0
 11
109.914302751877
 21
25.855128633189569
 31
0.0
  0
LINE
  5
32A
  8
2
 10
110.1643050173619
 20
37.426372183344483
 30
0.0
 11
110.1643050173619
 21
38.967620281955192
 31
0.0
  0
ARC
  5
32B
  8
0
 10
117.164305022362
 20
23.355102645189561
 30
0.0
 40
16.0
 50
0.0
 51
90.0
  0
LINE
  5
32C
  8
0
 10
133.16430502236199
 20
23.355102645189561
 30
0.0
 11
117.164305022362
 21
23.355102645189561
 31
0.0
  0
LINE
  5
32D
  8
1
 10
125.1643049678619
 20
20.855102645189561
 30
0.0
 11
125.16430496786199
 21
40.035929988939642
 31
0.0
  0
LINE
  5
32E
  8
1
 10
115.66431994836201
 20
18.355102645189561
 30
0.0
 11
115.66431994836201
 21
44.355102645180288
 31
0.0
  0
ARC
  5
32F
  8
0
 10
115.664305022362
 20
32.355102645189561
 30
0.0
 40
7.0
 50
90.0
 51
270.0
  0
LINE
  5
330
  8
1
 10
127.66430502233381
 20
32.355128633189572
 30
0.0
 11
103.6643050223902
 21
32.355128633189572
 31
0.0
  0
LINE
  5
331
  8
0
 10
116.98932769536199
 20
25.355102645189561
 30
0.0
 11
115.664305022362
 21
25.355102645189561
 31
0.0
  0
LINE
  5
332
  8
0
 10
117.164305022362
 20
23.355102645189561
 30
0.0
 11
116.98932769536199
 21
25.355102645189561
 31
0.0
  0
CIRCLE
  5
333
  8
0
 10
115.66431994836201
 20
32.355128633189572
 30
0.0
 40
6.0
  0
LINE
  5
334
  8
0
 10
113.6931576896866
 20
39.355102645189561
 30
0.0
 11
117.164305022362
 21
39.355102645189561
 31
0.0
  0
CIRCLE
  5
335
  8
2
 10
115.66431994836201
 20
32.355128633439563
 30
0.0
 40
4.0
  0
LINE
  5
336
  8
2
 10
129.41431779158151
 20
31.113142779073709
 30
0.0
 11
129.41431779158151
 21
25.855102645189589
 31
0.0
  0
LINE
  5
337
  8
2
 10
132.16430502736199
 20
28.922866994689571
 30
0.0
 11
130.5527328508619
 21
28.922866994689571
 31
0.0
  0
LINE
  5
338
  8
2
 10
127.91430496786199
 20
23.355102645189561
 30
0.0
 11
127.91430496786199
 21
25.855102645189561
 31
0.0
  0
LINE
  5
339
  8
2
 10
129.4143177915816
 20
25.855102645189561
 30
0.0
 11
120.91432221884691
 21
25.855102645189561
 31
0.0
  0
ARC
  5
33A
  8
2
 10
117.164305022362
 20
23.355102645189561
 30
0.0
 40
14.499999985000001
 50
22.58066461700092
 51
76.031976514049774
  0
LINE
  5
33B
  8
2
 10
122.41430496786199
 20
23.355102645189561
 30
0.0
 11
122.41430496786199
 21
25.855102645189561
 31
0.0
  0
LINE
  5
33C
  8
2
 10
120.91432221884691
 20
37.361792853481717
 30
0.0
 11
120.914322218847
 21
25.855102645189561
 31
0.0
  0
LINE
  5
33D
  8
2
 10
120.6643199533621
 20
37.426346195344479
 30
0.0
 11
120.6643199533621
 21
38.967594293955187
 31
0.0
  0
ARC
  5
33E
  8
2
 10
125.16432000521429
 20
90.885225934595084
 30
0.0
 40
0.5
 50
59.999999996908073
 51
120.0000000030917
  0
LINE
  5
33F
  8
2
 10
129.1643177916049
 20
89.153176404784219
 30
0.0
 11
125.4143200052376
 21
91.318238636473808
 31
0.0
  0
LINE
  5
340
  8
2
 10
121.1643222188235
 20
89.153176404784162
 30
0.0
 11
124.9143200051909
 21
91.318238636473808
 31
0.0
  0
LINE
  5
341
  8
1
 10
125.1643105818619
 20
79.805077282995214
 30
0.0
 11
125.1643105818622
 21
93.305074414365436
 31
0.0
  0
LINE
  5
342
  8
2
 10
129.41431779158151
 20
84.390039240321556
 30
0.0
 11
129.41431779158151
 21
88.720163702905495
 31
0.0
  0
ARC
  5
343
  8
2
 10
128.91431779158151
 20
84.390039240321556
 30
0.0
 40
0.5
 50
300.00000000309188
 51
0.0
  0
ARC
  5
344
  8
2
 10
128.91431779158151
 20
88.720163702905495
 30
0.0
 40
0.5
 50
0.0000000000008142
 51
59.999999996908073
  0
CIRCLE
  5
345
  8
2
 10
125.16431058236211
 20
86.555075848680303
 30
0.0
 40
2.749998565685102
  0
LINE
  5
346
  8
2
 10
120.91432221884691
 20
84.390039240321414
 30
0.0
 11
120.91432221884681
 21
88.720163702905424
 31
0.0
  0
ARC
  5
347
  8
2
 10
121.41432221884691
 20
84.390039240321457
 30
0.0
 40
0.5
 50
180.00000000000159
 51
239.99999999690829
  0
ARC
  5
348
  8
2
 10
121.41432221884681
 20
88.720163702905424
 30
0.0
 40
0.5
 50
120.0000000030917
 51
180.0
  0
LINE
  5
349
  8
1
 10
131.91430914804721
 20
86.555075848680303
 30
0.0
 11
118.4143120166769
 21
86.555075848680303
 31
0.0
  0
LINE
  5
34A
  8
2
 10
125.4143199996136
 20
81.791964306753144
 30
0.0
 11
129.1643177916049
 21
83.957026538442832
 31
0.0
  0
LINE
  5
34B
  8
2
 10
124.9143199995668
 20
81.791964306753115
 30
0.0
 11
121.1643222188235
 21
83.957026538442719
 31
0.0
  0
ARC
  5
34C
  8
2
 10
125.16431999959021
 20
82.224977008631839
 30
0.0
 40
0.5
 50
239.99999999690851
 51
300.00000000309211
  0
ARC
  5
34D
  8
2
 10
125.16431999959021
 20
101.2249786261318
 30
0.0
 40
0.5
 50
239.99999999690851
 51
300.00000000309211
  0
LINE
  5
34E
  8
2
 10
124.9143199995668
 20
100.79196592425311
 30
0.0
 11
121.1643222188235
 21
102.95702815594269
 31
0.0
  0
LINE
  5
34F
  8
1
 10
125.1643105818619
 20
98.805078900495204
 30
0.0
 11
125.1643105818622
 21
112.3050760318654
 31
0.0
  0
LINE
  5
350
  8
2
 10
125.4143199996136
 20
100.79196592425311
 30
0.0
 11
129.1643177916049
 21
102.95702815594279
 31
0.0
  0
LINE
  5
351
  8
1
 10
131.91430914804721
 20
105.55507746618029
 30
0.0
 11
118.4143120166769
 21
105.55507746618029
 31
0.0
  0
ARC
  5
352
  8
2
 10
125.16432000521429
 20
109.885227552095
 30
0.0
 40
0.5
 50
59.999999996908073
 51
120.0000000030917
  0
LINE
  5
353
  8
2
 10
121.1643222188235
 20
108.1531780222841
 30
0.0
 11
124.9143200051909
 21
110.3182402539738
 31
0.0
  0
ARC
  5
354
  8
2
 10
121.41432221884681
 20
107.7201653204054
 30
0.0
 40
0.5
 50
120.0000000030917
 51
180.0
  0
ARC
  5
355
  8
2
 10
121.41432221884691
 20
103.3900408578214
 30
0.0
 40
0.5
 50
180.00000000000159
 51
239.99999999690829
  0
LINE
  5
356
  8
2
 10
120.91432221884691
 20
103.3900408578214
 30
0.0
 11
120.91432221884681
 21
107.7201653204054
 31
0.0
  0
CIRCLE
  5
357
  8
2
 10
125.16431058236211
 20
105.55507746618029
 30
0.0
 40
2.749998565685102
  0
LINE
  5
358
  8
2
 10
129.1643177916049
 20
108.15317802228419
 30
0.0
 11
125.4143200052376
 21
110.3182402539738
 31
0.0
  0
ARC
  5
359
  8
2
 10
128.91431779158151
 20
107.7201653204055
 30
0.0
 40
0.5
 50
0.0000000000008142
 51
59.999999996908073
  0
ARC
  5
35A
  8
2
 10
128.91431779158151
 20
103.3900408578215
 30
0.0
 40
0.5
 50
300.00000000309188
 51
0.0
  0
LINE
  5
35B
  8
2
 10
129.41431779158151
 20
103.3900408578215
 30
0.0
 11
129.41431779158151
 21
107.7201653204055
 31
0.0
  0
LINE
  5
35C
  8
2
 10
109.9143330350815
 20
117.3900926458215
 30
0.0
 11
109.9143330350815
 21
121.72021710840551
 31
0.0
  0
ARC
  5
35D
  8
2
 10
109.4143330350815
 20
117.3900926458215
 30
0.0
 40
0.5
 50
300.00000000309188
 51
0.0
  0
ARC
  5
35E
  8
2
 10
109.4143330350815
 20
121.72021710840551
 30
0.0
 40
0.5
 50
0.0000000000008142
 51
59.999999996908073
  0
LINE
  5
35F
  8
1
 10
112.4143243915472
 20
119.5551292541803
 30
0.0
 11
98.914327260176947
 21
119.5551292541803
 31
0.0
  0
LINE
  5
360
  8
2
 10
105.9143352431136
 20
114.7920177122531
 30
0.0
 11
109.6643330351049
 21
116.9570799439428
 31
0.0
  0
LINE
  5
361
  8
2
 10
109.6643330351049
 20
122.1532298102842
 30
0.0
 11
105.9143352487376
 21
124.31829204197381
 31
0.0
  0
LINE
  5
362
  8
1
 10
105.664325825362
 20
112.8051306884952
 30
0.0
 11
105.6643258253622
 21
126.3051278198654
 31
0.0
  0
CIRCLE
  5
363
  8
2
 10
105.66432582586199
 20
119.5551292541803
 30
0.0
 40
2.749998565685102
  0
LINE
  5
364
  8
2
 10
105.4143352430668
 20
114.7920177122531
 30
0.0
 11
101.6643374623235
 21
116.9570799439427
 31
0.0
  0
ARC
  5
365
  8
2
 10
105.66433524309021
 20
115.22503041413179
 30
0.0
 40
0.5
 50
239.99999999690851
 51
300.00000000309211
  0
LINE
  5
366
  8
2
 10
101.41433746234689
 20
117.3900926458214
 30
0.0
 11
101.41433746234679
 21
121.72021710840539
 31
0.0
  0
ARC
  5
367
  8
2
 10
101.91433746234689
 20
117.3900926458214
 30
0.0
 40
0.5
 50
180.00000000000159
 51
239.99999999690829
  0
ARC
  5
368
  8
2
 10
101.91433746234679
 20
121.72021710840539
 30
0.0
 40
0.5
 50
120.0000000030917
 51
180.0
  0
LINE
  5
369
  8
2
 10
101.6643374623235
 20
122.1532298102841
 30
0.0
 11
105.4143352486909
 21
124.31829204197381
 31
0.0
  0
ARC
  5
36A
  8
2
 10
105.66433524871429
 20
123.885279340095
 30
0.0
 40
0.5
 50
59.999999996908073
 51
120.0000000030917
  0
ARC
  5
36B
  8
2
 10
109.4143330350815
 20
140.72021710840551
 30
0.0
 40
0.5
 50
0.0000000000008142
 51
59.999999996908073
  0
ARC
  5
36C
  8
2
 10
109.4143330350815
 20
136.39009264582151
 30
0.0
 40
0.5
 50
300.00000000309188
 51
0.0
  0
LINE
  5
36D
  8
2
 10
109.9143330350815
 20
136.39009264582151
 30
0.0
 11
109.9143330350815
 21
140.72021710840551
 31
0.0
  0
LINE
  5
36E
  8
2
 10
109.6643330351049
 20
141.15322981028419
 30
0.0
 11
105.9143352487376
 21
143.31829204197379
 31
0.0
  0
ARC
  5
36F
  8
2
 10
105.66433524871429
 20
142.88527934009511
 30
0.0
 40
0.5
 50
59.999999996908073
 51
120.0000000030917
  0
LINE
  5
370
  8
2
 10
101.6643374623235
 20
141.1532298102841
 30
0.0
 11
105.4143352486909
 21
143.31829204197379
 31
0.0
  0
ARC
  5
371
  8
2
 10
101.91433746234679
 20
140.72021710840539
 30
0.0
 40
0.5
 50
120.0000000030917
 51
180.0
  0
ARC
  5
372
  8
2
 10
101.91433746234689
 20
136.3900926458214
 30
0.0
 40
0.5
 50
180.00000000000159
 51
239.99999999690829
  0
LINE
  5
373
  8
2
 10
101.41433746234689
 20
136.3900926458214
 30
0.0
 11
101.41433746234679
 21
140.72021710840539
 31
0.0
  0
ARC
  5
374
  8
2
 10
105.66433524309021
 20
134.22503041413179
 30
0.0
 40
0.5
 50
239.99999999690851
 51
300.00000000309211
  0
LINE
  5
375
  8
2
 10
105.4143352430668
 20
133.79201771225311
 30
0.0
 11
101.6643374623235
 21
135.95707994394269
 31
0.0
  0
LINE
  5
376
  8
2
 10
105.9143352431136
 20
133.79201771225311
 30
0.0
 11
109.6643330351049
 21
135.9570799439428
 31
0.0
  0
CIRCLE
  5
377
  8
2
 10
105.66432582586199
 20
138.55512925418029
 30
0.0
 40
2.749998565685102
  0
LINE
  5
378
  8
0
 10
173.55182829959631
 20
81.555102693180302
 30
0.0
 11
183.59655559886221
 21
81.555102693180302
 31
0.0
  0
LINE
  5
379
  8
0
 10
173.551828299596
 20
110.5551026931803
 30
0.0
 11
183.59655559886221
 21
110.5551026931803
 31
0.0
  0
LINE
  5
37A
  8
1
 10
170.66431994836219
 20
86.555076132180247
 30
0.0
 11
191.66431994836211
 21
86.555076132180247
 31
0.0
  0
LINE
  5
385
  8
1
 10
170.66431994836219
 20
138.55512925418029
 30
0.0
 11
191.66431994836211
 21
138.55512925418029
 31
0.0
  0
LINE
  5
386
  8
0
 10
189.16431994836211
 20
111.5551026931803
 30
0.0
 11
189.16431994836211
 21
80.555102693180302
 31
0.0
  0
LINE
  5
387
  8
0
 10
173.16431994836211
 20
111.5551026931803
 30
0.0
 11
173.16431994836211
 21
80.555102693180302
 31
0.0
  0
LINE
  5
388
  8
0
 10
187.5643200433621
 20
113.5551026931803
 30
0.0
 11
187.5643200433621
 21
111.5551026931803
 31
0.0
  0
LINE
  5
389
  8
0
 10
174.76431985336211
 20
113.5551026931803
 30
0.0
 11
174.76431985336211
 21
111.5551026931803
 31
0.0
  0
LINE
  5
38A
  8
0
 10
187.16431994836211
 20
144.55510269318029
 30
0.0
 11
187.16431994836211
 21
113.5551026931803
 31
0.0
  0
LINE
  5
38B
  8
0
 10
173.16431994836211
 20
144.55510269318029
 30
0.0
 11
189.16431994836211
 21
144.55510269318029
 31
0.0
  0
LINE
  5
38C
  8
0
 10
173.16431994836211
 20
113.5551026931803
 30
0.0
 11
189.16431994836211
 21
113.5551026931803
 31
0.0
  0
LINE
  5
38D
  8
0
 10
173.16431994836211
 20
111.5551026931803
 30
0.0
 11
189.16431994836211
 21
111.5551026931803
 31
0.0
  0
LINE
  5
38E
  8
0
 10
173.16431994836211
 20
80.555102693180302
 30
0.0
 11
189.16431994836211
 21
80.555102693180302
 31
0.0
  0
LINE
  5
38F
  8
0
 10
189.16431994836211
 20
144.55510269318029
 30
0.0
 11
189.16431994836211
 21
113.5551026931803
 31
0.0
  0
LINE
  5
390
  8
0
 10
173.16431994836211
 20
144.55510269318029
 30
0.0
 11
173.16431994836211
 21
113.5551026931803
 31
0.0
  0
LINE
  5
391
  8
0
 10
121.16431994676211
 20
144.55510269318029
 30
0.0
 11
121.66431994836201
 21
144.55510269318029
 31
0.0
  0
ARC
  5
392
  8
0
 10
98.164319948362049
 20
144.05510269318029
 30
0.0
 40
0.5
 50
90.0
 51
180.0
  0
ARC
  5
393
  8
0
 10
99.664319943362116
 20
142.50510269518031
 30
0.0
 40
1.0
 50
90.0
 51
180.0
  0
ARC
  5
394
  8
0
 10
109.1643199433621
 20
142.50510269518031
 30
0.0
 40
1.0
 50
0.0
 51
90.0
  0
LINE
  5
395
  8
1
 10
105.664325825362
 20
131.80513068849521
 30
0.0
 11
105.6643258253622
 21
145.30512781986539
 31
0.0
  0
LINE
  5
396
  8
0
 10
99.664319943362116
 20
143.50510269518031
 30
0.0
 11
109.1643199433621
 21
143.50510269518031
 31
0.0
  0
LINE
  5
397
  8
1
 10
112.4143243915472
 20
138.55512925418029
 30
0.0
 11
98.914327260176947
 21
138.55512925418029
 31
0.0
  0
ARC
  5
398
  8
0
 10
121.66431994836201
 20
144.05510269318029
 30
0.0
 40
0.5
 50
0.0
 51
90.0
  0
LINE
  5
399
  8
0
 10
121.66431994836201
 20
144.55510269318029
 30
0.0
 11
98.164319948362049
 21
144.55510269318029
 31
0.0
  0
ARC
  5
39A
  8
0
 10
115.16431994836201
 20
130.1551033121803
 30
0.0
 40
15.599999428
 50
67.380134175998364
 51
112.61986582400159
  0
ARC
  5
39B
  8
0
 10
98.164319948362049
 20
114.0551026931803
 30
0.0
 40
0.5
 50
180.0
 51
270.0
  0
ARC
  5
39C
  8
0
 10
99.664319943362116
 20
115.6051026901802
 30
0.0
 40
1.0
 50
180.0
 51
270.0
  0
ARC
  5
39D
  8
0
 10
109.1643199433621
 20
115.6051026901802
 30
0.0
 40
1.0
 50
270.0
 51
0.0
  0
LINE
  5
39E
  8
0
 10
109.264319853362
 20
113.5551026931803
 30
0.0
 11
109.264319853362
 21
111.5551026931803
 31
0.0
  0
ARC
  5
39F
  8
0
 10
109.16431994836201
 20
111.0551026931803
 30
0.0
 40
0.5
 50
90.0
 51
180.0
  0
LINE
  5
3A0
  8
0
 10
99.664319943362116
 20
114.6051026901802
 30
0.0
 11
109.1643199433621
 21
114.6051026901802
 31
0.0
  0
LINE
  5
3A1
  8
0
 10
114.91431994836201
 20
113.5551026931803
 30
0.0
 11
114.91431994836201
 21
111.5551026931803
 31
0.0
  0
LINE
  5
3A2
  8
0
 10
116.41431994836201
 20
113.5551026931803
 30
0.0
 11
116.41431994836201
 21
111.5551026931803
 31
0.0
  0
LINE
  5
3A3
  8
3
 10
116.91431994836201
 20
105.5551026931803
 30
0.0
 11
114.41431994836201
 21
105.5551026931803
 31
0.0
  0
LINE
  5
3A4
  8
3
 10
115.66431994836201
 20
110.5551026931803
 30
0.0
 11
114.41431994836201
 21
105.5551026931803
 31
0.0
  0
LINE
  5
3A5
  8
3
 10
115.66431994836201
 20
110.5551026931803
 30
0.0
 11
116.91431994836201
 21
105.5551026931803
 31
0.0
  0
ARC
  5
3A6
  8
0
 10
121.66431994836201
 20
114.0551026931803
 30
0.0
 40
0.5
 50
270.0
 51
0.0
  0
LINE
  5
3A7
  8
0
 10
122.064320043362
 20
113.5551026931803
 30
0.0
 11
122.064320043362
 21
111.5551026931803
 31
0.0
  0
ARC
  5
3A8
  8
0
 10
121.664319953362
 20
109.5051026951803
 30
0.0
 40
1.0
 50
90.0
 51
180.0
  0
LINE
  5
3A9
  8
0
 10
98.164319948362049
 20
113.5551026931803
 30
0.0
 11
122.064320043362
 21
113.5551026931803
 31
0.0
  0
ARC
  5
3AA
  8
0
 10
109.16431994836201
 20
81.055102693180288
 30
0.0
 40
0.5
 50
180.0
 51
270.0
  0
LINE
  5
3AB
  8
3
 10
116.91431994836201
 20
86.555102693180274
 30
0.0
 11
114.41431994836201
 21
86.555102693180274
 31
0.0
  0
ARC
  5
3AC
  8
0
 10
121.664319953362
 20
82.605102690180303
 30
0.0
 40
1.0
 50
180.0
 51
270.0
  0
LINE
  5
3AD
  8
3
 10
115.66431994836201
 20
81.555102693180274
 30
0.0
 11
114.41431994836201
 21
86.555102693180274
 31
0.0
  0
LINE
  5
3AE
  8
3
 10
115.66431994836201
 20
81.555102693180274
 30
0.0
 11
116.91431994836201
 21
86.555102693180274
 31
0.0
  0
ARC
  5
3AF
  8
0
 10
115.66431994836201
 20
94.955102073180285
 30
0.0
 40
15.599999428
 50
247.38013417599839
 51
292.61986582400158
  0
ARC
  5
3B0
  8
0
 10
115.66431994836201
 20
94.955102073180285
 30
0.0
 40
15.599999428
 50
247.38013417599839
 51
292.61986582400158
  0
LINE
  5
3B1
  8
0
 10
108.66431994836201
 20
111.0551026931803
 30
0.0
 11
108.66431994836201
 21
81.055102693180288
 31
0.0
  0
LINE
  5
3B2
  8
0
 10
120.6643199533621
 20
82.605102690180303
 30
0.0
 11
120.6643199533621
 21
109.5051026951803
 31
0.0
  0
LINE
  5
3B3
  8
1
 10
115.66431994836201
 20
116.5551026931803
 30
0.0
 11
115.66431994836201
 21
74.355102645180281
 31
0.0
  0
LINE
  5
3B4
  8
1
 10
92.664319948361936
 20
129.0551026931802
 30
0.0
 11
127.16431994836201
 21
129.05510269318029
 31
0.0
  0
LINE
  5
3B5
  8
0
 10
122.16431994836201
 20
114.0551026931803
 30
0.0
 11
122.16431994836201
 21
144.05510269318029
 31
0.0
  0
LINE
  5
3B6
  8
0
 10
110.1643199433621
 20
142.50510269518031
 30
0.0
 11
110.1643199433621
 21
115.6051026901802
 31
0.0
  0
LINE
  5
3B7
  8
0
 10
97.664319948362049
 20
144.05510269318029
 30
0.0
 11
97.664319948362049
 21
114.0551026931803
 31
0.0
  0
LINE
  5
3B8
  8
0
 10
98.664319943362102
 20
142.50510269518031
 30
0.0
 11
98.664319943362102
 21
115.6051026901802
 31
0.0
  0
LINE
  5
3B9
  8
1
 10
115.16431994836201
 20
108.5551026931803
 30
0.0
 11
115.16431994836201
 21
150.75510274018029
 31
0.0
  0
ARC
  5
3BA
  8
0
 10
132.66431994836199
 20
111.0551026931803
 30
0.0
 40
0.5
 50
0.0
 51
90.0
  0
ARC
  5
3BB
  8
0
 10
131.164319953362
 20
109.5051026951803
 30
0.0
 40
1.0
 50
0.0
 51
90.0
  0
ARC
  5
3BC
  8
0
 10
132.66431994836199
 20
81.055102693180288
 30
0.0
 40
0.5
 50
270.0
 51
0.0
  0
ARC
  5
3BD
  8
0
 10
131.164319953362
 20
82.605102690180303
 30
0.0
 40
1.0
 50
270.0
 51
0.0
  0
LINE
  5
3BE
  8
0
 10
132.164319953362
 20
82.605102690180303
 30
0.0
 11
132.164319953362
 21
109.5051026951803
 31
0.0
  0
LINE
  5
3BF
  8
0
 10
133.16431994836199
 20
81.055102693180288
 30
0.0
 11
133.16431994836199
 21
111.0551026931803
 31
0.0
  0
LINE
  5
3C0
  8
0
 10
131.164319953362
 20
110.5051026951803
 30
0.0
 11
121.664319953362
 21
110.5051026951803
 31
0.0
  0
LINE
  5
3C1
  8
0
 10
132.66431994836199
 20
111.5551026931803
 30
0.0
 11
109.16431994836201
 21
111.5551026931803
 31
0.0
  0
LINE
  5
3C2
  8
0
 10
131.164319953362
 20
81.605102690180317
 30
0.0
 11
121.664319953362
 21
81.605102690180317
 31
0.0
  0
LINE
  5
3C3
  8
0
 10
109.16431994836201
 20
80.555102693180288
 30
0.0
 11
132.66431994836199
 21
80.555102693180288
 31
0.0
  0
LINE
  5
3C4
  8
1
 10
138.16431994836199
 20
96.055102693180288
 30
0.0
 11
103.66431994836201
 21
96.055102693180288
 31
0.0
  0
LINE
  5
3CB
  8
1
 10
170.66431994836219
 20
119.5551292541803
 30
0.0
 11
191.66431994836211
 21
119.5551292541803
 31
0.0
  0
LINE
  5
3CC
  8
2
 10
189.16431994836199
 20
116.8051291996802
 30
0.0
 11
186.66431994836199
 21
116.8051291996802
 31
0.0
  0
LINE
  5
3CD
  8
2
 10
189.16431994836199
 20
122.3051291996802
 30
0.0
 11
186.66431994836199
 21
122.3051291996802
 31
0.0
  0
LINE
  5
3CE
  8
2
 10
186.66431994836199
 20
124.3274947821803
 30
0.0
 11
186.66431994836191
 21
114.7249786261318
 31
0.0
  0
LINE
  5
3CF
  8
2
 10
175.16431994836191
 20
114.7249786261318
 30
0.0
 11
175.16431994836199
 21
124.3852275520951
 31
0.0
  0
LINE
  5
3D0
  8
2
 10
175.16431994836199
 20
117.1400408578332
 30
0.0
 11
186.66431994836199
 21
117.1400408578332
 31
0.0
  0
LINE
  5
3D1
  8
2
 10
175.16431994836199
 20
114.7249786261318
 30
0.0
 11
186.66431994836199
 21
114.7249786261318
 31
0.0
  0
LINE
  5
3D2
  8
2
 10
175.16431994836199
 20
121.9701653203938
 30
0.0
 11
186.66431994836199
 21
121.9701653203938
 31
0.0
  0
LINE
  5
3D3
  8
2
 10
175.16431994836199
 20
124.385227552095
 30
0.0
 11
186.66431994836199
 21
124.385227552095
 31
0.0
  0
LINE
  5
3D4
  8
1
 10
170.66431994836219
 20
105.5550761321802
 30
0.0
 11
191.66431994836211
 21
105.5550761321802
 31
0.0
  0
LINE
  5
3D5
  8
2
 10
189.16431994836211
 20
102.8050760776802
 30
0.0
 11
186.66431994836211
 21
102.8050760776802
 31
0.0
  0
LINE
  5
3D6
  8
2
 10
189.16431994836211
 20
108.3050760776802
 30
0.0
 11
186.66431994836211
 21
108.3050760776802
 31
0.0
  0
LINE
  5
3D7
  8
2
 10
186.66431994836211
 20
110.3274416601803
 30
0.0
 11
186.66431994836199
 21
100.7249255041318
 31
0.0
  0
LINE
  5
3D8
  8
2
 10
175.16431994836211
 20
103.1399877358332
 30
0.0
 11
186.66431994836211
 21
103.1399877358332
 31
0.0
  0
LINE
  5
3D9
  8
2
 10
175.16431994836211
 20
100.7249255041318
 30
0.0
 11
186.66431994836211
 21
100.7249255041318
 31
0.0
  0
LINE
  5
3DA
  8
2
 10
175.16431994836211
 20
107.97011219839371
 30
0.0
 11
186.66431994836211
 21
107.97011219839371
 31
0.0
  0
LINE
  5
3DB
  8
2
 10
175.16431994836211
 20
110.38517443009501
 30
0.0
 11
186.66431994836211
 21
110.38517443009501
 31
0.0
  0
LINE
  5
3DC
  8
2
 10
175.16431994836199
 20
100.7249255041318
 30
0.0
 11
175.16431994836211
 21
110.38517443009501
 31
0.0
  0
LINE
  5
3DD
  8
2
 10
125.1643049678619
 20
35.448489285705122
 30
0.0
 11
125.16432000521429
 21
25.855102645189561
 31
0.0
  0
LINE
  5
3DE
  8
2
 10
105.6642899281574
 20
35.448515273705127
 30
0.0
 11
105.6643049655097
 21
25.855128633189569
 31
0.0
  0
TEXT
  5
48A
  8
0
 62
     3
 10
0.0
 20
0.0
 30
0.0
 40
10.0
  1
ESJA3564
  7
STANDARD1
  0
ENDSEC
  0
EOF
