  0
SECTION
  2
HEADER
  9
$ACADVER
  1
AC1009
  9
$INSBASE
 10
0.0
 20
0.0
 30
0.0
  9
$EXTMIN
 10
0.0
 20
-2.960436562073669
 30
-0.0000000000000016
  9
$EXTMAX
 10
180.2131933258288
 20
184.79662317673819
 30
0.0
  9
$LIMMIN
 10
0.0
 20
0.0
  9
$LIMMAX
 10
187.5
 20
135.0
  9
$ORTHOMODE
 70
     1
  9
$REGENMODE
 70
     1
  9
$FILLMODE
 70
     1
  9
$QTEXTMODE
 70
     0
  9
$MIRRTEXT
 70
     0
  9
$DRAGMODE
 70
     2
  9
$LTSCALE
 40
5.0
  9
$OSMODE
 70
  3071
  9
$ATTMODE
 70
     1
  9
$TEXTSIZE
 40
0.2
  9
$TRACEWID
 40
0.05
  9
$TEXTSTYLE
  7
STANDARD
  9
$CLAYER
  8
0
  9
$CELTYPE
  6
BYLAYER
  9
$CECOLOR
 62
     6
  9
$DIMSCALE
 40
1.0
  9
$DIMASZ
 40
3.0
  9
$DIMEXO
 40
2.0
  9
$DIMDLI
 40
0.3799999999999999
  9
$DIMRND
 40
0.0
  9
$DIMDLE
 40
0.0
  9
$DIMEXE
 40
2.0
  9
$DIMTP
 40
0.0
  9
$DIMTM
 40
0.0
  9
$DIMTXT
 40
3.2000000000000002
  9
$DIMCEN
 40
0.09
  9
$DIMTSZ
 40
0.0
  9
$DIMTOL
 70
     0
  9
$DIMLIM
 70
     0
  9
$DIMTIH
 70
     0
  9
$DIMTOH
 70
     0
  9
$DIMSE1
 70
     0
  9
$DIMSE2
 70
     0
  9
$DIMTAD
 70
     1
  9
$DIMZIN
 70
     8
  9
$DIMBLK
  1

  9
$DIMASO
 70
     0
  9
$DIMSHO
 70
     0
  9
$DIMPOST
  1

  9
$DIMAPOST
  1

  9
$DIMALT
 70
     0
  9
$DIMALTD
 70
     2
  9
$DIMALTF
 40
25.399999999999999
  9
$DIMLFAC
 40
1.0
  9
$DIMTOFL
 70
     0
  9
$DIMTVP
 40
1.6000000000000001
  9
$DIMTIX
 70
     1
  9
$DIMSOXD
 70
     0
  9
$DIMSAH
 70
     0
  9
$DIMBLK1
  1

  9
$DIMBLK2
  1

  9
$DIMSTYLE
  2
STANDARD
  9
$DIMCLRD
 70
     0
  9
$DIMCLRE
 70
     0
  9
$DIMCLRT
 70
     0
  9
$DIMTFAC
 40
1.0
  9
$DIMGAP
 40
1.0
  9
$LUNITS
 70
     2
  9
$LUPREC
 70
     4
  9
$SKETCHINC
 40
0.1
  9
$FILLETRAD
 40
0.4
  9
$AUNITS
 70
     0
  9
$AUPREC
 70
     0
  9
$MENU
  1
E:\r13\win\SUPPORT\ACAD
  9
$ELEVATION
 40
0.0
  9
$PELEVATION
 40
0.0
  9
$THICKNESS
 40
0.0
  9
$LIMCHECK
 70
     0
  9
$BLIPMODE
 70
     0
  9
$CHAMFERA
 40
0.0
  9
$CHAMFERB
 40
0.0
  9
$SKPOLY
 70
     0
  9
$TDCREATE
 40
2456129.6740617128
  9
$TDUPDATE
 40
2456598.68371853
  9
$TDINDWG
 40
0.5307923264
  9
$TDUSRTIMER
 40
0.5307921528
  9
$USRTIMER
 70
     1
  9
$ANGBASE
 50
0.0
  9
$ANGDIR
 70
     0
  9
$PDMODE
 70
     0
  9
$PDSIZE
 40
0.0
  9
$PLINEWID
 40
0.0
  9
$COORDS
 70
     1
  9
$SPLFRAME
 70
     0
  9
$SPLINETYPE
 70
     6
  9
$SPLINESEGS
 70
     8
  9
$ATTDIA
 70
     0
  9
$ATTREQ
 70
     1
  9
$HANDLING
 70
     1
  9
$HANDSEED
  5
AC03
  9
$SURFTAB1
 70
     6
  9
$SURFTAB2
 70
     6
  9
$SURFTYPE
 70
     6
  9
$SURFU
 70
     6
  9
$SURFV
 70
     6
  9
$UCSNAME
  2

  9
$UCSORG
 10
0.0
 20
0.0
 30
0.0
  9
$UCSXDIR
 10
1.0
 20
0.0
 30
0.0
  9
$UCSYDIR
 10
0.0
 20
1.0
 30
0.0
  9
$PUCSNAME
  2

  9
$PUCSORG
 10
0.0
 20
0.0
 30
0.0
  9
$PUCSXDIR
 10
1.0
 20
0.0
 30
0.0
  9
$PUCSYDIR
 10
0.0
 20
1.0
 30
0.0
  9
$USERI1
 70
     0
  9
$USERI2
 70
     1
  9
$USERI3
 70
     0
  9
$USERI4
 70
     0
  9
$USERI5
 70
     0
  9
$USERR1
 40
0.0
  9
$USERR2
 40
0.0
  9
$USERR3
 40
0.0
  9
$USERR4
 40
0.0
  9
$USERR5
 40
0.0
  9
$WORLDVIEW
 70
     1
  9
$SHADEDGE
 70
     3
  9
$SHADEDIF
 70
    70
  9
$TILEMODE
 70
     1
  9
$MAXACTVP
 70
    16
  9
$PLIMCHECK
 70
     0
  9
$PEXTMIN
 10
1.0000000000000000E+020
 20
1.0000000000000000E+020
 30
1.0000000000000000E+020
  9
$PEXTMAX
 10
-1.0000000000000000E+020
 20
-1.0000000000000000E+020
 30
-1.0000000000000000E+020
  9
$PLIMMIN
 10
0.0
 20
0.0
  9
$PLIMMAX
 10
12.0
 20
9.0
  9
$UNITMODE
 70
     0
  9
$VISRETAIN
 70
     0
  9
$PLINEGEN
 70
     0
  9
$PSLTSCALE
 70
     0
  0
ENDSEC
  0
SECTION
  2
TABLES
  0
TABLE
  2
VPORT
 70
     1
  0
VPORT
  2
*ACTIVE
 70
     0
 10
0.0
 20
0.0
 11
1.0
 21
1.0
 12
93.747139195326156
 22
115.9516809073157
 13
0.0
 23
0.0
 14
5.0
 24
5.0
 15
5.0
 25
5.0
 16
0.0
 26
0.0
 36
1.0
 17
0.0
 27
0.0
 37
0.0
 40
239.99442320719351
 41
1.831871345029239
 42
50.0
 43
0.0
 44
0.0
 50
0.0
 51
0.0
 71
     0
 72
   500
 73
     1
 74
     0
 75
     0
 76
     0
 77
     0
 78
     2
  0
ENDTAB
  0
TABLE
  2
LTYPE
 70
     4
  0
LTYPE
  2
CONTINUOUS
 70
     0
  3
Solid Line
 72
    65
 73
     0
 40
0.0
  0
LTYPE
  2
CENTER
 70
     0
  3
____ _ ____ _ ____ _ ____ _ ____ _ ____ _ ____
 72
    65
 73
     4
 40
2.0
 49
1.25
 49
-0.25
 49
0.25
 49
-0.25
  0
LTYPE
  2
HIDDEN
 70
     0
  3
__ __ __ __ __ __ __ __ __ __ __ __ __ __ __ __
 72
    65
 73
     2
 40
0.375
 49
0.25
 49
-0.125
  0
LTYPE
  2
PHANTOM2
 70
     0
  3
___ _ _ ___ _ _ ___ _ _ ___ _ _
 72
    65
 73
     6
 40
1.25
 49
0.625
 49
-0.125
 49
0.125
 49
-0.125
 49
0.125
 49
-0.125
  0
ENDTAB
  0
TABLE
  2
LAYER
 70
     5
  0
LAYER
  2
0
 70
     0
 62
     7
  6
CONTINUOUS
  0
LAYER
  2
1
 70
     0
 62
     1
  6
CENTER
  0
LAYER
  2
2
 70
     0
 62
     2
  6
HIDDEN
  0
LAYER
  2
3
 70
     0
 62
     3
  6
CONTINUOUS
  0
LAYER
  2
DEFPOINTS
 70
     0
 62
     7
  6
CONTINUOUS
  0
ENDTAB
  0
TABLE
  2
STYLE
 70
     2
  0
STYLE
  2
STANDARD
 70
     0
 40
0.0
 41
1.0
 50
0.0
 71
     0
 42
0.2
  3
TXT
  4
BIGFONT
  0
STYLE
  2
STANDARD1
 70
     0
 40
0.0
 41
1.0
 50
0.0
 71
     0
 42
3.0
  3
txt
  4

  0
ENDTAB
  0
TABLE
  2
VIEW
 70
     0
  0
ENDTAB
  0
TABLE
  2
UCS
 70
     0
  0
ENDTAB
  0
TABLE
  2
APPID
 70
     7
  0
APPID
  2
ACAD
 70
     0
  0
APPID
  2
ACAD_MLEADERVER
 70
     0
  0
APPID
  2
ACAD_PSEXT
 70
     0
  0
APPID
  2
ACAD_EXEMPT_FROM_CAD_STANDARDS
 70
     0
  0
APPID
  2
ACAD_DSTYLE_DIMJAG
 70
     0
  0
APPID
  2
ACAD_DSTYLE_DIMTALN
 70
     0
  0
APPID
  2
ACAD_NAV_VCDISPLAY
 70
     0
  0
ENDTAB
  0
TABLE
  2
DIMSTYLE
 70
     1
  0
DIMSTYLE
  2
STANDARD
 70
     0
  3

  4

  5

  6

  7

 40
1.0
 41
0.18
 42
0.0625
 43
0.38
 44
0.18
 45
0.0
 46
0.0
 47
0.0
 48
0.0
140
0.18
141
0.09
142
0.0
143
25.399999999999999
144
1.0
145
0.0
146
1.0
147
0.09
 71
     0
 72
     0
 73
     1
 74
     1
 75
     0
 76
     0
 77
     0
 78
     0
170
     0
171
     2
172
     0
173
     0
174
     0
175
     0
176
     0
177
     0
178
     0
  0
ENDTAB
  0
ENDSEC
  0
SECTION
  2
BLOCKS
  0
BLOCK
  8
0
  2
$MODEL_SPACE
 70
     0
 10
0.0
 20
0.0
 30
0.0
  3
$MODEL_SPACE
  1

  0
ENDBLK
  5
9
  8
0
  0
BLOCK
 67
     1
  8
0
  2
$PAPER_SPACE
 70
     0
 10
0.0
 20
0.0
 30
0.0
  3
$PAPER_SPACE
  1

  0
ENDBLK
  5
E
 67
     1
  8
0
  0
ENDSEC
  0
SECTION
  2
ENTITIES
  0
LINE
  5
A43E
  8
1
 10
140.08466903454939
 20
71.795290332139075
 30
0.0
 11
140.08466903454939
 21
119.68165053278319
 31
0.0
  0
LINE
  5
A43F
  8
0
 10
116.29190895303419
 20
113.7384704324611
 30
0.0
 11
115.8846690345494
 21
113.7384704324611
 31
0.0
  0
ARC
  5
A440
  8
0
 10
115.8846690345494
 20
102.9384704324611
 30
0.0
 40
10.800000000000001
 50
90.0
 51
248.5033330048735
  0
LINE
  5
A441
  8
0
 10
164.28466903454941
 20
113.7384704324611
 30
0.0
 11
163.87742911606469
 21
113.7384704324611
 31
0.0
  0
ARC
  5
A442
  8
0
 10
164.28466903454941
 20
102.9384704324611
 30
0.0
 40
10.80000000000001
 50
291.49666699512647
 51
90.0
  0
ARC
  5
A443
  8
0
 10
153.61697474645581
 20
172.11637689229039
 30
0.0
 40
89.526041666666103
 50
242.2461603245724
 51
254.76050568516891
  0
ARC
  5
A444
  8
0
 10
126.5523633226433
 20
172.11637689228931
 30
0.0
 40
89.52604166666498
 50
285.23949431483118
 51
297.75383967542763
  0
LINE
  5
A445
  8
0
 10
130.08466903454939
 20
85.738470432461156
 30
0.0
 11
130.08466903454939
 21
77.738470432461156
 31
0.0
  0
LINE
  5
A446
  8
0
 10
150.08466903454939
 20
77.738470432461156
 30
0.0
 11
150.08466903454939
 21
85.738470432461156
 31
0.0
  0
LINE
  5
A447
  8
0
 10
131.71348642019899
 20
110.4887317111441
 30
0.0
 11
148.4558516488998
 21
110.4887317111441
 31
0.0
  0
LINE
  5
A448
  8
0
 10
150.08466903454939
 20
77.738470432461156
 30
0.0
 11
130.08466903454939
 21
77.738470432461156
 31
0.0
  0
POLYLINE
  5
A449
  8
0
 66
     1
 10
0.0
 20
0.0
 30
0.0
  0
VERTEX
  5
A80B
  8
0
 10
128.11016800527381
 20
110.9189258043497
 30
0.0
  0
VERTEX
  5
A80C
  8
0
 10
128.22226243844449
 20
110.8983265278536
 30
0.0
  0
VERTEX
  5
A80D
  8
0
 10
128.44992348089531
 20
110.85763499830701
 30
0.0
  0
VERTEX
  5
A80E
  8
0
 10
128.68091455141959
 20
110.81791432968249
 30
0.0
  0
VERTEX
  5
A80F
  8
0
 10
128.7971695010624
 20
110.79852290684001
 30
0.0
  0
VERTEX
  5
A810
  8
0
 10
128.91367394430429
 20
110.7794961251666
 30
0.0
  0
VERTEX
  5
A811
  8
0
 10
129.1466799819903
 20
110.74268037607131
 30
0.0
  0
VERTEX
  5
A812
  8
0
 10
129.37842606239809
 20
110.70774057951201
 30
0.0
  0
VERTEX
  5
A813
  8
0
 10
129.60741902391641
 20
110.67492399887
 30
0.0
  0
VERTEX
  5
A814
  8
0
 10
129.832297188692
 20
110.64443546440189
 30
0.0
  0
VERTEX
  5
A815
  8
0
 10
130.05183668858791
 20
110.6164400273361
 30
0.0
  0
VERTEX
  5
A816
  8
0
 10
130.15918723600211
 20
110.60342741343921
 30
0.0
  0
VERTEX
  5
A817
  8
0
 10
130.26471018685481
 20
110.5910941481587
 30
0.0
  0
VERTEX
  5
A818
  8
0
 10
130.46967155001289
 20
110.5685186018065
 30
0.0
  0
VERTEX
  5
A819
  8
0
 10
130.665591149242
 20
110.5487944046741
 30
0.0
  0
VERTEX
  5
A81A
  8
0
 10
130.85142515411559
 20
110.53196565964799
 30
0.0
  0
VERTEX
  5
A81B
  8
0
 10
131.02625933270409
 20
110.5180340849541
 30
0.0
  0
VERTEX
  5
A81C
  8
0
 10
131.19295222061669
 20
110.5067341234235
 30
0.0
  0
VERTEX
  5
A81D
  8
0
 10
131.2738647256536
 20
110.5020462935875
 30
0.0
  0
VERTEX
  5
A81E
  8
0
 10
131.3528873458875
 20
110.49803325317311
 30
0.0
  0
VERTEX
  5
A81F
  8
0
 10
131.50452255728419
 20
110.49211373925959
 30
0.0
  0
VERTEX
  5
A820
  8
0
 10
131.64649766744739
 20
110.48911028740589
 30
0.0
  0
VERTEX
  5
A821
  8
0
 10
131.71348642019899
 20
110.4887317111441
 30
0.0
  0
SEQEND
  5
A822
  8
0
  0
POLYLINE
  5
A44A
  8
0
 66
     1
 10
0.0
 20
0.0
 30
0.0
  0
VERTEX
  5
A823
  8
0
 10
148.4558516488998
 20
110.4887317111441
 30
0.0
  0
VERTEX
  5
A824
  8
0
 10
148.5196097662236
 20
110.48907537255489
 30
0.0
  0
VERTEX
  5
A825
  8
0
 10
148.65693551395361
 20
110.4918773959168
 30
0.0
  0
VERTEX
  5
A826
  8
0
 10
148.80694496868711
 20
110.4975907453166
 30
0.0
  0
VERTEX
  5
A827
  8
0
 10
148.88651410500501
 20
110.50156225959429
 30
0.0
  0
VERTEX
  5
A828
  8
0
 10
148.96900496104601
 20
110.5062835904789
 30
0.0
  0
VERTEX
  5
A829
  8
0
 10
149.14233877408449
 20
110.51797942305851
 30
0.0
  0
VERTEX
  5
A82A
  8
0
 10
149.32601207554009
 20
110.53265769652261
 30
0.0
  0
VERTEX
  5
A82B
  8
0
 10
149.51893467815751
 20
110.5502537850775
 30
0.0
  0
VERTEX
  5
A82C
  8
0
 10
149.7199847409147
 20
110.570671353691
 30
0.0
  0
VERTEX
  5
A82D
  8
0
 10
149.92799457300259
 20
110.5937850149375
 30
0.0
  0
VERTEX
  5
A82E
  8
0
 10
150.0341727022554
 20
110.60629917723961
 30
0.0
  0
VERTEX
  5
A82F
  8
0
 10
150.1415535101612
 20
110.6194179268839
 30
0.0
  0
VERTEX
  5
A830
  8
0
 10
150.35916276705279
 20
110.6473553850883
 30
0.0
  0
VERTEX
  5
A831
  8
0
 10
150.57926118186921
 20
110.67734800796021
 30
0.0
  0
VERTEX
  5
A832
  8
0
 10
150.80018851943291
 20
110.7091062797202
 30
0.0
  0
VERTEX
  5
A833
  8
0
 10
151.02048196763911
 20
110.74234442209119
 30
0.0
  0
VERTEX
  5
A834
  8
0
 10
151.24463669223701
 20
110.7777163990517
 30
0.0
  0
VERTEX
  5
A835
  8
0
 10
151.35867834568791
 20
110.7962988815101
 30
0.0
  0
VERTEX
  5
A836
  8
0
 10
151.47379159994591
 20
110.81545154795189
 30
0.0
  0
VERTEX
  5
A837
  8
0
 10
151.70651295596039
 20
110.85537484443979
 30
0.0
  0
VERTEX
  5
A838
  8
0
 10
151.94137750652919
 20
110.8972893576223
 30
0.0
  0
VERTEX
  5
A839
  8
0
 10
152.05917006382501
 20
110.9189258043497
 30
0.0
  0
SEQEND
  5
A83A
  8
0
  0
POLYLINE
  5
A44B
  8
0
 10
152.05917006382478
 20
110.91892580434973
 30
0.0
 66
     1
 70
     8
  0
VERTEX
  8
0
  5
A9FB
 10
152.059
 20
110.919
 30
0.000000
  70
    32
  0
VERTEX
  8
0
  5
A9FC
 10
152.114
 20
110.929
 30
0.000000
  70
    32
  0
VERTEX
  8
0
  5
A9FD
 10
152.169
 20
110.939
 30
0.000000
  70
    32
  0
VERTEX
  8
0
  5
A9FE
 10
152.224
 20
110.950
 30
0.000000
  70
    32
  0
VERTEX
  8
0
  5
A9FF
 10
152.279
 20
110.960
 30
0.000000
  70
    32
  0
VERTEX
  8
0
  5
AA00
 10
152.334
 20
110.970
 30
0.000000
  70
    32
  0
VERTEX
  8
0
  5
AA01
 10
152.389
 20
110.981
 30
0.000000
  70
    32
  0
VERTEX
  8
0
  5
AA02
 10
152.444
 20
110.991
 30
0.000000
  70
    32
  0
VERTEX
  8
0
  5
AA03
 10
152.499
 20
111.002
 30
0.000000
  70
    32
  0
VERTEX
  8
0
  5
AA04
 10
152.554
 20
111.013
 30
0.000000
  70
    32
  0
VERTEX
  8
0
  5
AA05
 10
152.609
 20
111.023
 30
0.000000
  70
    32
  0
VERTEX
  8
0
  5
AA06
 10
152.664
 20
111.034
 30
0.000000
  70
    32
  0
VERTEX
  8
0
  5
AA07
 10
152.719
 20
111.045
 30
0.000000
  70
    32
  0
VERTEX
  8
0
  5
AA08
 10
152.773
 20
111.055
 30
0.000000
  70
    32
  0
VERTEX
  8
0
  5
AA09
 10
152.828
 20
111.066
 30
0.000000
  70
    32
  0
VERTEX
  8
0
  5
AA0A
 10
152.883
 20
111.077
 30
0.000000
  70
    32
  0
VERTEX
  8
0
  5
AA0B
 10
152.938
 20
111.088
 30
0.000000
  70
    32
  0
VERTEX
  8
0
  5
AA0C
 10
152.993
 20
111.099
 30
0.000000
  70
    32
  0
VERTEX
  8
0
  5
AA0D
 10
153.048
 20
111.110
 30
0.000000
  70
    32
  0
VERTEX
  8
0
  5
AA0E
 10
153.103
 20
111.121
 30
0.000000
  70
    32
  0
VERTEX
  8
0
  5
AA0F
 10
153.157
 20
111.132
 30
0.000000
  70
    32
  0
VERTEX
  8
0
  5
AA10
 10
153.212
 20
111.143
 30
0.000000
  70
    32
  0
VERTEX
  8
0
  5
AA11
 10
153.267
 20
111.154
 30
0.000000
  70
    32
  0
VERTEX
  8
0
  5
AA12
 10
153.322
 20
111.166
 30
0.000000
  70
    32
  0
VERTEX
  8
0
  5
AA13
 10
153.377
 20
111.177
 30
0.000000
  70
    32
  0
VERTEX
  8
0
  5
AA14
 10
153.431
 20
111.188
 30
0.000000
  70
    32
  0
VERTEX
  8
0
  5
AA15
 10
153.486
 20
111.200
 30
0.000000
  70
    32
  0
VERTEX
  8
0
  5
AA16
 10
153.541
 20
111.211
 30
0.000000
  70
    32
  0
VERTEX
  8
0
  5
AA17
 10
153.596
 20
111.223
 30
0.000000
  70
    32
  0
VERTEX
  8
0
  5
AA18
 10
153.650
 20
111.234
 30
0.000000
  70
    32
  0
VERTEX
  8
0
  5
AA19
 10
153.705
 20
111.246
 30
0.000000
  70
    32
  0
VERTEX
  8
0
  5
AA1A
 10
153.760
 20
111.257
 30
0.000000
  70
    32
  0
VERTEX
  8
0
  5
AA1B
 10
153.815
 20
111.269
 30
0.000000
  70
    32
  0
VERTEX
  8
0
  5
AA1C
 10
153.869
 20
111.281
 30
0.000000
  70
    32
  0
VERTEX
  8
0
  5
AA1D
 10
153.924
 20
111.292
 30
0.000000
  70
    32
  0
VERTEX
  8
0
  5
AA1E
 10
153.979
 20
111.304
 30
0.000000
  70
    32
  0
VERTEX
  8
0
  5
AA1F
 10
154.033
 20
111.316
 30
0.000000
  70
    32
  0
VERTEX
  8
0
  5
AA20
 10
154.088
 20
111.328
 30
0.000000
  70
    32
  0
VERTEX
  8
0
  5
AA21
 10
154.143
 20
111.340
 30
0.000000
  70
    32
  0
VERTEX
  8
0
  5
AA22
 10
154.197
 20
111.352
 30
0.000000
  70
    32
  0
VERTEX
  8
0
  5
AA23
 10
154.252
 20
111.364
 30
0.000000
  70
    32
  0
VERTEX
  8
0
  5
AA24
 10
154.307
 20
111.376
 30
0.000000
  70
    32
  0
VERTEX
  8
0
  5
AA25
 10
154.361
 20
111.388
 30
0.000000
  70
    32
  0
VERTEX
  8
0
  5
AA26
 10
154.416
 20
111.400
 30
0.000000
  70
    32
  0
VERTEX
  8
0
  5
AA27
 10
154.470
 20
111.412
 30
0.000000
  70
    32
  0
VERTEX
  8
0
  5
AA28
 10
154.525
 20
111.424
 30
0.000000
  70
    32
  0
VERTEX
  8
0
  5
AA29
 10
154.580
 20
111.437
 30
0.000000
  70
    32
  0
VERTEX
  8
0
  5
AA2A
 10
154.634
 20
111.449
 30
0.000000
  70
    32
  0
VERTEX
  8
0
  5
AA2B
 10
154.689
 20
111.461
 30
0.000000
  70
    32
  0
VERTEX
  8
0
  5
AA2C
 10
154.743
 20
111.474
 30
0.000000
  70
    32
  0
VERTEX
  8
0
  5
AA2D
 10
154.798
 20
111.486
 30
0.000000
  70
    32
  0
VERTEX
  8
0
  5
AA2E
 10
154.852
 20
111.499
 30
0.000000
  70
    32
  0
VERTEX
  8
0
  5
AA2F
 10
154.907
 20
111.511
 30
0.000000
  70
    32
  0
VERTEX
  8
0
  5
AA30
 10
154.961
 20
111.524
 30
0.000000
  70
    32
  0
VERTEX
  8
0
  5
AA31
 10
155.016
 20
111.537
 30
0.000000
  70
    32
  0
VERTEX
  8
0
  5
AA32
 10
155.070
 20
111.549
 30
0.000000
  70
    32
  0
VERTEX
  8
0
  5
AA33
 10
155.125
 20
111.562
 30
0.000000
  70
    32
  0
VERTEX
  8
0
  5
AA34
 10
155.179
 20
111.575
 30
0.000000
  70
    32
  0
VERTEX
  8
0
  5
AA35
 10
155.234
 20
111.588
 30
0.000000
  70
    32
  0
VERTEX
  8
0
  5
AA36
 10
155.288
 20
111.601
 30
0.000000
  70
    32
  0
VERTEX
  8
0
  5
AA37
 10
155.342
 20
111.614
 30
0.000000
  70
    32
  0
VERTEX
  8
0
  5
AA38
 10
155.397
 20
111.627
 30
0.000000
  70
    32
  0
VERTEX
  8
0
  5
AA39
 10
155.451
 20
111.640
 30
0.000000
  70
    32
  0
VERTEX
  8
0
  5
AA3A
 10
155.506
 20
111.653
 30
0.000000
  70
    32
  0
VERTEX
  8
0
  5
AA3B
 10
155.560
 20
111.666
 30
0.000000
  70
    32
  0
VERTEX
  8
0
  5
AA3C
 10
155.614
 20
111.679
 30
0.000000
  70
    32
  0
VERTEX
  8
0
  5
AA3D
 10
155.669
 20
111.692
 30
0.000000
  70
    32
  0
VERTEX
  8
0
  5
AA3E
 10
155.723
 20
111.705
 30
0.000000
  70
    32
  0
VERTEX
  8
0
  5
AA3F
 10
155.777
 20
111.719
 30
0.000000
  70
    32
  0
VERTEX
  8
0
  5
AA40
 10
155.832
 20
111.732
 30
0.000000
  70
    32
  0
VERTEX
  8
0
  5
AA41
 10
155.886
 20
111.745
 30
0.000000
  70
    32
  0
VERTEX
  8
0
  5
AA42
 10
155.940
 20
111.759
 30
0.000000
  70
    32
  0
VERTEX
  8
0
  5
AA43
 10
155.995
 20
111.772
 30
0.000000
  70
    32
  0
VERTEX
  8
0
  5
AA44
 10
156.049
 20
111.786
 30
0.000000
  70
    32
  0
VERTEX
  8
0
  5
AA45
 10
156.103
 20
111.799
 30
0.000000
  70
    32
  0
VERTEX
  8
0
  5
AA46
 10
156.157
 20
111.813
 30
0.000000
  70
    32
  0
VERTEX
  8
0
  5
AA47
 10
156.212
 20
111.827
 30
0.000000
  70
    32
  0
VERTEX
  8
0
  5
AA48
 10
156.266
 20
111.840
 30
0.000000
  70
    32
  0
VERTEX
  8
0
  5
AA49
 10
156.320
 20
111.854
 30
0.000000
  70
    32
  0
VERTEX
  8
0
  5
AA4A
 10
156.374
 20
111.868
 30
0.000000
  70
    32
  0
VERTEX
  8
0
  5
AA4B
 10
156.429
 20
111.882
 30
0.000000
  70
    32
  0
VERTEX
  8
0
  5
AA4C
 10
156.483
 20
111.896
 30
0.000000
  70
    32
  0
VERTEX
  8
0
  5
AA4D
 10
156.537
 20
111.910
 30
0.000000
  70
    32
  0
VERTEX
  8
0
  5
AA4E
 10
156.591
 20
111.924
 30
0.000000
  70
    32
  0
VERTEX
  8
0
  5
AA4F
 10
156.645
 20
111.938
 30
0.000000
  70
    32
  0
VERTEX
  8
0
  5
AA50
 10
156.699
 20
111.952
 30
0.000000
  70
    32
  0
VERTEX
  8
0
  5
AA51
 10
156.754
 20
111.966
 30
0.000000
  70
    32
  0
VERTEX
  8
0
  5
AA52
 10
156.808
 20
111.980
 30
0.000000
  70
    32
  0
VERTEX
  8
0
  5
AA53
 10
156.862
 20
111.994
 30
0.000000
  70
    32
  0
VERTEX
  8
0
  5
AA54
 10
156.916
 20
112.008
 30
0.000000
  70
    32
  0
VERTEX
  8
0
  5
AA55
 10
156.970
 20
112.023
 30
0.000000
  70
    32
  0
VERTEX
  8
0
  5
AA56
 10
157.024
 20
112.037
 30
0.000000
  70
    32
  0
VERTEX
  8
0
  5
AA57
 10
157.078
 20
112.051
 30
0.000000
  70
    32
  0
VERTEX
  8
0
  5
AA58
 10
157.132
 20
112.066
 30
0.000000
  70
    32
  0
VERTEX
  8
0
  5
AA59
 10
157.186
 20
112.080
 30
0.000000
  70
    32
  0
VERTEX
  8
0
  5
AA5A
 10
157.240
 20
112.095
 30
0.000000
  70
    32
  0
VERTEX
  8
0
  5
AA5B
 10
157.294
 20
112.109
 30
0.000000
  70
    32
  0
VERTEX
  8
0
  5
AA5C
 10
157.348
 20
112.124
 30
0.000000
  70
    32
  0
VERTEX
  8
0
  5
AA5D
 10
157.402
 20
112.139
 30
0.000000
  70
    32
  0
VERTEX
  8
0
  5
AA5E
 10
157.456
 20
112.153
 30
0.000000
  70
    32
  0
VERTEX
  8
0
  5
AA5F
 10
157.510
 20
112.168
 30
0.000000
  70
    32
  0
VERTEX
  8
0
  5
AA60
 10
157.564
 20
112.183
 30
0.000000
  70
    32
  0
VERTEX
  8
0
  5
AA61
 10
157.618
 20
112.198
 30
0.000000
  70
    32
  0
VERTEX
  8
0
  5
AA62
 10
157.672
 20
112.213
 30
0.000000
  70
    32
  0
VERTEX
  8
0
  5
AA63
 10
157.726
 20
112.228
 30
0.000000
  70
    32
  0
VERTEX
  8
0
  5
AA64
 10
157.780
 20
112.243
 30
0.000000
  70
    32
  0
VERTEX
  8
0
  5
AA65
 10
157.834
 20
112.258
 30
0.000000
  70
    32
  0
VERTEX
  8
0
  5
AA66
 10
157.888
 20
112.273
 30
0.000000
  70
    32
  0
VERTEX
  8
0
  5
AA67
 10
157.941
 20
112.288
 30
0.000000
  70
    32
  0
VERTEX
  8
0
  5
AA68
 10
157.995
 20
112.303
 30
0.000000
  70
    32
  0
VERTEX
  8
0
  5
AA69
 10
158.049
 20
112.318
 30
0.000000
  70
    32
  0
VERTEX
  8
0
  5
AA6A
 10
158.103
 20
112.333
 30
0.000000
  70
    32
  0
VERTEX
  8
0
  5
AA6B
 10
158.157
 20
112.349
 30
0.000000
  70
    32
  0
VERTEX
  8
0
  5
AA6C
 10
158.210
 20
112.364
 30
0.000000
  70
    32
  0
VERTEX
  8
0
  5
AA6D
 10
158.264
 20
112.379
 30
0.000000
  70
    32
  0
VERTEX
  8
0
  5
AA6E
 10
158.318
 20
112.395
 30
0.000000
  70
    32
  0
VERTEX
  8
0
  5
AA6F
 10
158.372
 20
112.410
 30
0.000000
  70
    32
  0
VERTEX
  8
0
  5
AA70
 10
158.426
 20
112.426
 30
0.000000
  70
    32
  0
VERTEX
  8
0
  5
AA71
 10
158.479
 20
112.441
 30
0.000000
  70
    32
  0
VERTEX
  8
0
  5
AA72
 10
158.533
 20
112.457
 30
0.000000
  70
    32
  0
VERTEX
  8
0
  5
AA73
 10
158.587
 20
112.473
 30
0.000000
  70
    32
  0
VERTEX
  8
0
  5
AA74
 10
158.640
 20
112.488
 30
0.000000
  70
    32
  0
VERTEX
  8
0
  5
AA75
 10
158.694
 20
112.504
 30
0.000000
  70
    32
  0
VERTEX
  8
0
  5
AA76
 10
158.748
 20
112.520
 30
0.000000
  70
    32
  0
VERTEX
  8
0
  5
AA77
 10
158.801
 20
112.536
 30
0.000000
  70
    32
  0
VERTEX
  8
0
  5
AA78
 10
158.855
 20
112.552
 30
0.000000
  70
    32
  0
VERTEX
  8
0
  5
AA79
 10
158.909
 20
112.567
 30
0.000000
  70
    32
  0
VERTEX
  8
0
  5
AA7A
 10
158.962
 20
112.583
 30
0.000000
  70
    32
  0
VERTEX
  8
0
  5
AA7B
 10
159.016
 20
112.599
 30
0.000000
  70
    32
  0
SEQEND
  8
0
  5
AA7C
  0
POLYLINE
  5
A44C
  8
0
 66
     1
 10
0.0
 20
0.0
 30
0.0
  0
VERTEX
  5
A83B
  8
0
 10
159.01591013913611
 20
112.5994204856968
 30
0.0
  0
VERTEX
  5
A83C
  8
0
 10
159.1410989264329
 20
112.6604166048528
 30
0.0
  0
VERTEX
  5
A83D
  8
0
 10
159.3906047206226
 20
112.7762167552511
 30
0.0
  0
VERTEX
  5
A83E
  8
0
 10
159.63802317501299
 20
112.8836766311328
 30
0.0
  0
VERTEX
  5
A83F
  8
0
 10
159.76090930409279
 20
112.9343930316597
 30
0.0
  0
VERTEX
  5
A840
  8
0
 10
159.88541218599039
 20
112.984014825489
 30
0.0
  0
VERTEX
  5
A841
  8
0
 10
160.14016437434839
 20
113.08012720441261
 30
0.0
  0
VERTEX
  5
A842
  8
0
 10
160.4018686104807
 20
113.17145060619259
 30
0.0
  0
VERTEX
  5
A843
  8
0
 10
160.669647169337
 20
113.257318498844
 30
0.0
  0
VERTEX
  5
A844
  8
0
 10
160.9426006237945
 20
113.33714907580369
 30
0.0
  0
VERTEX
  5
A845
  8
0
 10
161.2198047501218
 20
113.41044549563389
 30
0.0
  0
VERTEX
  5
A846
  8
0
 10
161.35970331154201
 20
113.44451122573081
 30
0.0
  0
VERTEX
  5
A847
  8
0
 10
161.5003043680866
 20
113.476795757652
 30
0.0
  0
VERTEX
  5
A848
  8
0
 10
161.78312276916921
 20
113.5358765199654
 30
0.0
  0
VERTEX
  5
A849
  8
0
 10
162.06730835632419
 20
113.5874615380859
 30
0.0
  0
VERTEX
  5
A84A
  8
0
 10
162.3518778130252
 20
113.6314079557648
 30
0.0
  0
VERTEX
  5
A84B
  8
0
 10
162.63580159156459
 20
113.6676567282413
 30
0.0
  0
VERTEX
  5
A84C
  8
0
 10
162.91803940613119
 20
113.69623967188539
 30
0.0
  0
VERTEX
  5
A84D
  8
0
 10
163.0582003580183
 20
113.7076912051633
 30
0.0
  0
VERTEX
  5
A84E
  8
0
 10
163.1975477616873
 20
113.7172790602808
 30
0.0
  0
VERTEX
  5
A84F
  8
0
 10
163.47327136476869
 20
113.7309853996028
 30
0.0
  0
VERTEX
  5
A850
  8
0
 10
163.74414459431989
 20
113.7376564987856
 30
0.0
  0
VERTEX
  5
A851
  8
0
 10
163.87742911606469
 20
113.7384704324611
 30
0.0
  0
SEQEND
  5
A852
  8
0
  0
POLYLINE
  5
A44D
  8
0
 66
     1
 10
0.0
 20
0.0
 30
0.0
  0
VERTEX
  5
A853
  8
0
 10
121.1534279299627
 20
112.5994204856968
 30
0.0
  0
VERTEX
  5
A854
  8
0
 10
121.0282391426659
 20
112.6604166048528
 30
0.0
  0
VERTEX
  5
A855
  8
0
 10
120.77873334847609
 20
112.7762167552511
 30
0.0
  0
VERTEX
  5
A856
  8
0
 10
120.5313148940859
 20
112.8836766311328
 30
0.0
  0
VERTEX
  5
A857
  8
0
 10
120.40842876500609
 20
112.9343930316597
 30
0.0
  0
VERTEX
  5
A858
  8
0
 10
120.2839258831084
 20
112.984014825489
 30
0.0
  0
VERTEX
  5
A859
  8
0
 10
120.0291736947505
 20
113.08012720441261
 30
0.0
  0
VERTEX
  5
A85A
  8
0
 10
119.767469458618
 20
113.17145060619259
 30
0.0
  0
VERTEX
  5
A85B
  8
0
 10
119.4996908997618
 20
113.257318498844
 30
0.0
  0
VERTEX
  5
A85C
  8
0
 10
119.22673744530429
 20
113.33714907580369
 30
0.0
  0
VERTEX
  5
A85D
  8
0
 10
118.949533318977
 20
113.41044549563389
 30
0.0
  0
VERTEX
  5
A85E
  8
0
 10
118.80963475755669
 20
113.44451122573081
 30
0.0
  0
VERTEX
  5
A85F
  8
0
 10
118.6690337010121
 20
113.476795757652
 30
0.0
  0
VERTEX
  5
A860
  8
0
 10
118.3862152999296
 20
113.5358765199654
 30
0.0
  0
VERTEX
  5
A861
  8
0
 10
118.1020297127745
 20
113.5874615380859
 30
0.0
  0
VERTEX
  5
A862
  8
0
 10
117.8174602560736
 20
113.6314079557648
 30
0.0
  0
VERTEX
  5
A863
  8
0
 10
117.5335364775342
 20
113.6676567282413
 30
0.0
  0
VERTEX
  5
A864
  8
0
 10
117.2512986629676
 20
113.69623967188539
 30
0.0
  0
VERTEX
  5
A865
  8
0
 10
117.1111377110805
 20
113.7076912051633
 30
0.0
  0
VERTEX
  5
A866
  8
0
 10
116.9717903074114
 20
113.7172790602808
 30
0.0
  0
VERTEX
  5
A867
  8
0
 10
116.69606670433009
 20
113.7309853996028
 30
0.0
  0
VERTEX
  5
A868
  8
0
 10
116.42519347477899
 20
113.7376564987856
 30
0.0
  0
VERTEX
  5
A869
  8
0
 10
116.29190895303419
 20
113.7384704324611
 30
0.0
  0
SEQEND
  5
A86A
  8
0
  0
POLYLINE
  5
A44E
  8
0
 10
121.15342792996258
 20
112.59942048569678
 30
0.0
 66
     1
 70
     8
  0
VERTEX
  8
0
  5
AA7D
 10
121.153
 20
112.599
 30
0.000000
  70
    32
  0
VERTEX
  8
0
  5
AA7E
 10
121.207
 20
112.583
 30
0.000000
  70
    32
  0
VERTEX
  8
0
  5
AA7F
 10
121.261
 20
112.567
 30
0.000000
  70
    32
  0
VERTEX
  8
0
  5
AA80
 10
121.314
 20
112.552
 30
0.000000
  70
    32
  0
VERTEX
  8
0
  5
AA81
 10
121.368
 20
112.536
 30
0.000000
  70
    32
  0
VERTEX
  8
0
  5
AA82
 10
121.422
 20
112.520
 30
0.000000
  70
    32
  0
VERTEX
  8
0
  5
AA83
 10
121.475
 20
112.504
 30
0.000000
  70
    32
  0
VERTEX
  8
0
  5
AA84
 10
121.529
 20
112.488
 30
0.000000
  70
    32
  0
VERTEX
  8
0
  5
AA85
 10
121.583
 20
112.473
 30
0.000000
  70
    32
  0
VERTEX
  8
0
  5
AA86
 10
121.636
 20
112.457
 30
0.000000
  70
    32
  0
VERTEX
  8
0
  5
AA87
 10
121.690
 20
112.441
 30
0.000000
  70
    32
  0
VERTEX
  8
0
  5
AA88
 10
121.744
 20
112.426
 30
0.000000
  70
    32
  0
VERTEX
  8
0
  5
AA89
 10
121.798
 20
112.410
 30
0.000000
  70
    32
  0
VERTEX
  8
0
  5
AA8A
 10
121.851
 20
112.395
 30
0.000000
  70
    32
  0
VERTEX
  8
0
  5
AA8B
 10
121.905
 20
112.379
 30
0.000000
  70
    32
  0
VERTEX
  8
0
  5
AA8C
 10
121.959
 20
112.364
 30
0.000000
  70
    32
  0
VERTEX
  8
0
  5
AA8D
 10
122.013
 20
112.349
 30
0.000000
  70
    32
  0
VERTEX
  8
0
  5
AA8E
 10
122.066
 20
112.333
 30
0.000000
  70
    32
  0
VERTEX
  8
0
  5
AA8F
 10
122.120
 20
112.318
 30
0.000000
  70
    32
  0
VERTEX
  8
0
  5
AA90
 10
122.174
 20
112.303
 30
0.000000
  70
    32
  0
VERTEX
  8
0
  5
AA91
 10
122.228
 20
112.288
 30
0.000000
  70
    32
  0
VERTEX
  8
0
  5
AA92
 10
122.282
 20
112.273
 30
0.000000
  70
    32
  0
VERTEX
  8
0
  5
AA93
 10
122.336
 20
112.258
 30
0.000000
  70
    32
  0
VERTEX
  8
0
  5
AA94
 10
122.390
 20
112.243
 30
0.000000
  70
    32
  0
VERTEX
  8
0
  5
AA95
 10
122.443
 20
112.228
 30
0.000000
  70
    32
  0
VERTEX
  8
0
  5
AA96
 10
122.497
 20
112.213
 30
0.000000
  70
    32
  0
VERTEX
  8
0
  5
AA97
 10
122.551
 20
112.198
 30
0.000000
  70
    32
  0
VERTEX
  8
0
  5
AA98
 10
122.605
 20
112.183
 30
0.000000
  70
    32
  0
VERTEX
  8
0
  5
AA99
 10
122.659
 20
112.168
 30
0.000000
  70
    32
  0
VERTEX
  8
0
  5
AA9A
 10
122.713
 20
112.153
 30
0.000000
  70
    32
  0
VERTEX
  8
0
  5
AA9B
 10
122.767
 20
112.139
 30
0.000000
  70
    32
  0
VERTEX
  8
0
  5
AA9C
 10
122.821
 20
112.124
 30
0.000000
  70
    32
  0
VERTEX
  8
0
  5
AA9D
 10
122.875
 20
112.109
 30
0.000000
  70
    32
  0
VERTEX
  8
0
  5
AA9E
 10
122.929
 20
112.095
 30
0.000000
  70
    32
  0
VERTEX
  8
0
  5
AA9F
 10
122.983
 20
112.080
 30
0.000000
  70
    32
  0
VERTEX
  8
0
  5
AAA0
 10
123.037
 20
112.066
 30
0.000000
  70
    32
  0
VERTEX
  8
0
  5
AAA1
 10
123.091
 20
112.051
 30
0.000000
  70
    32
  0
VERTEX
  8
0
  5
AAA2
 10
123.145
 20
112.037
 30
0.000000
  70
    32
  0
VERTEX
  8
0
  5
AAA3
 10
123.199
 20
112.023
 30
0.000000
  70
    32
  0
VERTEX
  8
0
  5
AAA4
 10
123.253
 20
112.008
 30
0.000000
  70
    32
  0
VERTEX
  8
0
  5
AAA5
 10
123.308
 20
111.994
 30
0.000000
  70
    32
  0
VERTEX
  8
0
  5
AAA6
 10
123.362
 20
111.980
 30
0.000000
  70
    32
  0
VERTEX
  8
0
  5
AAA7
 10
123.416
 20
111.966
 30
0.000000
  70
    32
  0
VERTEX
  8
0
  5
AAA8
 10
123.470
 20
111.952
 30
0.000000
  70
    32
  0
VERTEX
  8
0
  5
AAA9
 10
123.524
 20
111.938
 30
0.000000
  70
    32
  0
VERTEX
  8
0
  5
AAAA
 10
123.578
 20
111.924
 30
0.000000
  70
    32
  0
VERTEX
  8
0
  5
AAAB
 10
123.632
 20
111.910
 30
0.000000
  70
    32
  0
VERTEX
  8
0
  5
AAAC
 10
123.687
 20
111.896
 30
0.000000
  70
    32
  0
VERTEX
  8
0
  5
AAAD
 10
123.741
 20
111.882
 30
0.000000
  70
    32
  0
VERTEX
  8
0
  5
AAAE
 10
123.795
 20
111.868
 30
0.000000
  70
    32
  0
VERTEX
  8
0
  5
AAAF
 10
123.849
 20
111.854
 30
0.000000
  70
    32
  0
VERTEX
  8
0
  5
AAB0
 10
123.903
 20
111.840
 30
0.000000
  70
    32
  0
VERTEX
  8
0
  5
AAB1
 10
123.958
 20
111.827
 30
0.000000
  70
    32
  0
VERTEX
  8
0
  5
AAB2
 10
124.012
 20
111.813
 30
0.000000
  70
    32
  0
VERTEX
  8
0
  5
AAB3
 10
124.066
 20
111.799
 30
0.000000
  70
    32
  0
VERTEX
  8
0
  5
AAB4
 10
124.120
 20
111.786
 30
0.000000
  70
    32
  0
VERTEX
  8
0
  5
AAB5
 10
124.175
 20
111.772
 30
0.000000
  70
    32
  0
VERTEX
  8
0
  5
AAB6
 10
124.229
 20
111.759
 30
0.000000
  70
    32
  0
VERTEX
  8
0
  5
AAB7
 10
124.283
 20
111.745
 30
0.000000
  70
    32
  0
VERTEX
  8
0
  5
AAB8
 10
124.338
 20
111.732
 30
0.000000
  70
    32
  0
VERTEX
  8
0
  5
AAB9
 10
124.392
 20
111.719
 30
0.000000
  70
    32
  0
VERTEX
  8
0
  5
AABA
 10
124.446
 20
111.705
 30
0.000000
  70
    32
  0
VERTEX
  8
0
  5
AABB
 10
124.501
 20
111.692
 30
0.000000
  70
    32
  0
VERTEX
  8
0
  5
AABC
 10
124.555
 20
111.679
 30
0.000000
  70
    32
  0
VERTEX
  8
0
  5
AABD
 10
124.609
 20
111.666
 30
0.000000
  70
    32
  0
VERTEX
  8
0
  5
AABE
 10
124.664
 20
111.653
 30
0.000000
  70
    32
  0
VERTEX
  8
0
  5
AABF
 10
124.718
 20
111.640
 30
0.000000
  70
    32
  0
VERTEX
  8
0
  5
AAC0
 10
124.773
 20
111.627
 30
0.000000
  70
    32
  0
VERTEX
  8
0
  5
AAC1
 10
124.827
 20
111.614
 30
0.000000
  70
    32
  0
VERTEX
  8
0
  5
AAC2
 10
124.881
 20
111.601
 30
0.000000
  70
    32
  0
VERTEX
  8
0
  5
AAC3
 10
124.936
 20
111.588
 30
0.000000
  70
    32
  0
VERTEX
  8
0
  5
AAC4
 10
124.990
 20
111.575
 30
0.000000
  70
    32
  0
VERTEX
  8
0
  5
AAC5
 10
125.045
 20
111.562
 30
0.000000
  70
    32
  0
VERTEX
  8
0
  5
AAC6
 10
125.099
 20
111.549
 30
0.000000
  70
    32
  0
VERTEX
  8
0
  5
AAC7
 10
125.154
 20
111.537
 30
0.000000
  70
    32
  0
VERTEX
  8
0
  5
AAC8
 10
125.208
 20
111.524
 30
0.000000
  70
    32
  0
VERTEX
  8
0
  5
AAC9
 10
125.263
 20
111.511
 30
0.000000
  70
    32
  0
VERTEX
  8
0
  5
AACA
 10
125.317
 20
111.499
 30
0.000000
  70
    32
  0
VERTEX
  8
0
  5
AACB
 10
125.372
 20
111.486
 30
0.000000
  70
    32
  0
VERTEX
  8
0
  5
AACC
 10
125.426
 20
111.474
 30
0.000000
  70
    32
  0
VERTEX
  8
0
  5
AACD
 10
125.481
 20
111.461
 30
0.000000
  70
    32
  0
VERTEX
  8
0
  5
AACE
 10
125.535
 20
111.449
 30
0.000000
  70
    32
  0
VERTEX
  8
0
  5
AACF
 10
125.590
 20
111.437
 30
0.000000
  70
    32
  0
VERTEX
  8
0
  5
AAD0
 10
125.644
 20
111.424
 30
0.000000
  70
    32
  0
VERTEX
  8
0
  5
AAD1
 10
125.699
 20
111.412
 30
0.000000
  70
    32
  0
VERTEX
  8
0
  5
AAD2
 10
125.754
 20
111.400
 30
0.000000
  70
    32
  0
VERTEX
  8
0
  5
AAD3
 10
125.808
 20
111.388
 30
0.000000
  70
    32
  0
VERTEX
  8
0
  5
AAD4
 10
125.863
 20
111.376
 30
0.000000
  70
    32
  0
VERTEX
  8
0
  5
AAD5
 10
125.917
 20
111.364
 30
0.000000
  70
    32
  0
VERTEX
  8
0
  5
AAD6
 10
125.972
 20
111.352
 30
0.000000
  70
    32
  0
VERTEX
  8
0
  5
AAD7
 10
126.027
 20
111.340
 30
0.000000
  70
    32
  0
VERTEX
  8
0
  5
AAD8
 10
126.081
 20
111.328
 30
0.000000
  70
    32
  0
VERTEX
  8
0
  5
AAD9
 10
126.136
 20
111.316
 30
0.000000
  70
    32
  0
VERTEX
  8
0
  5
AADA
 10
126.191
 20
111.304
 30
0.000000
  70
    32
  0
VERTEX
  8
0
  5
AADB
 10
126.245
 20
111.292
 30
0.000000
  70
    32
  0
VERTEX
  8
0
  5
AADC
 10
126.300
 20
111.281
 30
0.000000
  70
    32
  0
VERTEX
  8
0
  5
AADD
 10
126.355
 20
111.269
 30
0.000000
  70
    32
  0
VERTEX
  8
0
  5
AADE
 10
126.409
 20
111.257
 30
0.000000
  70
    32
  0
VERTEX
  8
0
  5
AADF
 10
126.464
 20
111.246
 30
0.000000
  70
    32
  0
VERTEX
  8
0
  5
AAE0
 10
126.519
 20
111.234
 30
0.000000
  70
    32
  0
VERTEX
  8
0
  5
AAE1
 10
126.574
 20
111.223
 30
0.000000
  70
    32
  0
VERTEX
  8
0
  5
AAE2
 10
126.628
 20
111.211
 30
0.000000
  70
    32
  0
VERTEX
  8
0
  5
AAE3
 10
126.683
 20
111.200
 30
0.000000
  70
    32
  0
VERTEX
  8
0
  5
AAE4
 10
126.738
 20
111.188
 30
0.000000
  70
    32
  0
VERTEX
  8
0
  5
AAE5
 10
126.793
 20
111.177
 30
0.000000
  70
    32
  0
VERTEX
  8
0
  5
AAE6
 10
126.848
 20
111.166
 30
0.000000
  70
    32
  0
VERTEX
  8
0
  5
AAE7
 10
126.902
 20
111.154
 30
0.000000
  70
    32
  0
VERTEX
  8
0
  5
AAE8
 10
126.957
 20
111.143
 30
0.000000
  70
    32
  0
VERTEX
  8
0
  5
AAE9
 10
127.012
 20
111.132
 30
0.000000
  70
    32
  0
VERTEX
  8
0
  5
AAEA
 10
127.067
 20
111.121
 30
0.000000
  70
    32
  0
VERTEX
  8
0
  5
AAEB
 10
127.122
 20
111.110
 30
0.000000
  70
    32
  0
VERTEX
  8
0
  5
AAEC
 10
127.176
 20
111.099
 30
0.000000
  70
    32
  0
VERTEX
  8
0
  5
AAED
 10
127.231
 20
111.088
 30
0.000000
  70
    32
  0
VERTEX
  8
0
  5
AAEE
 10
127.286
 20
111.077
 30
0.000000
  70
    32
  0
VERTEX
  8
0
  5
AAEF
 10
127.341
 20
111.066
 30
0.000000
  70
    32
  0
VERTEX
  8
0
  5
AAF0
 10
127.396
 20
111.055
 30
0.000000
  70
    32
  0
VERTEX
  8
0
  5
AAF1
 10
127.451
 20
111.045
 30
0.000000
  70
    32
  0
VERTEX
  8
0
  5
AAF2
 10
127.506
 20
111.034
 30
0.000000
  70
    32
  0
VERTEX
  8
0
  5
AAF3
 10
127.561
 20
111.023
 30
0.000000
  70
    32
  0
VERTEX
  8
0
  5
AAF4
 10
127.616
 20
111.013
 30
0.000000
  70
    32
  0
VERTEX
  8
0
  5
AAF5
 10
127.670
 20
111.002
 30
0.000000
  70
    32
  0
VERTEX
  8
0
  5
AAF6
 10
127.725
 20
110.991
 30
0.000000
  70
    32
  0
VERTEX
  8
0
  5
AAF7
 10
127.780
 20
110.981
 30
0.000000
  70
    32
  0
VERTEX
  8
0
  5
AAF8
 10
127.835
 20
110.970
 30
0.000000
  70
    32
  0
VERTEX
  8
0
  5
AAF9
 10
127.890
 20
110.960
 30
0.000000
  70
    32
  0
VERTEX
  8
0
  5
AAFA
 10
127.945
 20
110.950
 30
0.000000
  70
    32
  0
VERTEX
  8
0
  5
AAFB
 10
128.000
 20
110.939
 30
0.000000
  70
    32
  0
VERTEX
  8
0
  5
AAFC
 10
128.055
 20
110.929
 30
0.000000
  70
    32
  0
VERTEX
  8
0
  5
AAFD
 10
128.110
 20
110.919
 30
0.000000
  70
    32
  0
SEQEND
  8
0
  5
AAFE
  0
POLYLINE
  5
A44F
  8
0
 66
     1
 10
0.0
 20
0.0
 30
0.0
  0
VERTEX
  5
A86B
  8
0
 10
163.87742911606469
 20
113.7384704324611
 30
0.0
  0
VERTEX
  5
A86C
  8
0
 10
163.74414459432001
 20
113.7376564987856
 30
0.0
  0
VERTEX
  5
A86D
  8
0
 10
163.47327136476909
 20
113.7309853996028
 30
0.0
  0
VERTEX
  5
A86E
  8
0
 10
163.1975477616881
 20
113.7172790602809
 30
0.0
  0
VERTEX
  5
A86F
  8
0
 10
163.05820035801921
 20
113.7076912051633
 30
0.0
  0
VERTEX
  5
A870
  8
0
 10
162.91803940613241
 20
113.69623967188549
 30
0.0
  0
VERTEX
  5
A871
  8
0
 10
162.63580159156601
 20
113.6676567282415
 30
0.0
  0
VERTEX
  5
A872
  8
0
 10
162.35187781302699
 20
113.6314079557651
 30
0.0
  0
VERTEX
  5
A873
  8
0
 10
162.06730835632641
 20
113.5874615380862
 30
0.0
  0
VERTEX
  5
A874
  8
0
 10
161.78312276917171
 20
113.5358765199659
 30
0.0
  0
VERTEX
  5
A875
  8
0
 10
161.5003043680895
 20
113.4767957576526
 30
0.0
  0
VERTEX
  5
A876
  8
0
 10
161.35970331154499
 20
113.4445112257315
 30
0.0
  0
VERTEX
  5
A877
  8
0
 10
161.21980475012489
 20
113.4104454956346
 30
0.0
  0
VERTEX
  5
A878
  8
0
 10
160.9426006237978
 20
113.3371490758046
 30
0.0
  0
VERTEX
  5
A879
  8
0
 10
160.66964716934061
 20
113.25731849884509
 30
0.0
  0
VERTEX
  5
A87A
  8
0
 10
160.4018686104846
 20
113.1714506061938
 30
0.0
  0
VERTEX
  5
A87B
  8
0
 10
160.14016437435231
 20
113.080127204414
 30
0.0
  0
VERTEX
  5
A87C
  8
0
 10
159.8854121859946
 20
112.9840148254906
 30
0.0
  0
VERTEX
  5
A87D
  8
0
 10
159.760909304097
 20
112.9343930316614
 30
0.0
  0
VERTEX
  5
A87E
  8
0
 10
159.6380231750172
 20
112.88367663113461
 30
0.0
  0
VERTEX
  5
A87F
  8
0
 10
159.39060472062499
 20
112.77621675525209
 30
0.0
  0
VERTEX
  5
A880
  8
0
 10
159.14109892643319
 20
112.6604166048529
 30
0.0
  0
VERTEX
  5
A881
  8
0
 10
159.01591013913611
 20
112.5994204856968
 30
0.0
  0
SEQEND
  5
A882
  8
0
  0
POLYLINE
  5
A450
  8
0
 10
116.2030309022557
 20
95.896453675877709
 30
0.0
 66
     1
 70
     8
  0
VERTEX
  8
0
  5
AAFF
 10
116.203
 20
95.8965
 30
0.000000
  70
    32
  0
VERTEX
  8
0
  5
AB00
 10
116.548
 20
95.9049
 30
0.000000
  70
    32
  0
VERTEX
  8
0
  5
AB01
 10
116.892
 20
95.9304
 30
0.000000
  70
    32
  0
VERTEX
  8
0
  5
AB02
 10
117.234
 20
95.9727
 30
0.000000
  70
    32
  0
VERTEX
  8
0
  5
AB03
 10
117.574
 20
96.0318
 30
0.000000
  70
    32
  0
VERTEX
  8
0
  5
AB04
 10
117.911
 20
96.1075
 30
0.000000
  70
    32
  0
VERTEX
  8
0
  5
AB05
 10
118.243
 20
96.1997
 30
0.000000
  70
    32
  0
VERTEX
  8
0
  5
AB06
 10
118.571
 20
96.3081
 30
0.000000
  70
    32
  0
VERTEX
  8
0
  5
AB07
 10
118.892
 20
96.4325
 30
0.000000
  70
    32
  0
VERTEX
  8
0
  5
AB08
 10
119.208
 20
96.5726
 30
0.000000
  70
    32
  0
VERTEX
  8
0
  5
AB09
 10
119.516
 20
96.7280
 30
0.000000
  70
    32
  0
VERTEX
  8
0
  5
AB0A
 10
119.816
 20
96.8983
 30
0.000000
  70
    32
  0
VERTEX
  8
0
  5
AB0B
 10
120.107
 20
97.0832
 30
0.000000
  70
    32
  0
VERTEX
  8
0
  5
AB0C
 10
120.389
 20
97.2823
 30
0.000000
  70
    32
  0
VERTEX
  8
0
  5
AB0D
 10
120.661
 20
97.4949
 30
0.000000
  70
    32
  0
VERTEX
  8
0
  5
AB0E
 10
120.923
 20
97.7207
 30
0.000000
  70
    32
  0
VERTEX
  8
0
  5
AB0F
 10
121.172
 20
97.9590
 30
0.000000
  70
    32
  0
VERTEX
  8
0
  5
AB10
 10
121.410
 20
98.2093
 30
0.000000
  70
    32
  0
VERTEX
  8
0
  5
AB11
 10
121.636
 20
98.4711
 30
0.000000
  70
    32
  0
VERTEX
  8
0
  5
AB12
 10
121.848
 20
98.7435
 30
0.000000
  70
    32
  0
VERTEX
  8
0
  5
AB13
 10
122.046
 20
99.0261
 30
0.000000
  70
    32
  0
VERTEX
  8
0
  5
AB14
 10
122.231
 20
99.3182
 30
0.000000
  70
    32
  0
VERTEX
  8
0
  5
AB15
 10
122.401
 20
99.6189
 30
0.000000
  70
    32
  0
VERTEX
  8
0
  5
AB16
 10
122.556
 20
99.9276
 30
0.000000
  70
    32
  0
VERTEX
  8
0
  5
AB17
 10
122.696
 20
100.244
 30
0.000000
  70
    32
  0
VERTEX
  8
0
  5
AB18
 10
122.820
 20
100.566
 30
0.000000
  70
    32
  0
VERTEX
  8
0
  5
AB19
 10
122.928
 20
100.894
 30
0.000000
  70
    32
  0
VERTEX
  8
0
  5
AB1A
 10
123.020
 20
101.227
 30
0.000000
  70
    32
  0
VERTEX
  8
0
  5
AB1B
 10
123.096
 20
101.565
 30
0.000000
  70
    32
  0
VERTEX
  8
0
  5
AB1C
 10
123.155
 20
101.905
 30
0.000000
  70
    32
  0
VERTEX
  8
0
  5
AB1D
 10
123.197
 20
102.248
 30
0.000000
  70
    32
  0
VERTEX
  8
0
  5
AB1E
 10
123.222
 20
102.593
 30
0.000000
  70
    32
  0
VERTEX
  8
0
  5
AB1F
 10
123.231
 20
102.938
 30
0.000000
  70
    32
  0
VERTEX
  8
0
  5
AB20
 10
123.222
 20
103.284
 30
0.000000
  70
    32
  0
VERTEX
  8
0
  5
AB21
 10
123.197
 20
103.629
 30
0.000000
  70
    32
  0
VERTEX
  8
0
  5
AB22
 10
123.155
 20
103.972
 30
0.000000
  70
    32
  0
VERTEX
  8
0
  5
AB23
 10
123.096
 20
104.312
 30
0.000000
  70
    32
  0
VERTEX
  8
0
  5
AB24
 10
123.020
 20
104.650
 30
0.000000
  70
    32
  0
VERTEX
  8
0
  5
AB25
 10
122.928
 20
104.983
 30
0.000000
  70
    32
  0
VERTEX
  8
0
  5
AB26
 10
122.820
 20
105.311
 30
0.000000
  70
    32
  0
VERTEX
  8
0
  5
AB27
 10
122.696
 20
105.633
 30
0.000000
  70
    32
  0
VERTEX
  8
0
  5
AB28
 10
122.556
 20
105.949
 30
0.000000
  70
    32
  0
VERTEX
  8
0
  5
AB29
 10
122.401
 20
106.258
 30
0.000000
  70
    32
  0
VERTEX
  8
0
  5
AB2A
 10
122.231
 20
106.559
 30
0.000000
  70
    32
  0
VERTEX
  8
0
  5
AB2B
 10
122.046
 20
106.851
 30
0.000000
  70
    32
  0
VERTEX
  8
0
  5
AB2C
 10
121.848
 20
107.133
 30
0.000000
  70
    32
  0
VERTEX
  8
0
  5
AB2D
 10
121.636
 20
107.406
 30
0.000000
  70
    32
  0
VERTEX
  8
0
  5
AB2E
 10
121.410
 20
107.668
 30
0.000000
  70
    32
  0
VERTEX
  8
0
  5
AB2F
 10
121.172
 20
107.918
 30
0.000000
  70
    32
  0
VERTEX
  8
0
  5
AB30
 10
120.923
 20
108.156
 30
0.000000
  70
    32
  0
VERTEX
  8
0
  5
AB31
 10
120.661
 20
108.382
 30
0.000000
  70
    32
  0
VERTEX
  8
0
  5
AB32
 10
120.389
 20
108.595
 30
0.000000
  70
    32
  0
VERTEX
  8
0
  5
AB33
 10
120.107
 20
108.794
 30
0.000000
  70
    32
  0
VERTEX
  8
0
  5
AB34
 10
119.816
 20
108.979
 30
0.000000
  70
    32
  0
VERTEX
  8
0
  5
AB35
 10
119.516
 20
109.149
 30
0.000000
  70
    32
  0
VERTEX
  8
0
  5
AB36
 10
119.208
 20
109.304
 30
0.000000
  70
    32
  0
VERTEX
  8
0
  5
AB37
 10
118.892
 20
109.444
 30
0.000000
  70
    32
  0
VERTEX
  8
0
  5
AB38
 10
118.571
 20
109.569
 30
0.000000
  70
    32
  0
VERTEX
  8
0
  5
AB39
 10
118.243
 20
109.677
 30
0.000000
  70
    32
  0
VERTEX
  8
0
  5
AB3A
 10
117.911
 20
109.769
 30
0.000000
  70
    32
  0
VERTEX
  8
0
  5
AB3B
 10
117.574
 20
109.845
 30
0.000000
  70
    32
  0
VERTEX
  8
0
  5
AB3C
 10
117.234
 20
109.904
 30
0.000000
  70
    32
  0
VERTEX
  8
0
  5
AB3D
 10
116.892
 20
109.947
 30
0.000000
  70
    32
  0
VERTEX
  8
0
  5
AB3E
 10
116.548
 20
109.972
 30
0.000000
  70
    32
  0
VERTEX
  8
0
  5
AB3F
 10
116.203
 20
109.980
 30
0.000000
  70
    32
  0
VERTEX
  8
0
  5
AB40
 10
115.858
 20
109.972
 30
0.000000
  70
    32
  0
VERTEX
  8
0
  5
AB41
 10
115.514
 20
109.947
 30
0.000000
  70
    32
  0
VERTEX
  8
0
  5
AB42
 10
115.172
 20
109.904
 30
0.000000
  70
    32
  0
VERTEX
  8
0
  5
AB43
 10
114.832
 20
109.845
 30
0.000000
  70
    32
  0
VERTEX
  8
0
  5
AB44
 10
114.495
 20
109.769
 30
0.000000
  70
    32
  0
VERTEX
  8
0
  5
AB45
 10
114.163
 20
109.677
 30
0.000000
  70
    32
  0
VERTEX
  8
0
  5
AB46
 10
113.835
 20
109.569
 30
0.000000
  70
    32
  0
VERTEX
  8
0
  5
AB47
 10
113.514
 20
109.444
 30
0.000000
  70
    32
  0
VERTEX
  8
0
  5
AB48
 10
113.198
 20
109.304
 30
0.000000
  70
    32
  0
VERTEX
  8
0
  5
AB49
 10
112.890
 20
109.149
 30
0.000000
  70
    32
  0
VERTEX
  8
0
  5
AB4A
 10
112.590
 20
108.979
 30
0.000000
  70
    32
  0
VERTEX
  8
0
  5
AB4B
 10
112.299
 20
108.794
 30
0.000000
  70
    32
  0
VERTEX
  8
0
  5
AB4C
 10
112.017
 20
108.595
 30
0.000000
  70
    32
  0
VERTEX
  8
0
  5
AB4D
 10
111.745
 20
108.382
 30
0.000000
  70
    32
  0
VERTEX
  8
0
  5
AB4E
 10
111.484
 20
108.156
 30
0.000000
  70
    32
  0
VERTEX
  8
0
  5
AB4F
 10
111.234
 20
107.918
 30
0.000000
  70
    32
  0
VERTEX
  8
0
  5
AB50
 10
110.996
 20
107.668
 30
0.000000
  70
    32
  0
VERTEX
  8
0
  5
AB51
 10
110.771
 20
107.406
 30
0.000000
  70
    32
  0
VERTEX
  8
0
  5
AB52
 10
110.558
 20
107.133
 30
0.000000
  70
    32
  0
VERTEX
  8
0
  5
AB53
 10
110.360
 20
106.851
 30
0.000000
  70
    32
  0
VERTEX
  8
0
  5
AB54
 10
110.175
 20
106.559
 30
0.000000
  70
    32
  0
VERTEX
  8
0
  5
AB55
 10
110.005
 20
106.258
 30
0.000000
  70
    32
  0
VERTEX
  8
0
  5
AB56
 10
109.850
 20
105.949
 30
0.000000
  70
    32
  0
VERTEX
  8
0
  5
AB57
 10
109.710
 20
105.633
 30
0.000000
  70
    32
  0
VERTEX
  8
0
  5
AB58
 10
109.586
 20
105.311
 30
0.000000
  70
    32
  0
VERTEX
  8
0
  5
AB59
 10
109.478
 20
104.983
 30
0.000000
  70
    32
  0
VERTEX
  8
0
  5
AB5A
 10
109.386
 20
104.650
 30
0.000000
  70
    32
  0
VERTEX
  8
0
  5
AB5B
 10
109.310
 20
104.312
 30
0.000000
  70
    32
  0
VERTEX
  8
0
  5
AB5C
 10
109.251
 20
103.972
 30
0.000000
  70
    32
  0
VERTEX
  8
0
  5
AB5D
 10
109.209
 20
103.629
 30
0.000000
  70
    32
  0
VERTEX
  8
0
  5
AB5E
 10
109.184
 20
103.284
 30
0.000000
  70
    32
  0
VERTEX
  8
0
  5
AB5F
 10
109.175
 20
102.938
 30
0.000000
  70
    32
  0
VERTEX
  8
0
  5
AB60
 10
109.184
 20
102.593
 30
0.000000
  70
    32
  0
VERTEX
  8
0
  5
AB61
 10
109.209
 20
102.248
 30
0.000000
  70
    32
  0
VERTEX
  8
0
  5
AB62
 10
109.251
 20
101.905
 30
0.000000
  70
    32
  0
VERTEX
  8
0
  5
AB63
 10
109.310
 20
101.565
 30
0.000000
  70
    32
  0
VERTEX
  8
0
  5
AB64
 10
109.386
 20
101.227
 30
0.000000
  70
    32
  0
VERTEX
  8
0
  5
AB65
 10
109.478
 20
100.894
 30
0.000000
  70
    32
  0
VERTEX
  8
0
  5
AB66
 10
109.586
 20
100.566
 30
0.000000
  70
    32
  0
VERTEX
  8
0
  5
AB67
 10
109.710
 20
100.244
 30
0.000000
  70
    32
  0
VERTEX
  8
0
  5
AB68
 10
109.850
 20
99.9276
 30
0.000000
  70
    32
  0
VERTEX
  8
0
  5
AB69
 10
110.005
 20
99.6189
 30
0.000000
  70
    32
  0
VERTEX
  8
0
  5
AB6A
 10
110.175
 20
99.3182
 30
0.000000
  70
    32
  0
VERTEX
  8
0
  5
AB6B
 10
110.360
 20
99.0261
 30
0.000000
  70
    32
  0
VERTEX
  8
0
  5
AB6C
 10
110.558
 20
98.7435
 30
0.000000
  70
    32
  0
VERTEX
  8
0
  5
AB6D
 10
110.771
 20
98.4711
 30
0.000000
  70
    32
  0
VERTEX
  8
0
  5
AB6E
 10
110.996
 20
98.2093
 30
0.000000
  70
    32
  0
VERTEX
  8
0
  5
AB6F
 10
111.234
 20
97.9590
 30
0.000000
  70
    32
  0
VERTEX
  8
0
  5
AB70
 10
111.484
 20
97.7207
 30
0.000000
  70
    32
  0
VERTEX
  8
0
  5
AB71
 10
111.745
 20
97.4949
 30
0.000000
  70
    32
  0
VERTEX
  8
0
  5
AB72
 10
112.017
 20
97.2823
 30
0.000000
  70
    32
  0
VERTEX
  8
0
  5
AB73
 10
112.299
 20
97.0832
 30
0.000000
  70
    32
  0
VERTEX
  8
0
  5
AB74
 10
112.590
 20
96.8983
 30
0.000000
  70
    32
  0
VERTEX
  8
0
  5
AB75
 10
112.890
 20
96.7280
 30
0.000000
  70
    32
  0
VERTEX
  8
0
  5
AB76
 10
113.198
 20
96.5726
 30
0.000000
  70
    32
  0
VERTEX
  8
0
  5
AB77
 10
113.514
 20
96.4325
 30
0.000000
  70
    32
  0
VERTEX
  8
0
  5
AB78
 10
113.835
 20
96.3081
 30
0.000000
  70
    32
  0
VERTEX
  8
0
  5
AB79
 10
114.163
 20
96.1997
 30
0.000000
  70
    32
  0
VERTEX
  8
0
  5
AB7A
 10
114.495
 20
96.1075
 30
0.000000
  70
    32
  0
VERTEX
  8
0
  5
AB7B
 10
114.832
 20
96.0318
 30
0.000000
  70
    32
  0
VERTEX
  8
0
  5
AB7C
 10
115.172
 20
95.9727
 30
0.000000
  70
    32
  0
VERTEX
  8
0
  5
AB7D
 10
115.514
 20
95.9304
 30
0.000000
  70
    32
  0
VERTEX
  8
0
  5
AB7E
 10
115.858
 20
95.9049
 30
0.000000
  70
    32
  0
VERTEX
  8
0
  5
AB7F
 10
116.203
 20
95.8965
 30
0.000000
  70
    32
  0
SEQEND
  8
0
  5
AB80
  0
POLYLINE
  5
A451
  8
0
 10
163.96630716684319
 20
109.98048718904441
 30
0.0
 66
     1
 70
     8
  0
VERTEX
  8
0
  5
AB81
 10
163.966
 20
109.980
 30
0.000000
  70
    32
  0
VERTEX
  8
0
  5
AB82
 10
163.621
 20
109.972
 30
0.000000
  70
    32
  0
VERTEX
  8
0
  5
AB83
 10
163.277
 20
109.947
 30
0.000000
  70
    32
  0
VERTEX
  8
0
  5
AB84
 10
162.935
 20
109.904
 30
0.000000
  70
    32
  0
VERTEX
  8
0
  5
AB85
 10
162.595
 20
109.845
 30
0.000000
  70
    32
  0
VERTEX
  8
0
  5
AB86
 10
162.259
 20
109.769
 30
0.000000
  70
    32
  0
VERTEX
  8
0
  5
AB87
 10
161.926
 20
109.677
 30
0.000000
  70
    32
  0
VERTEX
  8
0
  5
AB88
 10
161.599
 20
109.569
 30
0.000000
  70
    32
  0
VERTEX
  8
0
  5
AB89
 10
161.277
 20
109.444
 30
0.000000
  70
    32
  0
VERTEX
  8
0
  5
AB8A
 10
160.962
 20
109.304
 30
0.000000
  70
    32
  0
VERTEX
  8
0
  5
AB8B
 10
160.653
 20
109.149
 30
0.000000
  70
    32
  0
VERTEX
  8
0
  5
AB8C
 10
160.353
 20
108.979
 30
0.000000
  70
    32
  0
VERTEX
  8
0
  5
AB8D
 10
160.062
 20
108.794
 30
0.000000
  70
    32
  0
VERTEX
  8
0
  5
AB8E
 10
159.780
 20
108.595
 30
0.000000
  70
    32
  0
VERTEX
  8
0
  5
AB8F
 10
159.508
 20
108.382
 30
0.000000
  70
    32
  0
VERTEX
  8
0
  5
AB90
 10
159.247
 20
108.156
 30
0.000000
  70
    32
  0
VERTEX
  8
0
  5
AB91
 10
158.997
 20
107.918
 30
0.000000
  70
    32
  0
VERTEX
  8
0
  5
AB92
 10
158.759
 20
107.668
 30
0.000000
  70
    32
  0
VERTEX
  8
0
  5
AB93
 10
158.534
 20
107.406
 30
0.000000
  70
    32
  0
VERTEX
  8
0
  5
AB94
 10
158.322
 20
107.133
 30
0.000000
  70
    32
  0
VERTEX
  8
0
  5
AB95
 10
158.123
 20
106.851
 30
0.000000
  70
    32
  0
VERTEX
  8
0
  5
AB96
 10
157.938
 20
106.559
 30
0.000000
  70
    32
  0
VERTEX
  8
0
  5
AB97
 10
157.768
 20
106.258
 30
0.000000
  70
    32
  0
VERTEX
  8
0
  5
AB98
 10
157.613
 20
105.949
 30
0.000000
  70
    32
  0
VERTEX
  8
0
  5
AB99
 10
157.474
 20
105.633
 30
0.000000
  70
    32
  0
VERTEX
  8
0
  5
AB9A
 10
157.349
 20
105.311
 30
0.000000
  70
    32
  0
VERTEX
  8
0
  5
AB9B
 10
157.241
 20
104.983
 30
0.000000
  70
    32
  0
VERTEX
  8
0
  5
AB9C
 10
157.149
 20
104.650
 30
0.000000
  70
    32
  0
VERTEX
  8
0
  5
AB9D
 10
157.074
 20
104.312
 30
0.000000
  70
    32
  0
VERTEX
  8
0
  5
AB9E
 10
157.015
 20
103.972
 30
0.000000
  70
    32
  0
VERTEX
  8
0
  5
AB9F
 10
156.972
 20
103.629
 30
0.000000
  70
    32
  0
VERTEX
  8
0
  5
ABA0
 10
156.947
 20
103.284
 30
0.000000
  70
    32
  0
VERTEX
  8
0
  5
ABA1
 10
156.939
 20
102.938
 30
0.000000
  70
    32
  0
VERTEX
  8
0
  5
ABA2
 10
156.947
 20
102.593
 30
0.000000
  70
    32
  0
VERTEX
  8
0
  5
ABA3
 10
156.972
 20
102.248
 30
0.000000
  70
    32
  0
VERTEX
  8
0
  5
ABA4
 10
157.015
 20
101.905
 30
0.000000
  70
    32
  0
VERTEX
  8
0
  5
ABA5
 10
157.074
 20
101.565
 30
0.000000
  70
    32
  0
VERTEX
  8
0
  5
ABA6
 10
157.149
 20
101.227
 30
0.000000
  70
    32
  0
VERTEX
  8
0
  5
ABA7
 10
157.241
 20
100.894
 30
0.000000
  70
    32
  0
VERTEX
  8
0
  5
ABA8
 10
157.349
 20
100.566
 30
0.000000
  70
    32
  0
VERTEX
  8
0
  5
ABA9
 10
157.474
 20
100.244
 30
0.000000
  70
    32
  0
VERTEX
  8
0
  5
ABAA
 10
157.613
 20
99.9276
 30
0.000000
  70
    32
  0
VERTEX
  8
0
  5
ABAB
 10
157.768
 20
99.6189
 30
0.000000
  70
    32
  0
VERTEX
  8
0
  5
ABAC
 10
157.938
 20
99.3182
 30
0.000000
  70
    32
  0
VERTEX
  8
0
  5
ABAD
 10
158.123
 20
99.0261
 30
0.000000
  70
    32
  0
VERTEX
  8
0
  5
ABAE
 10
158.322
 20
98.7435
 30
0.000000
  70
    32
  0
VERTEX
  8
0
  5
ABAF
 10
158.534
 20
98.4711
 30
0.000000
  70
    32
  0
VERTEX
  8
0
  5
ABB0
 10
158.759
 20
98.2093
 30
0.000000
  70
    32
  0
VERTEX
  8
0
  5
ABB1
 10
158.997
 20
97.9590
 30
0.000000
  70
    32
  0
VERTEX
  8
0
  5
ABB2
 10
159.247
 20
97.7207
 30
0.000000
  70
    32
  0
VERTEX
  8
0
  5
ABB3
 10
159.508
 20
97.4949
 30
0.000000
  70
    32
  0
VERTEX
  8
0
  5
ABB4
 10
159.780
 20
97.2823
 30
0.000000
  70
    32
  0
VERTEX
  8
0
  5
ABB5
 10
160.062
 20
97.0832
 30
0.000000
  70
    32
  0
VERTEX
  8
0
  5
ABB6
 10
160.353
 20
96.8983
 30
0.000000
  70
    32
  0
VERTEX
  8
0
  5
ABB7
 10
160.653
 20
96.7280
 30
0.000000
  70
    32
  0
VERTEX
  8
0
  5
ABB8
 10
160.962
 20
96.5726
 30
0.000000
  70
    32
  0
VERTEX
  8
0
  5
ABB9
 10
161.277
 20
96.4325
 30
0.000000
  70
    32
  0
VERTEX
  8
0
  5
ABBA
 10
161.599
 20
96.3081
 30
0.000000
  70
    32
  0
VERTEX
  8
0
  5
ABBB
 10
161.926
 20
96.1997
 30
0.000000
  70
    32
  0
VERTEX
  8
0
  5
ABBC
 10
162.259
 20
96.1075
 30
0.000000
  70
    32
  0
VERTEX
  8
0
  5
ABBD
 10
162.595
 20
96.0318
 30
0.000000
  70
    32
  0
VERTEX
  8
0
  5
ABBE
 10
162.935
 20
95.9727
 30
0.000000
  70
    32
  0
VERTEX
  8
0
  5
ABBF
 10
163.277
 20
95.9304
 30
0.000000
  70
    32
  0
VERTEX
  8
0
  5
ABC0
 10
163.621
 20
95.9049
 30
0.000000
  70
    32
  0
VERTEX
  8
0
  5
ABC1
 10
163.966
 20
95.8965
 30
0.000000
  70
    32
  0
VERTEX
  8
0
  5
ABC2
 10
164.311
 20
95.9049
 30
0.000000
  70
    32
  0
VERTEX
  8
0
  5
ABC3
 10
164.655
 20
95.9304
 30
0.000000
  70
    32
  0
VERTEX
  8
0
  5
ABC4
 10
164.997
 20
95.9727
 30
0.000000
  70
    32
  0
VERTEX
  8
0
  5
ABC5
 10
165.337
 20
96.0318
 30
0.000000
  70
    32
  0
VERTEX
  8
0
  5
ABC6
 10
165.674
 20
96.1075
 30
0.000000
  70
    32
  0
VERTEX
  8
0
  5
ABC7
 10
166.006
 20
96.1997
 30
0.000000
  70
    32
  0
VERTEX
  8
0
  5
ABC8
 10
166.334
 20
96.3081
 30
0.000000
  70
    32
  0
VERTEX
  8
0
  5
ABC9
 10
166.656
 20
96.4325
 30
0.000000
  70
    32
  0
VERTEX
  8
0
  5
ABCA
 10
166.971
 20
96.5726
 30
0.000000
  70
    32
  0
VERTEX
  8
0
  5
ABCB
 10
167.279
 20
96.7280
 30
0.000000
  70
    32
  0
VERTEX
  8
0
  5
ABCC
 10
167.579
 20
96.8983
 30
0.000000
  70
    32
  0
VERTEX
  8
0
  5
ABCD
 10
167.871
 20
97.0832
 30
0.000000
  70
    32
  0
VERTEX
  8
0
  5
ABCE
 10
168.153
 20
97.2823
 30
0.000000
  70
    32
  0
VERTEX
  8
0
  5
ABCF
 10
168.425
 20
97.4949
 30
0.000000
  70
    32
  0
VERTEX
  8
0
  5
ABD0
 10
168.686
 20
97.7207
 30
0.000000
  70
    32
  0
VERTEX
  8
0
  5
ABD1
 10
168.936
 20
97.9590
 30
0.000000
  70
    32
  0
VERTEX
  8
0
  5
ABD2
 10
169.173
 20
98.2093
 30
0.000000
  70
    32
  0
VERTEX
  8
0
  5
ABD3
 10
169.399
 20
98.4711
 30
0.000000
  70
    32
  0
VERTEX
  8
0
  5
ABD4
 10
169.611
 20
98.7435
 30
0.000000
  70
    32
  0
VERTEX
  8
0
  5
ABD5
 10
169.810
 20
99.0261
 30
0.000000
  70
    32
  0
VERTEX
  8
0
  5
ABD6
 10
169.994
 20
99.3182
 30
0.000000
  70
    32
  0
VERTEX
  8
0
  5
ABD7
 10
170.164
 20
99.6189
 30
0.000000
  70
    32
  0
VERTEX
  8
0
  5
ABD8
 10
170.319
 20
99.9276
 30
0.000000
  70
    32
  0
VERTEX
  8
0
  5
ABD9
 10
170.459
 20
100.244
 30
0.000000
  70
    32
  0
VERTEX
  8
0
  5
ABDA
 10
170.583
 20
100.566
 30
0.000000
  70
    32
  0
VERTEX
  8
0
  5
ABDB
 10
170.691
 20
100.894
 30
0.000000
  70
    32
  0
VERTEX
  8
0
  5
ABDC
 10
170.783
 20
101.227
 30
0.000000
  70
    32
  0
VERTEX
  8
0
  5
ABDD
 10
170.859
 20
101.565
 30
0.000000
  70
    32
  0
VERTEX
  8
0
  5
ABDE
 10
170.918
 20
101.905
 30
0.000000
  70
    32
  0
VERTEX
  8
0
  5
ABDF
 10
170.960
 20
102.248
 30
0.000000
  70
    32
  0
VERTEX
  8
0
  5
ABE0
 10
170.986
 20
102.593
 30
0.000000
  70
    32
  0
VERTEX
  8
0
  5
ABE1
 10
170.994
 20
102.938
 30
0.000000
  70
    32
  0
VERTEX
  8
0
  5
ABE2
 10
170.986
 20
103.284
 30
0.000000
  70
    32
  0
VERTEX
  8
0
  5
ABE3
 10
170.960
 20
103.629
 30
0.000000
  70
    32
  0
VERTEX
  8
0
  5
ABE4
 10
170.918
 20
103.972
 30
0.000000
  70
    32
  0
VERTEX
  8
0
  5
ABE5
 10
170.859
 20
104.312
 30
0.000000
  70
    32
  0
VERTEX
  8
0
  5
ABE6
 10
170.783
 20
104.650
 30
0.000000
  70
    32
  0
VERTEX
  8
0
  5
ABE7
 10
170.691
 20
104.983
 30
0.000000
  70
    32
  0
VERTEX
  8
0
  5
ABE8
 10
170.583
 20
105.311
 30
0.000000
  70
    32
  0
VERTEX
  8
0
  5
ABE9
 10
170.459
 20
105.633
 30
0.000000
  70
    32
  0
VERTEX
  8
0
  5
ABEA
 10
170.319
 20
105.949
 30
0.000000
  70
    32
  0
VERTEX
  8
0
  5
ABEB
 10
170.164
 20
106.258
 30
0.000000
  70
    32
  0
VERTEX
  8
0
  5
ABEC
 10
169.994
 20
106.559
 30
0.000000
  70
    32
  0
VERTEX
  8
0
  5
ABED
 10
169.810
 20
106.851
 30
0.000000
  70
    32
  0
VERTEX
  8
0
  5
ABEE
 10
169.611
 20
107.133
 30
0.000000
  70
    32
  0
VERTEX
  8
0
  5
ABEF
 10
169.399
 20
107.406
 30
0.000000
  70
    32
  0
VERTEX
  8
0
  5
ABF0
 10
169.173
 20
107.668
 30
0.000000
  70
    32
  0
VERTEX
  8
0
  5
ABF1
 10
168.936
 20
107.918
 30
0.000000
  70
    32
  0
VERTEX
  8
0
  5
ABF2
 10
168.686
 20
108.156
 30
0.000000
  70
    32
  0
VERTEX
  8
0
  5
ABF3
 10
168.425
 20
108.382
 30
0.000000
  70
    32
  0
VERTEX
  8
0
  5
ABF4
 10
168.153
 20
108.595
 30
0.000000
  70
    32
  0
VERTEX
  8
0
  5
ABF5
 10
167.871
 20
108.794
 30
0.000000
  70
    32
  0
VERTEX
  8
0
  5
ABF6
 10
167.579
 20
108.979
 30
0.000000
  70
    32
  0
VERTEX
  8
0
  5
ABF7
 10
167.279
 20
109.149
 30
0.000000
  70
    32
  0
VERTEX
  8
0
  5
ABF8
 10
166.971
 20
109.304
 30
0.000000
  70
    32
  0
VERTEX
  8
0
  5
ABF9
 10
166.656
 20
109.444
 30
0.000000
  70
    32
  0
VERTEX
  8
0
  5
ABFA
 10
166.334
 20
109.569
 30
0.000000
  70
    32
  0
VERTEX
  8
0
  5
ABFB
 10
166.006
 20
109.677
 30
0.000000
  70
    32
  0
VERTEX
  8
0
  5
ABFC
 10
165.674
 20
109.769
 30
0.000000
  70
    32
  0
VERTEX
  8
0
  5
ABFD
 10
165.337
 20
109.845
 30
0.000000
  70
    32
  0
VERTEX
  8
0
  5
ABFE
 10
164.997
 20
109.904
 30
0.000000
  70
    32
  0
VERTEX
  8
0
  5
ABFF
 10
164.655
 20
109.947
 30
0.000000
  70
    32
  0
VERTEX
  8
0
  5
AC00
 10
164.311
 20
109.972
 30
0.000000
  70
    32
  0
VERTEX
  8
0
  5
AC01
 10
163.966
 20
109.980
 30
0.000000
  70
    32
  0
SEQEND
  8
0
  5
AC02
  0
LINE
  5
A452
  8
1
 10
140.08466903454939
 20
152.6384001229367
 30
0.0
 11
140.08466903454939
 21
184.79662317673819
 31
0.0
  0
LINE
  5
A453
  8
1
 10
180.2131933258288
 20
168.71751164983741
 30
0.0
 11
99.956144743269974
 21
168.71751164983741
 31
0.0
  0
ARC
  5
A454
  8
0
 10
140.08466903454951
 20
168.71751164983741
 30
0.0
 40
35.000000000000142
 50
174.78409142954729
 51
185.2159085704526
  0
ARC
  5
A455
  8
0
 10
140.08466903454931
 20
168.71751164983741
 30
0.0
 40
35.000000000000121
 50
354.78409142954729
 51
5.2159085704526609
  0
LINE
  5
A456
  8
0
 10
123.2141135121892
 20
172.68928042386369
 30
0.0
 11
123.2307408769592
 21
172.69545322913629
 31
0.0
  0
LINE
  5
A457
  8
0
 10
156.9385971921397
 20
172.69545322913629
 30
0.0
 11
156.9552245569094
 21
172.68928042386369
 31
0.0
  0
POLYLINE
  5
A458
  8
0
 66
     1
 10
0.0
 20
0.0
 30
0.0
  0
VERTEX
  5
A883
  8
0
 10
128.11016800527369
 20
165.05107779136591
 30
0.0
  0
VERTEX
  5
A884
  8
0
 10
128.22226243844449
 20
165.05665627641179
 30
0.0
  0
VERTEX
  5
A885
  8
0
 10
128.44992348089531
 20
165.0583029993735
 30
0.0
  0
VERTEX
  5
A886
  8
0
 10
128.68091455141959
 20
165.0467106109059
 30
0.0
  0
VERTEX
  5
A887
  8
0
 10
128.7971695010624
 20
165.0357909286293
 30
0.0
  0
VERTEX
  5
A888
  8
0
 10
128.91367394430429
 20
165.02139709078779
 30
0.0
  0
VERTEX
  5
A889
  8
0
 10
129.1466799819903
 20
164.9820855683578
 30
0.0
  0
VERTEX
  5
A88A
  8
0
 10
129.37842606239809
 20
164.9286997261639
 30
0.0
  0
VERTEX
  5
A88B
  8
0
 10
129.60741902391629
 20
164.86136530778589
 30
0.0
  0
VERTEX
  5
A88C
  8
0
 10
129.832297188692
 20
164.7803705597521
 30
0.0
  0
VERTEX
  5
A88D
  8
0
 10
130.05183668858791
 20
164.6861351275721
 30
0.0
  0
VERTEX
  5
A88E
  8
0
 10
130.15918723600211
 20
164.6342483939805
 30
0.0
  0
VERTEX
  5
A88F
  8
0
 10
130.26471018685481
 20
164.57931113623209
 30
0.0
  0
VERTEX
  5
A890
  8
0
 10
130.46967155001281
 20
164.46073543724259
 30
0.0
  0
VERTEX
  5
A891
  8
0
 10
130.665591149242
 20
164.33141181350121
 30
0.0
  0
VERTEX
  5
A892
  8
0
 10
130.85142515411559
 20
164.19253424856711
 30
0.0
  0
VERTEX
  5
A893
  8
0
 10
131.02625933270409
 20
164.0454678599385
 30
0.0
  0
VERTEX
  5
A894
  8
0
 10
131.19295222061649
 20
163.88811963574841
 30
0.0
  0
VERTEX
  5
A895
  8
0
 10
131.2738647256536
 20
163.80485247635349
 30
0.0
  0
VERTEX
  5
A896
  8
0
 10
131.3528873458875
 20
163.7186420638219
 30
0.0
  0
VERTEX
  5
A897
  8
0
 10
131.50452255728419
 20
163.5378091845472
 30
0.0
  0
VERTEX
  5
A898
  8
0
 10
131.64649766744739
 20
163.34653044885371
 30
0.0
  0
VERTEX
  5
A899
  8
0
 10
131.71348642019899
 20
163.24729212616211
 30
0.0
  0
SEQEND
  5
A89A
  8
0
  0
POLYLINE
  5
A459
  8
0
 66
     1
 10
0.0
 20
0.0
 30
0.0
  0
VERTEX
  5
A89B
  8
0
 10
148.45585164889971
 20
163.24729212616211
 30
0.0
  0
VERTEX
  5
A89C
  8
0
 10
148.5196097662236
 20
163.34188866610171
 30
0.0
  0
VERTEX
  5
A89D
  8
0
 10
148.65693551395361
 20
163.52779528023751
 30
0.0
  0
VERTEX
  5
A89E
  8
0
 10
148.80694496868711
 20
163.70792377681749
 30
0.0
  0
VERTEX
  5
A89F
  8
0
 10
148.88651410500489
 20
163.79532956291419
 30
0.0
  0
VERTEX
  5
A8A0
  8
0
 10
148.96900496104601
 20
163.88072199487399
 30
0.0
  0
VERTEX
  5
A8A1
  8
0
 10
149.14233877408449
 20
164.04480826878699
 30
0.0
  0
VERTEX
  5
A8A2
  8
0
 10
149.32601207554009
 20
164.19894420432769
 30
0.0
  0
VERTEX
  5
A8A3
  8
0
 10
149.51893467815751
 20
164.3420373116162
 30
0.0
  0
VERTEX
  5
A8A4
  8
0
 10
149.7199847409147
 20
164.47322349609109
 30
0.0
  0
VERTEX
  5
A8A5
  8
0
 10
149.92799457300259
 20
164.5918216572253
 30
0.0
  0
VERTEX
  5
A8A6
  8
0
 10
150.0341727022554
 20
164.64620333033241
 30
0.0
  0
VERTEX
  5
A8A7
  8
0
 10
150.1415535101612
 20
164.69722465584181
 30
0.0
  0
VERTEX
  5
A8A8
  8
0
 10
150.35916276705279
 20
164.78901758320461
 30
0.0
  0
VERTEX
  5
A8A9
  8
0
 10
150.57926118186921
 20
164.86698836908761
 30
0.0
  0
VERTEX
  5
A8AA
  8
0
 10
150.80018851943291
 20
164.93111735053469
 30
0.0
  0
VERTEX
  5
A8AB
  8
0
 10
151.02048196763911
 20
164.98165133090751
 30
0.0
  0
VERTEX
  5
A8AC
  8
0
 10
151.24463669223701
 20
165.01985443251471
 30
0.0
  0
VERTEX
  5
A8AD
  8
0
 10
151.35867834568791
 20
165.0343017157083
 30
0.0
  0
VERTEX
  5
A8AE
  8
0
 10
151.47379159994591
 20
165.0455244083696
 30
0.0
  0
VERTEX
  5
A8AF
  8
0
 10
151.70651295596039
 20
165.05800824584091
 30
0.0
  0
VERTEX
  5
A8B0
  8
0
 10
151.94137750652919
 20
165.05685569303211
 30
0.0
  0
VERTEX
  5
A8B1
  8
0
 10
152.05917006382501
 20
165.05107779136591
 30
0.0
  0
SEQEND
  5
A8B2
  8
0
  0
LINE
  5
A45A
  8
0
 10
152.05917006382501
 20
165.05107779136591
 30
0.0
 11
172.94802248485939
 21
163.71751164983741
 31
0.0
  0
POLYLINE
  5
A45B
  8
0
 66
     1
 10
0.0
 20
0.0
 30
0.0
  0
VERTEX
  5
A8B3
  8
0
 10
172.94802248485919
 20
163.71751164983741
 30
0.0
  0
VERTEX
  5
A8B4
  8
0
 10
173.0475483629624
 20
163.71998953491911
 30
0.0
  0
VERTEX
  5
A8B5
  8
0
 10
173.24009711811789
 20
163.73895348576769
 30
0.0
  0
VERTEX
  5
A8B6
  8
0
 10
173.42359330197201
 20
163.77487622395051
 30
0.0
  0
VERTEX
  5
A8B7
  8
0
 10
173.51174171500421
 20
163.7986003362106
 30
0.0
  0
VERTEX
  5
A8B8
  8
0
 10
173.59737558858819
 20
163.82586143199109
 30
0.0
  0
VERTEX
  5
A8B9
  8
0
 10
173.76122945126539
 20
163.89030218461761
 30
0.0
  0
VERTEX
  5
A8BA
  8
0
 10
173.9151457213151
 20
163.9668910040356
 30
0.0
  0
VERTEX
  5
A8BB
  8
0
 10
174.05887748693411
 20
164.054381719746
 30
0.0
  0
VERTEX
  5
A8BC
  8
0
 10
174.19220060321209
 20
164.15161867462729
 30
0.0
  0
VERTEX
  5
A8BD
  8
0
 10
174.31491653010909
 20
164.257511420707
 30
0.0
  0
VERTEX
  5
A8BE
  8
0
 10
174.37224300354049
 20
164.31337635928759
 30
0.0
  0
VERTEX
  5
A8BF
  8
0
 10
174.4268574891031
 20
164.37101730145591
 30
0.0
  0
VERTEX
  5
A8C0
  8
0
 10
174.52794674760511
 20
164.49120038266781
 30
0.0
  0
VERTEX
  5
A8C1
  8
0
 10
174.61827638654901
 20
164.6173971540278
 30
0.0
  0
VERTEX
  5
A8C2
  8
0
 10
174.69780706672009
 20
164.74887657041771
 30
0.0
  0
VERTEX
  5
A8C3
  8
0
 10
174.76648447714859
 20
164.884927730584
 30
0.0
  0
VERTEX
  5
A8C4
  8
0
 10
174.82425261536881
 20
165.02486419451191
 30
0.0
  0
VERTEX
  5
A8C5
  8
0
 10
174.8490281779053
 20
165.09607995205641
 30
0.0
  0
VERTEX
  5
A8C6
  8
0
 10
174.87105553756359
 20
165.16801744767781
 30
0.0
  0
VERTEX
  5
A8C7
  8
0
 10
174.9068389215584
 20
165.31373179977331
 30
0.0
  0
VERTEX
  5
A8C8
  8
0
 10
174.93155128939779
 20
165.46136036335531
 30
0.0
  0
VERTEX
  5
A8C9
  8
0
 10
174.93974087578721
 20
165.53569346801919
 30
0.0
  0
SEQEND
  5
A8CA
  8
0
  0
LINE
  5
A45C
  8
0
 10
128.11016800527369
 20
172.3839455083089
 30
0.0
 11
107.22131558423941
 21
173.71751164983741
 31
0.0
  0
POLYLINE
  5
A45D
  8
0
 66
     1
 10
0.0
 20
0.0
 30
0.0
  0
VERTEX
  5
A8CB
  8
0
 10
107.22131558423941
 20
173.71751164983741
 30
0.0
  0
VERTEX
  5
A8CC
  8
0
 10
107.1217897061361
 20
173.7150337647557
 30
0.0
  0
VERTEX
  5
A8CD
  8
0
 10
106.9292409509805
 20
173.69606981390709
 30
0.0
  0
VERTEX
  5
A8CE
  8
0
 10
106.7457447671262
 20
173.6601470757241
 30
0.0
  0
VERTEX
  5
A8CF
  8
0
 10
106.6575963540939
 20
173.63642296346401
 30
0.0
  0
VERTEX
  5
A8D0
  8
0
 10
106.5719624805099
 20
173.6091618676835
 30
0.0
  0
VERTEX
  5
A8D1
  8
0
 10
106.4081086178324
 20
173.54472111505669
 30
0.0
  0
VERTEX
  5
A8D2
  8
0
 10
106.2541923477828
 20
173.4681322956387
 30
0.0
  0
VERTEX
  5
A8D3
  8
0
 10
106.1104605821637
 20
173.3806415799281
 30
0.0
  0
VERTEX
  5
A8D4
  8
0
 10
105.9771374658857
 20
173.28340462504659
 30
0.0
  0
VERTEX
  5
A8D5
  8
0
 10
105.8544215389886
 20
173.1775118789667
 30
0.0
  0
VERTEX
  5
A8D6
  8
0
 10
105.7970950655571
 20
173.12164694038611
 30
0.0
  0
VERTEX
  5
A8D7
  8
0
 10
105.74248057999451
 20
173.06400599821779
 30
0.0
  0
VERTEX
  5
A8D8
  8
0
 10
105.64139132149261
 20
172.94382291700569
 30
0.0
  0
VERTEX
  5
A8D9
  8
0
 10
105.551061682549
 20
172.8176261456459
 30
0.0
  0
VERTEX
  5
A8DA
  8
0
 10
105.4715310023783
 20
172.68614672925651
 30
0.0
  0
VERTEX
  5
A8DB
  8
0
 10
105.40285359195011
 20
172.55009556909059
 30
0.0
  0
VERTEX
  5
A8DC
  8
0
 10
105.34508545373021
 20
172.41015910516319
 30
0.0
  0
VERTEX
  5
A8DD
  8
0
 10
105.3203098911937
 20
172.33894334761891
 30
0.0
  0
VERTEX
  5
A8DE
  8
0
 10
105.29828253153541
 20
172.26700585199771
 30
0.0
  0
VERTEX
  5
A8DF
  8
0
 10
105.2624991475405
 20
172.1212914999021
 30
0.0
  0
VERTEX
  5
A8E0
  8
0
 10
105.2377867797009
 20
171.97366293631941
 30
0.0
  0
VERTEX
  5
A8E1
  8
0
 10
105.2295971933116
 20
171.89932983165571
 30
0.0
  0
SEQEND
  5
A8E2
  8
0
  0
POLYLINE
  5
A45E
  8
0
 66
     1
 10
0.0
 20
0.0
 30
0.0
  0
VERTEX
  5
A8E3
  8
0
 10
174.93974087578721
 20
171.89932983165571
 30
0.0
  0
VERTEX
  5
A8E4
  8
0
 10
174.93155128939779
 20
171.9736629363195
 30
0.0
  0
VERTEX
  5
A8E5
  8
0
 10
174.9068389215584
 20
172.12129149990091
 30
0.0
  0
VERTEX
  5
A8E6
  8
0
 10
174.87105553756379
 20
172.26700585199629
 30
0.0
  0
VERTEX
  5
A8E7
  8
0
 10
174.84902817790541
 20
172.33894334761791
 30
0.0
  0
VERTEX
  5
A8E8
  8
0
 10
174.82425261536889
 20
172.41015910516251
 30
0.0
  0
VERTEX
  5
A8E9
  8
0
 10
174.76648447714859
 20
172.5500955690909
 30
0.0
  0
VERTEX
  5
A8EA
  8
0
 10
174.69780706671969
 20
172.6861467292579
 30
0.0
  0
VERTEX
  5
A8EB
  8
0
 10
174.6182763865483
 20
172.81762614564809
 30
0.0
  0
VERTEX
  5
A8EC
  8
0
 10
174.52794674760409
 20
172.94382291700839
 30
0.0
  0
VERTEX
  5
A8ED
  8
0
 10
174.42685748910191
 20
173.06400599822021
 30
0.0
  0
VERTEX
  5
A8EE
  8
0
 10
174.37224300353941
 20
173.1216469403883
 30
0.0
  0
VERTEX
  5
A8EF
  8
0
 10
174.31491653010801
 20
173.1775118789688
 30
0.0
  0
VERTEX
  5
A8F0
  8
0
 10
174.19220060321089
 20
173.28340462504841
 30
0.0
  0
VERTEX
  5
A8F1
  8
0
 10
174.05887748693289
 20
173.38064157992949
 30
0.0
  0
VERTEX
  5
A8F2
  8
0
 10
173.9151457213141
 20
173.46813229563969
 30
0.0
  0
VERTEX
  5
A8F3
  8
0
 10
173.76122945126451
 20
173.5447211150576
 30
0.0
  0
VERTEX
  5
A8F4
  8
0
 10
173.5973755885872
 20
173.60916186768389
 30
0.0
  0
VERTEX
  5
A8F5
  8
0
 10
173.51174171500341
 20
173.6364229634645
 30
0.0
  0
VERTEX
  5
A8F6
  8
0
 10
173.42359330197129
 20
173.66014707572461
 30
0.0
  0
VERTEX
  5
A8F7
  8
0
 10
173.24009711811721
 20
173.6960698139072
 30
0.0
  0
VERTEX
  5
A8F8
  8
0
 10
173.0475483629622
 20
173.71503376475579
 30
0.0
  0
VERTEX
  5
A8F9
  8
0
 10
172.94802248485919
 20
173.71751164983741
 30
0.0
  0
SEQEND
  5
A8FA
  8
0
  0
LINE
  5
A45F
  8
0
 10
107.22131558423951
 20
163.71751164983741
 30
0.0
 11
128.11016800527369
 21
165.05107779136591
 31
0.0
  0
POLYLINE
  5
A460
  8
0
 66
     1
 10
0.0
 20
0.0
 30
0.0
  0
VERTEX
  5
A8FB
  8
0
 10
105.2295971933116
 20
165.53569346801919
 30
0.0
  0
VERTEX
  5
A8FC
  8
0
 10
105.2377867797011
 20
165.46136036335531
 30
0.0
  0
VERTEX
  5
A8FD
  8
0
 10
105.2624991475403
 20
165.31373179977371
 30
0.0
  0
VERTEX
  5
A8FE
  8
0
 10
105.29828253153499
 20
165.1680174476783
 30
0.0
  0
VERTEX
  5
A8FF
  8
0
 10
105.3203098911933
 20
165.09607995205681
 30
0.0
  0
VERTEX
  5
A900
  8
0
 10
105.34508545372999
 20
165.02486419451219
 30
0.0
  0
VERTEX
  5
A901
  8
0
 10
105.4028535919502
 20
164.8849277305838
 30
0.0
  0
VERTEX
  5
A902
  8
0
 10
105.47153100237909
 20
164.74887657041691
 30
0.0
  0
VERTEX
  5
A903
  8
0
 10
105.5510616825505
 20
164.61739715402661
 30
0.0
  0
VERTEX
  5
A904
  8
0
 10
105.64139132149469
 20
164.49120038266631
 30
0.0
  0
VERTEX
  5
A905
  8
0
 10
105.74248057999689
 20
164.3710173014546
 30
0.0
  0
VERTEX
  5
A906
  8
0
 10
105.7970950655594
 20
164.31337635928639
 30
0.0
  0
VERTEX
  5
A907
  8
0
 10
105.85442153899091
 20
164.2575114207059
 30
0.0
  0
VERTEX
  5
A908
  8
0
 10
105.97713746588791
 20
164.15161867462629
 30
0.0
  0
VERTEX
  5
A909
  8
0
 10
106.1104605821659
 20
164.05438171974521
 30
0.0
  0
VERTEX
  5
A90A
  8
0
 10
106.25419234778479
 20
163.96689100403501
 30
0.0
  0
VERTEX
  5
A90B
  8
0
 10
106.4081086178345
 20
163.89030218461721
 30
0.0
  0
VERTEX
  5
A90C
  8
0
 10
106.5719624805116
 20
163.8258614319908
 30
0.0
  0
VERTEX
  5
A90D
  8
0
 10
106.6575963540955
 20
163.79860033621031
 30
0.0
  0
VERTEX
  5
A90E
  8
0
 10
106.7457447671275
 20
163.77487622395029
 30
0.0
  0
VERTEX
  5
A90F
  8
0
 10
106.92924095098149
 20
163.73895348576761
 30
0.0
  0
VERTEX
  5
A910
  8
0
 10
107.1217897061367
 20
163.71998953491911
 30
0.0
  0
VERTEX
  5
A911
  8
0
 10
107.22131558423951
 20
163.71751164983741
 30
0.0
  0
SEQEND
  5
A912
  8
0
  0
LINE
  5
A461
  8
0
 10
172.94802248485939
 20
173.71751164983741
 30
0.0
 11
152.05917006382501
 21
172.3839455083089
 31
0.0
  0
POLYLINE
  5
A462
  8
0
 66
     1
 10
0.0
 20
0.0
 30
0.0
  0
VERTEX
  5
A913
  8
0
 10
152.05917006382501
 20
172.3839455083089
 30
0.0
  0
VERTEX
  5
A914
  8
0
 10
151.94707563335081
 20
172.3783670233594
 30
0.0
  0
VERTEX
  5
A915
  8
0
 10
151.71941459644029
 20
172.37672030012641
 30
0.0
  0
VERTEX
  5
A916
  8
0
 10
151.4884235315595
 20
172.3883126876693
 30
0.0
  0
VERTEX
  5
A917
  8
0
 10
151.37216858474221
 20
172.39923236922999
 30
0.0
  0
VERTEX
  5
A918
  8
0
 10
151.25566414431049
 20
172.41362620618449
 30
0.0
  0
VERTEX
  5
A919
  8
0
 10
151.02265811214619
 20
172.45293772632809
 30
0.0
  0
VERTEX
  5
A91A
  8
0
 10
150.7909120370376
 20
172.50632356556571
 30
0.0
  0
VERTEX
  5
A91B
  8
0
 10
150.56191908049379
 20
172.57365798035039
 30
0.0
  0
VERTEX
  5
A91C
  8
0
 10
150.33704092030769
 20
172.65465272418959
 30
0.0
  0
VERTEX
  5
A91D
  8
0
 10
150.1175014245101
 20
172.74888815163939
 30
0.0
  0
VERTEX
  5
A91E
  8
0
 10
150.0101508789312
 20
172.8007748826918
 30
0.0
  0
VERTEX
  5
A91F
  8
0
 10
149.90462792975899
 20
172.85571213780031
 30
0.0
  0
VERTEX
  5
A920
  8
0
 10
149.6996665694694
 20
172.9742878312581
 30
0.0
  0
VERTEX
  5
A921
  8
0
 10
149.50374697240429
 20
173.10361144922919
 30
0.0
  0
VERTEX
  5
A922
  8
0
 10
149.3179129689384
 20
173.2424890082923
 30
0.0
  0
VERTEX
  5
A923
  8
0
 10
149.14307879113119
 20
173.38955539095721
 30
0.0
  0
VERTEX
  5
A924
  8
0
 10
148.97638590521461
 20
173.54690360721361
 30
0.0
  0
VERTEX
  5
A925
  8
0
 10
148.89547340084789
 20
173.63017076250659
 30
0.0
  0
VERTEX
  5
A926
  8
0
 10
148.8164507810551
 20
173.71638117086539
 30
0.0
  0
VERTEX
  5
A927
  8
0
 10
148.66481556983331
 20
173.89721404163851
 30
0.0
  0
VERTEX
  5
A928
  8
0
 10
148.52284045888501
 20
174.08849276871149
 30
0.0
  0
VERTEX
  5
A929
  8
0
 10
148.45585170537339
 20
174.18773108708999
 30
0.0
  0
SEQEND
  5
A92A
  8
0
  0
POLYLINE
  5
A463
  8
0
 66
     1
 10
0.0
 20
0.0
 30
0.0
  0
VERTEX
  5
A92B
  8
0
 10
131.71348642019899
 20
174.1877311735127
 30
0.0
  0
VERTEX
  5
A92C
  8
0
 10
131.6497283028751
 20
174.09313463357319
 30
0.0
  0
VERTEX
  5
A92D
  8
0
 10
131.51240255514529
 20
173.9072280194373
 30
0.0
  0
VERTEX
  5
A92E
  8
0
 10
131.36239310041159
 20
173.72709952285729
 30
0.0
  0
VERTEX
  5
A92F
  8
0
 10
131.28282396409381
 20
173.63969373676059
 30
0.0
  0
VERTEX
  5
A930
  8
0
 10
131.20033310805269
 20
173.5543013048009
 30
0.0
  0
VERTEX
  5
A931
  8
0
 10
131.02699929501429
 20
173.3902150308879
 30
0.0
  0
VERTEX
  5
A932
  8
0
 10
130.84332599355881
 20
173.23607909534709
 30
0.0
  0
VERTEX
  5
A933
  8
0
 10
130.65040339094119
 20
173.09298598805859
 30
0.0
  0
VERTEX
  5
A934
  8
0
 10
130.44935332818409
 20
172.96179980358369
 30
0.0
  0
VERTEX
  5
A935
  8
0
 10
130.24134349609619
 20
172.8432016424494
 30
0.0
  0
VERTEX
  5
A936
  8
0
 10
130.13516536684341
 20
172.78881996934251
 30
0.0
  0
VERTEX
  5
A937
  8
0
 10
130.0277845589377
 20
172.737798643833
 30
0.0
  0
VERTEX
  5
A938
  8
0
 10
129.81017530204599
 20
172.6460057164702
 30
0.0
  0
VERTEX
  5
A939
  8
0
 10
129.59007688722949
 20
172.56803493058709
 30
0.0
  0
VERTEX
  5
A93A
  8
0
 10
129.36914954966579
 20
172.50390594914001
 30
0.0
  0
VERTEX
  5
A93B
  8
0
 10
129.1488561014597
 20
172.4533719687673
 30
0.0
  0
VERTEX
  5
A93C
  8
0
 10
128.9247013768618
 20
172.41516886716011
 30
0.0
  0
VERTEX
  5
A93D
  8
0
 10
128.81065972341079
 20
172.40072158396649
 30
0.0
  0
VERTEX
  5
A93E
  8
0
 10
128.69554646915279
 20
172.38949889130521
 30
0.0
  0
VERTEX
  5
A93F
  8
0
 10
128.46282511313851
 20
172.3770150538339
 30
0.0
  0
VERTEX
  5
A940
  8
0
 10
128.22796056256959
 20
172.37816760664279
 30
0.0
  0
VERTEX
  5
A941
  8
0
 10
128.11016800527369
 20
172.3839455083089
 30
0.0
  0
SEQEND
  5
A942
  8
0
  0
LINE
  5
A464
  8
0
 10
64.47200421161574
 20
113.7384704324611
 30
0.0
 11
55.630156508006849
 21
113.7384704324611
 31
0.0
  0
LINE
  5
A465
  8
0
 10
50.051080359811287
 20
110.4887317111441
 30
0.0
 11
50.051080359811287
 21
77.738470432461156
 31
0.0
  0
LINE
  5
A466
  8
0
 10
70.051080359811294
 20
77.738470432461156
 30
0.0
 11
70.051080359811294
 21
110.4887317111441
 31
0.0
  0
LINE
  5
A467
  8
0
 10
50.051080359811287
 20
110.4887317111441
 30
0.0
 11
54.580860836136139
 21
110.4887317111441
 31
0.0
  0
LINE
  5
A468
  8
0
 10
65.521299883486563
 20
85.738470432461085
 30
0.0
 11
54.580860836136019
 21
85.738470432461085
 31
0.0
  0
LINE
  5
A469
  8
0
 10
65.521299883486563
 20
110.4887317111441
 30
0.0
 11
70.051080359811294
 21
110.4887317111441
 31
0.0
  0
LINE
  5
A46A
  8
0
 10
70.051080359811294
 20
77.738470432461156
 30
0.0
 11
50.051080359811287
 21
77.738470432461156
 31
0.0
  0
POLYLINE
  5
A46B
  8
0
 66
     1
 10
0.0
 20
0.0
 30
0.0
  0
VERTEX
  5
A943
  8
0
 10
64.96500740248041
 20
110.50198125003121
 30
0.0
  0
VERTEX
  5
A944
  8
0
 10
65.051042513010998
 20
110.4979875901133
 30
0.0
  0
VERTEX
  5
A945
  8
0
 10
65.231479128325986
 20
110.49209700956909
 30
0.0
  0
VERTEX
  5
A946
  8
0
 10
65.422306049273516
 20
110.4891084053952
 30
0.0
  0
VERTEX
  5
A947
  8
0
 10
65.521299883486563
 20
110.4887317111441
 30
0.0
  0
SEQEND
  5
A948
  8
0
  0
LINE
  5
A46C
  8
0
 10
65.521299883486563
 20
110.4887317111441
 30
0.0
 11
65.521299883486563
 21
85.738470432461085
 31
0.0
  0
POLYLINE
  5
A46D
  8
0
 66
     1
 10
0.0
 20
0.0
 30
0.0
  0
VERTEX
  5
A949
  8
0
 10
65.521299883486563
 20
85.738470432461085
 30
0.0
  0
VERTEX
  5
A94A
  8
0
 10
65.428287831562216
 20
85.739070027792764
 30
0.0
  0
VERTEX
  5
A94B
  8
0
 10
65.247947701190114
 20
85.743851934616146
 30
0.0
  0
VERTEX
  5
A94C
  8
0
 10
65.075498891327015
 20
85.753371800696982
 30
0.0
  0
VERTEX
  5
A94D
  8
0
 10
64.992351538996331
 20
85.759891200135584
 30
0.0
  0
VERTEX
  5
A94E
  8
0
 10
64.911318648240126
 20
85.767573017812765
 30
0.0
  0
VERTEX
  5
A94F
  8
0
 10
64.756082858139621
 20
85.786347123210817
 30
0.0
  0
VERTEX
  5
A950
  8
0
 10
64.610484741051096
 20
85.809525659174255
 30
0.0
  0
VERTEX
  5
A951
  8
0
 10
64.474783565135112
 20
85.836964564860409
 30
0.0
  0
VERTEX
  5
A952
  8
0
 10
64.349238041150215
 20
85.868514890520714
 30
0.0
  0
VERTEX
  5
A953
  8
0
 10
64.234316632097375
 20
85.903952514689806
 30
0.0
  0
VERTEX
  5
A954
  8
0
 10
64.180996648592554
 20
85.923038212616177
 30
0.0
  0
VERTEX
  5
A955
  8
0
 10
64.130455264744228
 20
85.94300192593937
 30
0.0
  0
VERTEX
  5
A956
  8
0
 10
64.037762670887332
 20
85.985465110859991
 30
0.0
  0
VERTEX
  5
A957
  8
0
 10
63.956348662486668
 20
86.031147358802798
 30
0.0
  0
VERTEX
  5
A958
  8
0
 10
63.886323233959047
 20
86.079857098748903
 30
0.0
  0
VERTEX
  5
A959
  8
0
 10
63.827806251711188
 20
86.131394503303397
 30
0.0
  0
VERTEX
  5
A95A
  8
0
 10
63.780988328413969
 20
86.185447451731193
 30
0.0
  0
VERTEX
  5
A95B
  8
0
 10
63.761977486070691
 20
86.213344323794104
 30
0.0
  0
VERTEX
  5
A95C
  8
0
 10
63.745896699306513
 20
86.241789728123535
 30
0.0
  0
VERTEX
  5
A95D
  8
0
 10
63.722519253366052
 20
86.300233173183585
 30
0.0
  0
VERTEX
  5
A95E
  8
0
 10
63.710844047766159
 20
86.360582882532015
 30
0.0
  0
VERTEX
  5
A95F
  8
0
 10
63.709387692956739
 20
86.391390163830394
 30
0.0
  0
SEQEND
  5
A960
  8
0
  0
POLYLINE
  5
A46E
  8
0
 66
     1
 10
0.0
 20
0.0
 30
0.0
  0
VERTEX
  5
A961
  8
0
 10
63.709387692956739
 20
86.391390163830394
 30
0.0
  0
VERTEX
  5
A962
  8
0
 10
63.709613907557348
 20
86.403648873692987
 30
0.0
  0
VERTEX
  5
A963
  8
0
 10
63.711421907104409
 20
86.428342171074519
 30
0.0
  0
VERTEX
  5
A964
  8
0
 10
63.715033508273223
 20
86.453261254613608
 30
0.0
  0
VERTEX
  5
A965
  8
0
 10
63.717514218282872
 20
86.465802227641234
 30
0.0
  0
SEQEND
  5
A966
  8
0
  0
POLYLINE
  5
A46F
  8
0
 66
     1
 10
0.0
 20
0.0
 30
0.0
  0
VERTEX
  5
A967
  8
0
 10
55.630156508006849
 20
113.7384704324611
 30
0.0
  0
VERTEX
  5
A968
  8
0
 10
55.611994197509951
 20
113.734760741332
 30
0.0
  0
VERTEX
  5
A969
  8
0
 10
55.574602206940881
 20
113.7037007314004
 30
0.0
  0
VERTEX
  5
A96A
  8
0
 10
55.536329946146111
 20
113.63896095353969
 30
0.0
  0
VERTEX
  5
A96B
  8
0
 10
55.517064556323128
 20
113.5935722935356
 30
0.0
  0
VERTEX
  5
A96C
  8
0
 10
55.497818886140287
 20
113.5395274860157
 30
0.0
  0
VERTEX
  5
A96D
  8
0
 10
55.459687691993729
 20
113.4061978730393
 30
0.0
  0
VERTEX
  5
A96E
  8
0
 10
55.422529637225011
 20
113.2415734426045
 30
0.0
  0
VERTEX
  5
A96F
  8
0
 10
55.386919334520599
 20
113.050090814208
 30
0.0
  0
VERTEX
  5
A970
  8
0
 10
55.353196355211139
 20
112.83656626865501
 30
0.0
  0
VERTEX
  5
A971
  8
0
 10
55.319452583415
 20
112.5894370006573
 30
0.0
  0
VERTEX
  5
A972
  8
0
 10
55.302506479636463
 20
112.451887559874
 30
0.0
  0
VERTEX
  5
A973
  8
0
 10
55.285619603193027
 20
112.3053616066851
 30
0.0
  0
VERTEX
  5
A974
  8
0
 10
55.252329138228667
 20
111.987038935218
 30
0.0
  0
VERTEX
  5
A975
  8
0
 10
55.220149843761646
 20
111.63876042017731
 30
0.0
  0
VERTEX
  5
A976
  8
0
 10
55.189578684804019
 20
111.26632537645931
 30
0.0
  0
VERTEX
  5
A977
  8
0
 10
55.161052165194519
 20
110.87716886459719
 30
0.0
  0
VERTEX
  5
A978
  8
0
 10
55.134868283415919
 20
110.4791547621986
 30
0.0
  0
VERTEX
  5
A979
  8
0
 10
55.122205407711363
 20
110.27072426321131
 30
0.0
  0
VERTEX
  5
A97A
  8
0
 10
55.109658040534441
 20
110.05273766108419
 30
0.0
  0
VERTEX
  5
A97B
  8
0
 10
55.08520456710005
 20
109.5908289402457
 30
0.0
  0
VERTEX
  5
A97C
  8
0
 10
55.062039392854452
 20
109.0996214910672
 30
0.0
  0
VERTEX
  5
A97D
  8
0
 10
55.051080359811287
 20
108.8452927097912
 30
0.0
  0
SEQEND
  5
A97E
  8
0
  0
POLYLINE
  5
A470
  8
0
 66
     1
 10
0.0
 20
0.0
 30
0.0
  0
VERTEX
  5
A97F
  8
0
 10
55.051080359811287
 20
97.031648155131052
 30
0.0
  0
VERTEX
  5
A980
  8
0
 10
55.057842743252081
 20
96.872878662098856
 30
0.0
  0
VERTEX
  5
A981
  8
0
 10
55.071879217102612
 20
96.561525324617605
 30
0.0
  0
VERTEX
  5
A982
  8
0
 10
55.086516609473961
 20
96.259960444644847
 30
0.0
  0
VERTEX
  5
A983
  8
0
 10
55.094026443018826
 20
96.113391498540253
 30
0.0
  0
VERTEX
  5
A984
  8
0
 10
55.101643746576663
 20
95.969897244176707
 30
0.0
  0
VERTEX
  5
A985
  8
0
 10
55.117135833348698
 20
95.692860515575489
 30
0.0
  0
VERTEX
  5
A986
  8
0
 10
55.132854070855387
 20
95.430203252016085
 30
0.0
  0
VERTEX
  5
A987
  8
0
 10
55.14878656341989
 20
95.180980362507853
 30
0.0
  0
VERTEX
  5
A988
  8
0
 10
55.165588603635797
 20
94.934956532090041
 30
0.0
  0
VERTEX
  5
A989
  8
0
 10
55.183301800375368
 20
94.692595071014807
 30
0.0
  0
VERTEX
  5
A98A
  8
0
 10
55.192473418868069
 20
94.573467644326328
 30
0.0
  0
VERTEX
  5
A98B
  8
0
 10
55.201839538153649
 20
94.456043693941524
 30
0.0
  0
VERTEX
  5
A98C
  8
0
 10
55.221104328579138
 20
94.227231198825621
 30
0.0
  0
VERTEX
  5
A98D
  8
0
 10
55.240986792514718
 20
94.007873498014646
 30
0.0
  0
VERTEX
  5
A98E
  8
0
 10
55.261369116954022
 20
93.799432079701546
 30
0.0
  0
VERTEX
  5
A98F
  8
0
 10
55.282126066995033
 20
93.603111445409525
 30
0.0
  0
VERTEX
  5
A990
  8
0
 10
55.303118125749961
 20
93.419925830797183
 30
0.0
  0
VERTEX
  5
A991
  8
0
 10
55.313656331280981
 20
93.333507589513587
 30
0.0
  0
VERTEX
  5
A992
  8
0
 10
55.324197180346573
 20
93.250640116293766
 30
0.0
  0
VERTEX
  5
A993
  8
0
 10
55.345206927345657
 20
93.095772596563634
 30
0.0
  0
VERTEX
  5
A994
  8
0
 10
55.36598558441198
 20
92.955584603746956
 30
0.0
  0
VERTEX
  5
A995
  8
0
 10
55.376444306535518
 20
92.889730458436304
 30
0.0
  0
SEQEND
  5
A996
  8
0
  0
POLYLINE
  5
A471
  8
0
 66
     1
 10
0.0
 20
0.0
 30
0.0
  0
VERTEX
  5
A997
  8
0
 10
55.376444306535518
 20
92.889730458436304
 30
0.0
  0
VERTEX
  5
A998
  8
0
 10
55.532693855975481
 20
91.653871094455269
 30
0.0
  0
VERTEX
  5
A999
  8
0
 10
55.862827437760302
 20
89.343581725589956
 30
0.0
  0
VERTEX
  5
A99A
  8
0
 10
56.208861830137153
 20
87.333329626521959
 30
0.0
  0
VERTEX
  5
A99B
  8
0
 10
56.38464650133983
 20
86.465802227641291
 30
0.0
  0
SEQEND
  5
A99C
  8
0
  0
LINE
  5
A472
  8
0
 10
55.051080359811287
 20
108.8452927097912
 30
0.0
 11
55.051080359811287
 21
97.031648155131052
 31
0.0
  0
POLYLINE
  5
A473
  8
0
 66
     1
 10
0.0
 20
0.0
 30
0.0
  0
VERTEX
  5
A99D
  8
0
 10
64.725716413087071
 20
92.889730458436304
 30
0.0
  0
VERTEX
  5
A99E
  8
0
 10
64.736175135210829
 20
92.955584603748434
 30
0.0
  0
VERTEX
  5
A99F
  8
0
 10
64.756953792277272
 20
93.095772596565254
 30
0.0
  0
VERTEX
  5
A9A0
  8
0
 10
64.777963539276243
 20
93.250640116295585
 30
0.0
  0
VERTEX
  5
A9A1
  8
0
 10
64.788504388341948
 20
93.333507589515534
 30
0.0
  0
VERTEX
  5
A9A2
  8
0
 10
64.799042593872954
 20
93.41992583079923
 30
0.0
  0
VERTEX
  5
A9A3
  8
0
 10
64.820034652627783
 20
93.603111445411741
 30
0.0
  0
VERTEX
  5
A9A4
  8
0
 10
64.840791602668901
 20
93.799432079703934
 30
0.0
  0
VERTEX
  5
A9A5
  8
0
 10
64.861173927108084
 20
94.007873498017148
 30
0.0
  0
VERTEX
  5
A9A6
  8
0
 10
64.881056391043671
 20
94.227231198828306
 30
0.0
  0
VERTEX
  5
A9A7
  8
0
 10
64.900321181469167
 20
94.456043693944252
 30
0.0
  0
VERTEX
  5
A9A8
  8
0
 10
64.909687300754854
 20
94.573467644329185
 30
0.0
  0
VERTEX
  5
A9A9
  8
0
 10
64.918858919247441
 20
94.692595071017664
 30
0.0
  0
VERTEX
  5
A9AA
  8
0
 10
64.936572115987005
 20
94.934956532092883
 30
0.0
  0
VERTEX
  5
A9AB
  8
0
 10
64.95337415620304
 20
95.180980362510795
 30
0.0
  0
VERTEX
  5
A9AC
  8
0
 10
64.969306648767414
 20
95.430203252019112
 30
0.0
  0
VERTEX
  5
A9AD
  8
0
 10
64.985024886274118
 20
95.692860515578673
 30
0.0
  0
VERTEX
  5
A9AE
  8
0
 10
65.000516973046274
 20
95.969897244180117
 30
0.0
  0
VERTEX
  5
A9AF
  8
0
 10
65.008134276603982
 20
96.113391498543706
 30
0.0
  0
VERTEX
  5
A9B0
  8
0
 10
65.015644110148855
 20
96.259960444648414
 30
0.0
  0
VERTEX
  5
A9B1
  8
0
 10
65.030281502520211
 20
96.561525324621371
 30
0.0
  0
VERTEX
  5
A9B2
  8
0
 10
65.044317976370735
 20
96.872878662102721
 30
0.0
  0
VERTEX
  5
A9B3
  8
0
 10
65.051080359811294
 20
97.031648155131052
 30
0.0
  0
SEQEND
  5
A9B4
  8
0
  0
POLYLINE
  5
A474
  8
0
 66
     1
 10
0.0
 20
0.0
 30
0.0
  0
VERTEX
  5
A9B5
  8
0
 10
65.051080359811294
 20
108.8452927097912
 30
0.0
  0
VERTEX
  5
A9B6
  8
0
 10
65.04012132676803
 20
109.09962149107101
 30
0.0
  0
VERTEX
  5
A9B7
  8
0
 10
65.016956152522539
 20
109.5908289402491
 30
0.0
  0
VERTEX
  5
A9B8
  8
0
 10
64.992502679088034
 20
110.05273766108721
 30
0.0
  0
VERTEX
  5
A9B9
  8
0
 10
64.979955311911112
 20
110.27072426321401
 30
0.0
  0
VERTEX
  5
A9BA
  8
0
 10
64.967292436206549
 20
110.47915476220111
 30
0.0
  0
VERTEX
  5
A9BB
  8
0
 10
64.941108554427956
 20
110.8771688645996
 30
0.0
  0
VERTEX
  5
A9BC
  8
0
 10
64.912582034818456
 20
111.2663253764614
 30
0.0
  0
VERTEX
  5
A9BD
  8
0
 10
64.882010875860828
 20
111.6387604201791
 30
0.0
  0
VERTEX
  5
A9BE
  8
0
 10
64.849831581393914
 20
111.9870389352195
 30
0.0
  0
VERTEX
  5
A9BF
  8
0
 10
64.816541116429448
 20
112.3053616066863
 30
0.0
  0
VERTEX
  5
A9C0
  8
0
 10
64.799654239986126
 20
112.4518875598752
 30
0.0
  0
VERTEX
  5
A9C1
  8
0
 10
64.782708136207589
 20
112.58943700065819
 30
0.0
  0
VERTEX
  5
A9C2
  8
0
 10
64.748964364411336
 20
112.8365662686557
 30
0.0
  0
VERTEX
  5
A9C3
  8
0
 10
64.715241385101876
 20
113.0500908142085
 30
0.0
  0
VERTEX
  5
A9C4
  8
0
 10
64.679631082397563
 20
113.2415734426049
 30
0.0
  0
VERTEX
  5
A9C5
  8
0
 10
64.642473027628853
 20
113.4061978730396
 30
0.0
  0
VERTEX
  5
A9C6
  8
0
 10
64.604341833482295
 20
113.5395274860159
 30
0.0
  0
VERTEX
  5
A9C7
  8
0
 10
64.585096163299454
 20
113.5935722935357
 30
0.0
  0
VERTEX
  5
A9C8
  8
0
 10
64.565830773476478
 20
113.63896095353969
 30
0.0
  0
VERTEX
  5
A9C9
  8
0
 10
64.527558512681708
 20
113.7037007314004
 30
0.0
  0
VERTEX
  5
A9CA
  8
0
 10
64.490166522112645
 20
113.734760741332
 30
0.0
  0
VERTEX
  5
A9CB
  8
0
 10
64.47200421161574
 20
113.7384704324611
 30
0.0
  0
SEQEND
  5
A9CC
  8
0
  0
POLYLINE
  5
A475
  8
0
 66
     1
 10
0.0
 20
0.0
 30
0.0
  0
VERTEX
  5
A9CD
  8
0
 10
63.717514218282872
 20
86.465802227641234
 30
0.0
  0
VERTEX
  5
A9CE
  8
0
 10
63.893298889485443
 20
87.333329626521959
 30
0.0
  0
VERTEX
  5
A9CF
  8
0
 10
64.239333281862287
 20
89.343581725589956
 30
0.0
  0
VERTEX
  5
A9D0
  8
0
 10
64.569466863647108
 20
91.653871094455212
 30
0.0
  0
VERTEX
  5
A9D1
  8
0
 10
64.725716413087071
 20
92.889730458436304
 30
0.0
  0
SEQEND
  5
A9D2
  8
0
  0
LINE
  5
A476
  8
0
 10
65.051080359811294
 20
108.8452927097912
 30
0.0
 11
65.051080359811294
 21
97.031648155131052
 31
0.0
  0
LINE
  5
A477
  8
0
 10
54.580860836136139
 20
110.4887317111441
 30
0.0
 11
54.580860836136139
 21
85.738470432461085
 31
0.0
  0
POLYLINE
  5
A478
  8
0
 66
     1
 10
0.0
 20
0.0
 30
0.0
  0
VERTEX
  5
A9D3
  8
0
 10
54.580860836136019
 20
110.4887317111441
 30
0.0
  0
VERTEX
  5
A9D4
  8
0
 10
54.676882590101059
 20
110.4890859095687
 30
0.0
  0
VERTEX
  5
A9D5
  8
0
 10
54.865525989798918
 20
110.4919745161307
 30
0.0
  0
VERTEX
  5
A9D6
  8
0
 10
55.048177220803268
 20
110.4978653022163
 30
0.0
  0
VERTEX
  5
A9D7
  8
0
 10
55.136742914962497
 20
110.5019602353706
 30
0.0
  0
SEQEND
  5
A9D8
  8
0
  0
POLYLINE
  5
A479
  8
0
 66
     1
 10
0.0
 20
0.0
 30
0.0
  0
VERTEX
  5
A9D9
  8
0
 10
56.38464650133983
 20
86.465802227641291
 30
0.0
  0
VERTEX
  5
A9DA
  8
0
 10
56.387127249172401
 20
86.453261044798765
 30
0.0
  0
VERTEX
  5
A9DB
  8
0
 10
56.39073885370567
 20
86.428341794112896
 30
0.0
  0
VERTEX
  5
A9DC
  8
0
 10
56.392546819758081
 20
86.403648664705202
 30
0.0
  0
VERTEX
  5
A9DD
  8
0
 10
56.392773026665957
 20
86.391390163830394
 30
0.0
  0
SEQEND
  5
A9DE
  8
0
  0
POLYLINE
  5
A47A
  8
0
 66
     1
 10
0.0
 20
0.0
 30
0.0
  0
VERTEX
  5
A9DF
  8
0
 10
56.392773026665957
 20
86.391390163830394
 30
0.0
  0
VERTEX
  5
A9E0
  8
0
 10
56.391311889321628
 20
86.360532697567905
 30
0.0
  0
VERTEX
  5
A9E1
  8
0
 10
56.379597021371069
 20
86.300082576285035
 30
0.0
  0
VERTEX
  5
A9E2
  8
0
 10
56.356134894400043
 20
86.241536320418561
 30
0.0
  0
VERTEX
  5
A9E3
  8
0
 10
56.339994371111281
 20
86.213041348173405
 30
0.0
  0
VERTEX
  5
A9E4
  8
0
 10
56.320911789823178
 20
86.185096366609116
 30
0.0
  0
VERTEX
  5
A9E5
  8
0
 10
56.273913110271003
 20
86.130952315509717
 30
0.0
  0
VERTEX
  5
A9E6
  8
0
 10
56.21522307619864
 20
86.079378297304515
 30
0.0
  0
VERTEX
  5
A9E7
  8
0
 10
56.14503761016249
 20
86.030664968432674
 30
0.0
  0
VERTEX
  5
A9E8
  8
0
 10
56.063476212388309
 20
85.984998667794045
 30
0.0
  0
VERTEX
  5
A9E9
  8
0
 10
55.970659991772663
 20
85.942568550579097
 30
0.0
  0
VERTEX
  5
A9EA
  8
0
 10
55.920069285999602
 20
85.92262695718307
 30
0.0
  0
VERTEX
  5
A9EB
  8
0
 10
55.866710279029348
 20
85.903566611468818
 30
0.0
  0
VERTEX
  5
A9EC
  8
0
 10
55.751746550350049
 20
85.868187381170401
 30
0.0
  0
VERTEX
  5
A9ED
  8
0
 10
55.62590153502412
 20
85.836631605325465
 30
0.0
  0
VERTEX
  5
A9EE
  8
0
 10
55.489935023605881
 20
85.809212644659567
 30
0.0
  0
VERTEX
  5
A9EF
  8
0
 10
55.344450135176999
 20
85.786120276353344
 30
0.0
  0
VERTEX
  5
A9F0
  8
0
 10
55.189779294699967
 20
85.767463350283165
 30
0.0
  0
VERTEX
  5
A9F1
  8
0
 10
55.109102746115809
 20
85.759830138788104
 30
0.0
  0
VERTEX
  5
A9F2
  8
0
 10
55.026253880864942
 20
85.753343055213236
 30
0.0
  0
VERTEX
  5
A9F3
  8
0
 10
54.854203830417759
 20
85.743851561837459
 30
0.0
  0
VERTEX
  5
A9F4
  8
0
 10
54.67395676507374
 20
85.73907111995868
 30
0.0
  0
VERTEX
  5
A9F5
  8
0
 10
54.580860836136019
 20
85.738470432461085
 30
0.0
  0
SEQEND
  5
A9F6
  8
0
  0
LINE
  5
A47B
  8
1
 10
60.051080359811287
 20
71.795290332139075
 30
0.0
 11
60.051080359811287
 21
119.68165053278319
 31
0.0
  0
LINE
  5
A47C
  8
2
 62
     2
 10
132.58466903454939
 20
104.7384704324613
 30
0.0
 11
147.58466903454939
 21
104.7384704324613
 31
0.0
  0
LINE
  5
A47D
  8
2
 62
     2
 10
147.58466903454939
 20
110.4887317111441
 30
-0.0000000000000016
 11
147.58466903454939
 21
104.7384704324613
 31
0.0
  0
LINE
  5
A47E
  8
2
 62
     2
 10
132.58466903454939
 20
110.4887317111441
 30
-0.0000000000000016
 11
132.58466903454939
 21
104.7384704324613
 31
0.0
  0
LINE
  5
A47F
  8
2
 62
     2
 10
146.58466903454939
 20
77.738470432461213
 30
0.0
 11
146.58466903454939
 21
104.7384704324613
 31
0.0
  0
LINE
  5
A480
  8
2
 62
     2
 10
146.58466903454939
 20
97.738470432461156
 30
0.0
 11
133.58466903454931
 21
97.738470432461156
 31
0.0
  0
LINE
  5
A481
  8
2
 62
     2
 10
133.58466903454931
 20
77.738470432461213
 30
0.0
 11
133.58466903454931
 21
104.7384704324613
 31
0.0
  0
ARC
  5
A483
  8
0
 10
60.051080359811181
 20
103.45905914955171
 30
-0.0000000000000016
 40
10.27941128290936
 50
43.145975360488301
 51
62.589555914708292
  0
ARC
  5
A484
  8
0
 10
60.051080359811181
 20
103.45905914955171
 30
-0.0000000000000016
 40
10.27941128290936
 50
117.4104440852917
 51
136.85402463951169
  0
ARC
  5
A48B
  8
0
 10
140.08466903454951
 20
168.71751164983741
 30
0.0
 40
10.0
 50
33.162944778195111
 51
146.8370546302171
  0
ARC
  5
A48C
  8
0
 10
140.08466903454951
 20
168.71751164983741
 30
0.0
 40
10.0
 50
213.1629453697829
 51
326.83705463029651
  0
LINE
  5
A48D
  8
2
 10
135.58466903454951
 20
78.238470432461327
 30
0.0
 11
135.08466903454939
 21
77.738470432461156
 31
0.0
  0
LINE
  5
A48E
  8
2
 10
144.58466903454911
 20
78.23847043246144
 30
0.0
 11
135.58466903454951
 21
78.238470432461327
 31
0.0
  0
LINE
  5
A48F
  8
2
 10
144.58466903454931
 20
78.238470432461327
 30
0.0
 11
145.08466903454939
 21
77.738470432461156
 31
0.0
  0
LINE
  5
A490
  8
2
 62
     2
 10
145.08466903454939
 20
97.738470432461156
 30
0.0
 11
145.08466903454939
 21
77.738470432461156
 31
0.0
  0
LINE
  5
A491
  8
2
 62
     2
 10
144.58466903454939
 20
97.238470432460815
 30
0.0
 11
144.58466903454939
 21
78.238470432461497
 31
0.0
  0
LINE
  5
A492
  8
2
 62
     2
 10
135.08466903454939
 20
97.738470432461156
 30
0.0
 11
135.08466903454939
 21
77.738470432461156
 31
0.0
  0
LINE
  5
A493
  8
2
 62
     2
 10
135.58466903454939
 20
97.238470432460929
 30
0.0
 11
135.58466903454939
 21
78.238470432461327
 31
0.0
  0
LINE
  5
A494
  8
2
 10
135.58466903454951
 20
97.238470432460986
 30
0.0
 11
135.08466903454939
 21
97.738470432461156
 31
0.0
  0
LINE
  5
A495
  8
2
 10
144.58466903454911
 20
97.238470432460886
 30
0.0
 11
135.58466903454951
 21
97.238470432460986
 31
0.0
  0
LINE
  5
A496
  8
2
 10
144.58466903454931
 20
97.238470432460986
 30
0.0
 11
145.08466903454939
 21
97.738470432461156
 31
0.0
  0
CIRCLE
  5
A4EB
  8
3
 62
     3
 10
140.08466903454939
 20
168.71751164983729
 30
0.0
 40
5.0
  0
CIRCLE
  5
A4EC
  8
0
 10
140.08466903454939
 20
168.71751164983729
 30
0.0
 40
7.5
  0
CIRCLE
  5
A4ED
  8
0
 10
140.08466903454939
 20
168.71751164983729
 30
0.0
 40
6.5
  0
CIRCLE
  5
A4EE
  8
0
 10
140.08466903454939
 20
168.71751164983729
 30
0.0
 40
4.5
  0
TEXT
  5
A7AC
  8
0
 62
     3
 10
0.0
 20
0.0
 30
0.0
 40
10.0
  1
ENWN70A-SUS
  7
STANDARD1
  0
ENDSEC
  0
EOF
