  0
SECTION
  2
HEADER
  9
$ACADVER
  1
AC1009
  9
$INSBASE
 10
0.0
 20
0.0
 30
0.0
  9
$EXTMIN
 10
0.0
 20
-2.960436562073669
 30
0.0
  9
$EXTMAX
 10
345.99751300701161
 20
228.4786051966239
 30
0.0
  9
$LIMMIN
 10
0.0
 20
0.0
  9
$LIMMAX
 10
375.0
 20
278.0
  9
$ORTHOMODE
 70
     1
  9
$REGENMODE
 70
     1
  9
$FILLMODE
 70
     1
  9
$QTEXTMODE
 70
     0
  9
$MIRRTEXT
 70
     0
  9
$DRAGMODE
 70
     2
  9
$LTSCALE
 40
10.0
  9
$OSMODE
 70
  3071
  9
$ATTMODE
 70
     1
  9
$TEXTSIZE
 40
0.2
  9
$TRACEWID
 40
0.05
  9
$TEXTSTYLE
  7
STANDARD
  9
$CLAYER
  8
0
  9
$CELTYPE
  6
BYLAYER
  9
$CECOLOR
 62
   256
  9
$DIMSCALE
 40
1.0
  9
$DIMASZ
 40
3.0
  9
$DIMEXO
 40
1.0
  9
$DIMDLI
 40
6.0
  9
$DIMRND
 40
0.0
  9
$DIMDLE
 40
0.0
  9
$DIMEXE
 40
1.0
  9
$DIMTP
 40
495.0
  9
$DIMTM
 40
0.0
  9
$DIMTXT
 40
3.0
  9
$DIMCEN
 40
0.0
  9
$DIMTSZ
 40
0.0
  9
$DIMTOL
 70
     0
  9
$DIMLIM
 70
     0
  9
$DIMTIH
 70
     0
  9
$DIMTOH
 70
     0
  9
$DIMSE1
 70
     0
  9
$DIMSE2
 70
     0
  9
$DIMTAD
 70
     1
  9
$DIMZIN
 70
     0
  9
$DIMBLK
  1

  9
$DIMASO
 70
     1
  9
$DIMSHO
 70
     0
  9
$DIMPOST
  1

  9
$DIMAPOST
  1

  9
$DIMALT
 70
     0
  9
$DIMALTD
 70
     2
  9
$DIMALTF
 40
25.399999999999999
  9
$DIMLFAC
 40
1.0
  9
$DIMTOFL
 70
     1
  9
$DIMTVP
 40
0.0
  9
$DIMTIX
 70
     1
  9
$DIMSOXD
 70
     0
  9
$DIMSAH
 70
     0
  9
$DIMBLK1
  1

  9
$DIMBLK2
  1

  9
$DIMSTYLE
  2
STANDARD
  9
$DIMCLRD
 70
     0
  9
$DIMCLRE
 70
     0
  9
$DIMCLRT
 70
     4
  9
$DIMTFAC
 40
1.0
  9
$DIMGAP
 40
1.0
  9
$LUNITS
 70
     2
  9
$LUPREC
 70
     4
  9
$SKETCHINC
 40
0.1
  9
$FILLETRAD
 40
0.0
  9
$AUNITS
 70
     0
  9
$AUPREC
 70
     0
  9
$MENU
  1
C:\R13\WIN\SUPPORT\ACAD-I
  9
$ELEVATION
 40
0.0
  9
$PELEVATION
 40
0.0
  9
$THICKNESS
 40
0.0
  9
$LIMCHECK
 70
     0
  9
$BLIPMODE
 70
     0
  9
$CHAMFERA
 40
0.0
  9
$CHAMFERB
 40
0.0
  9
$SKPOLY
 70
     0
  9
$TDCREATE
 40
2450834.4199027782
  9
$TDUPDATE
 40
2456598.683440567
  9
$TDINDWG
 40
0.1432393866
  9
$TDUSRTIMER
 40
0.1432393866
  9
$USRTIMER
 70
     1
  9
$ANGBASE
 50
0.0
  9
$ANGDIR
 70
     0
  9
$PDMODE
 70
     0
  9
$PDSIZE
 40
0.0
  9
$PLINEWID
 40
0.0
  9
$COORDS
 70
     1
  9
$SPLFRAME
 70
     0
  9
$SPLINETYPE
 70
     6
  9
$SPLINESEGS
 70
     8
  9
$ATTDIA
 70
     0
  9
$ATTREQ
 70
     1
  9
$HANDLING
 70
     1
  9
$HANDSEED
  5
122E2
  9
$SURFTAB1
 70
     6
  9
$SURFTAB2
 70
     6
  9
$SURFTYPE
 70
     6
  9
$SURFU
 70
     6
  9
$SURFV
 70
     6
  9
$UCSNAME
  2

  9
$UCSORG
 10
0.0
 20
0.0
 30
0.0
  9
$UCSXDIR
 10
1.0
 20
0.0
 30
0.0
  9
$UCSYDIR
 10
0.0
 20
1.0
 30
0.0
  9
$PUCSNAME
  2

  9
$PUCSORG
 10
0.0
 20
0.0
 30
0.0
  9
$PUCSXDIR
 10
1.0
 20
0.0
 30
0.0
  9
$PUCSYDIR
 10
0.0
 20
1.0
 30
0.0
  9
$USERI1
 70
     4
  9
$USERI2
 70
     1
  9
$USERI3
 70
     1
  9
$USERI4
 70
     0
  9
$USERI5
 70
     0
  9
$USERR1
 40
1.0
  9
$USERR2
 40
3.0
  9
$USERR3
 40
3.0
  9
$USERR4
 40
3.0
  9
$USERR5
 40
10.0
  9
$WORLDVIEW
 70
     1
  9
$SHADEDGE
 70
     3
  9
$SHADEDIF
 70
    70
  9
$TILEMODE
 70
     1
  9
$MAXACTVP
 70
    16
  9
$PLIMCHECK
 70
     0
  9
$PEXTMIN
 10
1.0000000000000000E+020
 20
1.0000000000000000E+020
 30
1.0000000000000000E+020
  9
$PEXTMAX
 10
-1.0000000000000000E+020
 20
-1.0000000000000000E+020
 30
-1.0000000000000000E+020
  9
$PLIMMIN
 10
0.0
 20
0.0
  9
$PLIMMAX
 10
12.0
 20
9.0
  9
$UNITMODE
 70
     0
  9
$VISRETAIN
 70
     0
  9
$PLINEGEN
 70
     0
  9
$PSLTSCALE
 70
     0
  0
ENDSEC
  0
SECTION
  2
TABLES
  0
TABLE
  2
VPORT
 70
     1
  0
VPORT
  2
*ACTIVE
 70
     0
 10
0.0
 20
0.0
 11
1.0
 21
1.0
 12
187.49427839065231
 22
174.97168974450321
 13
0.0
 23
0.0
 14
10.0
 24
10.0
 15
10.0
 25
10.0
 16
0.0
 26
0.0
 36
1.0
 17
0.0
 27
0.0
 37
0.0
 40
359.12869706410731
 41
1.831871345029239
 42
50.0
 43
0.0
 44
0.0
 50
0.0
 51
0.0
 71
     0
 72
   100
 73
     1
 74
     0
 75
     0
 76
     0
 77
     0
 78
     0
  0
ENDTAB
  0
TABLE
  2
LTYPE
 70
     3
  0
LTYPE
  2
CONTINUOUS
 70
     0
  3
Solid Line
 72
    65
 73
     0
 40
0.0
  0
LTYPE
  2
CENTER
 70
     0
  3
____ _ ____ _ ____ _ ____ _ ____ _ ____ _ ____
 72
    65
 73
     4
 40
2.0
 49
1.25
 49
-0.25
 49
0.25
 49
-0.25
  0
LTYPE
  2
PHANTOM2
 70
     0
  3
___ _ _ ___ _ _ ___ _ _ ___ _ _
 72
    65
 73
     6
 40
1.25
 49
0.625
 49
-0.125
 49
0.125
 49
-0.125
 49
0.125
 49
-0.125
  0
ENDTAB
  0
TABLE
  2
LAYER
 70
     3
  0
LAYER
  2
0
 70
     0
 62
     7
  6
CONTINUOUS
  0
LAYER
  2
1
 70
     0
 62
     1
  6
CENTER
  0
LAYER
  2
3
 70
     0
 62
     3
  6
CONTINUOUS
  0
ENDTAB
  0
TABLE
  2
STYLE
 70
     2
  0
STYLE
  2
STANDARD
 70
     0
 40
0.0
 41
1.0
 50
0.0
 71
     0
 42
0.2
  3
SIMPLEX
  4
BIGFONT
  0
STYLE
  2
STANDARD1
 70
     0
 40
0.0
 41
1.0
 50
0.0
 71
     0
 42
3.0
  3
txt
  4

  0
ENDTAB
  0
TABLE
  2
VIEW
 70
     0
  0
ENDTAB
  0
TABLE
  2
UCS
 70
     0
  0
ENDTAB
  0
TABLE
  2
APPID
 70
    38
  0
APPID
  2
ACAD
 70
     0
  0
APPID
  2
GENIUS_GENOBJ_13
 70
     0
  0
APPID
  2
GENIUS_GENODEF_13
 70
     0
  0
APPID
  2
GENIUS_GENOENT_13
 70
     0
  0
APPID
  2
GENIUS_GENOLIS_13
 70
     0
  0
APPID
  2
GENIUS_GENOREF_13
 70
     0
  0
APPID
  2
GENIUS_GENOBJ-N-TIT_13
 70
     0
  0
APPID
  2
GENIUS_GENTITLE_13
 70
     0
  0
APPID
  2
GENIUS_GENZVEED_13
 70
     0
  0
APPID
  2
GENIUS_GENOBJ-N-FIL_13
 70
     0
  0
APPID
  2
GENIUS_GENOBJ-N-CRS_13
 70
     0
  0
APPID
  2
GENIUS_GEFINERT_13
 70
     0
  0
APPID
  2
GENIUS_GENOBJ-F-INER_13
 70
     0
  0
APPID
  2
GENIUS_GENOBJ-N-ZOO_13
 70
     0
  0
APPID
  2
GENIUS_GENZOO_13
 70
     0
  0
APPID
  2
GENIUS_GENOBJ-F-TOL_13
 70
     0
  0
APPID
  2
GENIUS_GENOBJ-N-RSSYM_13
 70
     0
  0
APPID
  2
GENIUS_GENSYMENT_13
 70
     0
  0
APPID
  2
GENIUS_GENBH_13
 70
     0
  0
APPID
  2
GENIUS_GENOBJ-NBEHI-BHF_13
 70
     0
  0
APPID
  2
GENIUS_GENOBJ-NBEHI-BHB_13
 70
     0
  0
APPID
  2
GENIUS_GENOBJ-F-PART_13
 70
     0
  0
APPID
  2
GENIUS_GEFSTDP_13
 70
     0
  0
APPID
  2
GENIUS_GENOBJ-N-LEADER_13
 70
     0
  0
APPID
  2
GENIUS_GENOBJ-N-REV_13
 70
     0
  0
APPID
  2
GENIUS_GENCFG_13
 70
     0
  0
APPID
  2
GENIUS_GENCFG0_13
 70
     0
  0
APPID
  2
GENIUS_GENCFG1_13
 70
     0
  0
APPID
  2
GENIUS_GENCFG2_13
 70
     0
  0
APPID
  2
GENIUS_GENCFG3_13
 70
     0
  0
APPID
  2
GENIUS_GEVCFG0_13
 70
     0
  0
APPID
  2
GENIUS_GENCFG4_13
 70
     0
  0
APPID
  2
GENIUS_GENOBJ-N-REC_13
 70
     0
  0
APPID
  2
GENIUS_GENFIL_13
 70
     0
  0
APPID
  2
GENIUS_GENOBJ-N-CHA_13
 70
     0
  0
APPID
  2
GENIUS_GENREC_13
 70
     0
  0
APPID
  2
ACAD_MLEADERVER
 70
     0
  0
APPID
  2
ACAD_NAV_VCDISPLAY
 70
     0
  0
ENDTAB
  0
TABLE
  2
DIMSTYLE
 70
     1
  0
DIMSTYLE
  2
STANDARD
 70
     0
  3

  4

  5

  6

  7

 40
1.0
 41
0.18
 42
0.0625
 43
0.38
 44
0.18
 45
0.0
 46
0.0
 47
0.0
 48
0.0
140
0.18
141
0.09
142
0.0
143
25.399999999999999
144
1.0
145
0.0
146
1.0
147
0.09
 71
     0
 72
     0
 73
     1
 74
     1
 75
     0
 76
     0
 77
     0
 78
     0
170
     0
171
     2
172
     0
173
     0
174
     0
175
     0
176
     0
177
     0
178
     0
  0
ENDTAB
  0
ENDSEC
  0
SECTION
  2
BLOCKS
  0
BLOCK
  8
0
  2
$MODEL_SPACE
 70
     0
 10
0.0
 20
0.0
 30
0.0
  3
$MODEL_SPACE
  1

  0
ENDBLK
  5
10ECE
  8
0
  0
BLOCK
 67
     1
  8
0
  2
$PAPER_SPACE
 70
     0
 10
0.0
 20
0.0
 30
0.0
  3
$PAPER_SPACE
  1

  0
ENDBLK
  5
10ECC
 67
     1
  8
0
  0
ENDSEC
  0
SECTION
  2
ENTITIES
  0
LINE
  5
11803
  8
0
 10
118.0334693767595
 20
222.10605633387871
 30
0.0
 11
118.0334693767595
 21
158.90998318355159
 31
0.0
  0
LINE
  5
11804
  8
0
 10
265.05634213119578
 20
100.096263444988
 30
0.0
 11
199.05634213119319
 21
100.096263444988
 31
0.0
  0
LINE
  5
11805
  8
0
 10
27.174268440991799
 20
100.09626344499161
 30
0.0
 11
28.133068398826481
 21
126.1480507348474
 31
0.0
  0
LINE
  5
11806
  8
1
 10
297.49751300701172
 20
132.59626344498881
 30
0.0
 11
297.49751300701178
 21
81.449052382850368
 31
0.0
  0
LINE
  5
11807
  8
1
 10
309.24751300701172
 20
120.84626344498879
 30
0.0
 11
285.74751300701172
 21
120.84626344498879
 31
0.0
  0
LINE
  5
11808
  8
1
 10
166.53346937675951
 20
132.59626344498881
 30
0.0
 11
166.53346937675951
 21
81.449052382850368
 31
0.0
  0
LINE
  5
11809
  8
1
 10
178.28346937675951
 20
121.09626344498879
 30
0.0
 11
154.78346937675951
 21
121.09626344498879
 31
0.0
  0
ARC
  5
1180A
  8
0
 10
90.716362724181067
 20
126.09626344498891
 30
0.0
 40
1.5
 50
1.978521948726262
 51
90.0
1001
GENIUS_GENODEF_13
1002
{
1000
HIER
1070
     0
1002
}
1002
{
1000
MANEDIT
1070
     0
1002
}
1002
{
1000
NOSEL
1070
     0
1002
}
1002
{
1000
BEHIND
1070
     0
1002
}
1002
{
1000
REACTOR
1002
}
1001
GENIUS_GENOBJ-N-FIL_13
1002
{
1000
OWNER
1000
GEN
1002
}
  0
LINE
  5
11822
  8
3
 10
65.943674594006097
 20
112.9573021142558
 30
0.0
 11
65.943674594006097
 21
112.7889447087904
 31
0.0
  0
POLYLINE
  5
11823
  8
3
 66
     1
 10
0.0
 20
0.0
 30
0.0
 70
     1
  0
VERTEX
  5
11824
  8
3
 10
63.869270848093826
 20
113.1436978131638
 30
0.0
  0
VERTEX
  5
11825
  8
3
 10
64.711057875420565
 20
113.1436978131638
 30
0.0
  0
VERTEX
  5
11826
  8
3
 10
64.717070639901522
 20
113.131672284202
 30
0.0
  0
VERTEX
  5
11827
  8
3
 10
64.723083404382464
 20
113.1196467552401
 30
0.0
  0
VERTEX
  5
11828
  8
3
 10
64.723083404382464
 20
113.1136339907592
 30
0.0
  0
VERTEX
  5
11829
  8
3
 10
64.723083404382464
 20
113.1016084617973
 30
0.0
  0
VERTEX
  5
1182A
  8
3
 10
64.717070639901522
 20
113.0955956973165
 30
0.0
  0
VERTEX
  5
1182B
  8
3
 10
64.711057875420565
 20
113.0835701683547
 30
0.0
  0
VERTEX
  5
1182C
  8
3
 10
64.705045110939636
 20
113.0715446393929
 30
0.0
  0
VERTEX
  5
1182D
  8
3
 10
64.693019581977865
 20
113.059519110431
 30
0.0
  0
VERTEX
  5
1182E
  8
3
 10
64.680994053016093
 20
113.0535063459502
 30
0.0
  0
VERTEX
  5
1182F
  8
3
 10
64.668968524054208
 20
113.0414808169883
 30
0.0
  0
VERTEX
  5
11830
  8
3
 10
64.656942995092436
 20
113.0294552880265
 30
0.0
  0
VERTEX
  5
11831
  8
3
 10
64.644917466130664
 20
113.0174297590647
 30
0.0
  0
VERTEX
  5
11832
  8
3
 10
64.632891937168893
 20
113.0114169945839
 30
0.0
  0
VERTEX
  5
11833
  8
3
 10
64.620866408206993
 20
112.999391465622
 30
0.0
  0
VERTEX
  5
11834
  8
3
 10
64.602828114764293
 20
112.9813531721794
 30
0.0
  0
VERTEX
  5
11835
  8
3
 10
64.566751527878864
 20
112.9573021142558
 30
0.0
  0
VERTEX
  5
11836
  8
3
 10
64.524662176512493
 20
112.9332510563321
 30
0.0
  0
VERTEX
  5
11837
  8
3
 10
64.488585589627064
 20
112.9152127628894
 30
0.0
  0
VERTEX
  5
11838
  8
3
 10
64.452509002741635
 20
112.9031872339275
 30
0.0
  0
VERTEX
  5
11839
  8
3
 10
64.410419651375378
 20
112.8911617049657
 30
0.0
  0
VERTEX
  5
1183A
  8
3
 10
64.374343064489949
 20
112.8791361760038
 30
0.0
  0
VERTEX
  5
1183B
  8
3
 10
64.332253713123563
 20
112.867110647042
 30
0.0
  0
VERTEX
  5
1183C
  8
3
 10
64.290164361757206
 20
112.8610978825612
 30
0.0
  0
VERTEX
  5
1183D
  8
3
 10
64.248075010390949
 20
112.8550851180803
 30
0.0
  0
VERTEX
  5
1183E
  8
3
 10
64.205985659024577
 20
112.8550851180803
 30
0.0
  0
VERTEX
  5
1183F
  8
3
 10
64.163896307658206
 20
112.8550851180803
 30
0.0
  0
VERTEX
  5
11840
  8
3
 10
64.121806956291834
 20
112.8550851180803
 30
0.0
  0
VERTEX
  5
11841
  8
3
 10
64.085730369406505
 20
112.8610978825612
 30
0.0
  0
VERTEX
  5
11842
  8
3
 10
64.043641018040148
 20
112.867110647042
 30
0.0
  0
VERTEX
  5
11843
  8
3
 10
63.965475079788341
 20
112.8851489404848
 30
0.0
  0
VERTEX
  5
11844
  8
3
 10
63.947436786345627
 20
112.8911617049657
 30
0.0
  0
VERTEX
  5
11845
  8
3
 10
63.935411257383862
 20
112.8971744694466
 30
0.0
  0
VERTEX
  5
11846
  8
3
 10
63.917372963941148
 20
112.9031872339275
 30
0.0
  0
VERTEX
  5
11847
  8
3
 10
63.905347434979262
 20
112.9152127628894
 30
0.0
  0
VERTEX
  5
11848
  8
3
 10
63.893321906017491
 20
112.9212255273702
 30
0.0
  0
VERTEX
  5
11849
  8
3
 10
63.881296377055719
 20
112.9332510563321
 30
0.0
  0
VERTEX
  5
1184A
  8
3
 10
63.869270848093826
 20
112.9452765852939
 30
0.0
  0
VERTEX
  5
1184B
  8
3
 10
63.863258083612997
 20
112.9573021142558
 30
0.0
  0
VERTEX
  5
1184C
  8
3
 10
63.851232554651119
 20
112.9693276432174
 30
0.0
  0
VERTEX
  5
1184D
  8
3
 10
63.84521979017029
 20
112.9813531721794
 30
0.0
  0
VERTEX
  5
1184E
  8
3
 10
63.839207025689348
 20
112.9933787011412
 30
0.0
  0
VERTEX
  5
1184F
  8
3
 10
63.833194261208412
 20
113.005404230103
 30
0.0
  0
VERTEX
  5
11850
  8
3
 10
63.827181496727583
 20
113.0174297590647
 30
0.0
  0
VERTEX
  5
11851
  8
3
 10
63.82116873224664
 20
113.0354680525073
 30
0.0
  0
VERTEX
  5
11852
  8
3
 10
63.815155967765691
 20
113.065531874912
 30
0.0
  0
VERTEX
  5
11853
  8
3
 10
63.857245319132062
 20
113.1376850486828
 30
0.0
  0
VERTEX
  5
11854
  8
3
 10
63.863258083612997
 20
113.1376850486828
 30
0.0
  0
VERTEX
  5
11855
  8
3
 10
63.869270848093826
 20
113.1436978131638
 30
0.0
  0
SEQEND
  5
11856
  8
3
  0
LINE
  5
11857
  8
3
 10
65.94968735848704
 20
112.620587303325
 30
0.0
 11
65.961712887448812
 21
112.4522298978597
 31
0.0
  0
LINE
  5
11858
  8
3
 10
65.979751180891526
 20
112.28988525687519
 30
0.0
 11
66.015827767776955
 21
112.13355338037159
 31
0.0
  0
LINE
  5
11859
  8
3
 10
65.961712887448812
 20
112.4522298978597
 30
0.0
 11
65.979751180891526
 21
112.28988525687519
 31
0.0
  0
LINE
  5
1185A
  8
3
 10
64.93353016121398
 20
111.89905556561639
 30
0.0
 11
64.927517396733151
 21
111.91108109457819
 31
0.0
  0
LINE
  5
1185B
  8
3
 10
64.927517396733151
 20
111.91108109457819
 30
0.0
 11
64.921504632252208
 21
111.91709385905899
 31
0.0
  0
LINE
  5
1185C
  8
3
 10
64.921504632252208
 20
111.91709385905899
 30
0.0
 11
64.915491867771266
 21
111.92911938802089
 31
0.0
  0
LINE
  5
1185D
  8
3
 10
64.915491867771266
 20
111.92911938802089
 30
0.0
 11
64.915491867771266
 21
111.94114491698269
 31
0.0
  0
LINE
  5
1185E
  8
3
 10
64.915491867771266
 20
111.94114491698269
 30
0.0
 11
64.909479103290437
 21
111.95317044594449
 31
0.0
  0
LINE
  5
1185F
  8
3
 10
64.909479103290437
 20
111.95317044594449
 30
0.0
 11
64.903466338809494
 21
111.96519597490629
 31
0.0
  0
LINE
  5
11860
  8
3
 10
64.903466338809494
 20
111.96519597490629
 30
0.0
 11
64.897453574328665
 21
111.99525979731069
 31
0.0
  0
LINE
  5
11861
  8
3
 10
64.897453574328665
 20
111.99525979731069
 30
0.0
 11
64.891440809847722
 21
111.99525979731069
 31
0.0
  0
LINE
  5
11862
  8
3
 10
64.891440809847722
 20
111.99525979731069
 30
0.0
 11
64.885428045366766
 21
111.99525979731069
 31
0.0
  0
LINE
  5
11863
  8
3
 10
64.885428045366766
 20
111.99525979731069
 30
0.0
 11
64.885428045366766
 21
112.00127256179169
 31
0.0
  0
LINE
  5
11864
  8
3
 10
64.885428045366766
 20
112.00127256179169
 30
0.0
 11
64.879415280885837
 21
112.00127256179169
 31
0.0
  0
LINE
  5
11865
  8
3
 10
64.879415280885837
 20
112.00127256179169
 30
0.0
 11
64.873402516404994
 21
112.00728532627269
 31
0.0
  0
LINE
  5
11866
  8
3
 10
64.873402516404994
 20
112.00728532627269
 30
0.0
 11
64.867389751924065
 21
112.00728532627269
 31
0.0
  0
LINE
  5
11867
  8
3
 10
64.867389751924065
 20
112.00728532627269
 30
0.0
 11
64.861376987443123
 21
112.00728532627269
 31
0.0
  0
LINE
  5
11868
  8
3
 10
64.861376987443123
 20
112.00728532627269
 30
0.0
 11
64.855364222962294
 21
112.00728532627269
 31
0.0
  0
LINE
  5
11869
  8
3
 10
64.855364222962294
 20
112.00728532627269
 30
0.0
 11
64.849351458481351
 21
112.00728532627269
 31
0.0
  0
LINE
  5
1186A
  8
3
 10
64.849351458481351
 20
112.00728532627269
 30
0.0
 11
64.843338694000408
 21
112.00728532627269
 31
0.0
  0
LINE
  5
1186B
  8
3
 10
64.843338694000408
 20
112.00728532627269
 30
0.0
 11
64.837325929519579
 21
112.00728532627269
 31
0.0
  0
LINE
  5
1186C
  8
3
 10
64.837325929519579
 20
112.00728532627269
 30
0.0
 11
64.831313165038637
 21
112.00728532627269
 31
0.0
  0
LINE
  5
1186D
  8
3
 10
64.831313165038637
 20
112.00728532627269
 30
0.0
 11
64.825300400557694
 21
112.00728532627269
 31
0.0
  0
LINE
  5
1186E
  8
3
 10
64.825300400557694
 20
112.00728532627269
 30
0.0
 11
64.819287636076865
 21
112.01329809075349
 31
0.0
  0
LINE
  5
1186F
  8
3
 10
64.819287636076865
 20
112.01329809075349
 30
0.0
 11
64.80726210711498
 21
112.00127256179169
 31
0.0
  0
LINE
  5
11870
  8
3
 10
64.80726210711498
 20
112.00127256179169
 30
0.0
 11
64.795236578153194
 21
111.99525979731069
 31
0.0
  0
LINE
  5
11871
  8
3
 10
64.795236578153194
 20
111.99525979731069
 30
0.0
 11
64.783211049191436
 21
111.98924703282989
 31
0.0
  0
LINE
  5
11872
  8
3
 10
64.783211049191436
 20
111.98924703282989
 30
0.0
 11
64.765172755748722
 21
111.98323426834899
 31
0.0
  0
LINE
  5
11873
  8
3
 10
64.765172755748722
 20
111.98323426834899
 30
0.0
 11
64.753147226786837
 21
111.97120873938719
 31
0.0
  0
LINE
  5
11874
  8
3
 10
64.753147226786837
 20
111.97120873938719
 30
0.0
 11
64.741121697825065
 21
111.96519597490629
 31
0.0
  0
LINE
  5
11875
  8
3
 10
64.741121697825065
 20
111.96519597490629
 30
0.0
 11
64.729096168863293
 21
111.95918321042549
 31
0.0
  0
LINE
  5
11876
  8
3
 10
64.729096168863293
 20
111.95918321042549
 30
0.0
 11
64.717070639901408
 21
111.95317044594449
 31
0.0
  0
LINE
  5
11877
  8
3
 10
64.717070639901408
 20
111.95317044594449
 30
0.0
 11
64.699032346458694
 21
111.94715768146359
 31
0.0
  0
LINE
  5
11878
  8
3
 10
64.699032346458694
 20
111.94715768146359
 30
0.0
 11
64.687006817496922
 21
111.94114491698269
 31
0.0
  0
LINE
  5
11879
  8
3
 10
64.687006817496922
 20
111.94114491698269
 30
0.0
 11
64.67498128853515
 21
111.93513215250189
 31
0.0
  0
LINE
  5
1187A
  8
3
 10
64.67498128853515
 20
111.93513215250189
 30
0.0
 11
64.662955759573379
 21
111.92911938802089
 31
0.0
  0
LINE
  5
1187B
  8
3
 10
64.662955759573379
 20
111.92911938802089
 30
0.0
 11
64.650930230611493
 21
111.92310662353989
 31
0.0
  0
LINE
  5
1187C
  8
3
 10
64.650930230611493
 20
111.92310662353989
 30
0.0
 11
64.638904701649722
 21
111.91709385905899
 31
0.0
  0
LINE
  5
1187D
  8
3
 10
64.638904701649722
 20
111.91709385905899
 30
0.0
 11
64.620866408206993
 21
111.90506833009729
 31
0.0
  0
LINE
  5
1187E
  8
3
 10
64.620866408206993
 20
111.90506833009729
 30
0.0
 11
64.54871323443615
 21
111.88703003665459
 31
0.0
  0
LINE
  5
1187F
  8
3
 10
64.939542925694923
 20
111.88703003665459
 30
0.0
 11
64.93353016121398
 21
111.89905556561639
 31
0.0
  0
LINE
  5
11880
  8
3
 10
64.96359398361858
 20
111.85696621424999
 30
0.0
 11
64.957581219137623
 21
111.86297897873099
 31
0.0
  0
LINE
  5
11881
  8
3
 10
64.957581219137623
 20
111.86297897873099
 30
0.0
 11
64.951568454656694
 21
111.86899174321179
 31
0.0
  0
LINE
  5
11882
  8
3
 10
64.951568454656694
 20
111.86899174321179
 30
0.0
 11
64.945555690175865
 21
111.88101727217359
 31
0.0
  0
LINE
  5
11883
  8
3
 10
64.945555690175865
 20
111.88101727217359
 30
0.0
 11
64.939542925694923
 21
111.88703003665459
 31
0.0
  0
LINE
  5
11884
  8
3
 10
64.476560060665292
 20
111.86899174321179
 30
0.0
 11
64.404406886894435
 21
111.85696621424999
 31
0.0
  0
LINE
  5
11885
  8
3
 10
64.54871323443615
 20
111.88703003665459
 30
0.0
 11
64.476560060665292
 21
111.86899174321179
 31
0.0
  0
LINE
  5
11886
  8
3
 10
65.943674594006097
 20
112.7889447087904
 30
0.0
 11
65.94968735848704
 21
112.620587303325
 31
0.0
  0
LINE
  5
11887
  8
3
 10
63.24394334207966
 20
112.07342573556259
 30
0.0
 11
63.189828461751517
 21
112.12152785140979
 31
0.0
  0
LINE
  5
11888
  8
3
 10
63.436351805468682
 20
111.95317044594449
 30
0.0
 11
63.370211396178661
 21
111.98924703282989
 31
0.0
  0
LINE
  5
11889
  8
3
 10
63.304070986888739
 20
112.03133638419629
 30
0.0
 11
63.24394334207966
 21
112.07342573556259
 31
0.0
  0
LINE
  5
1188A
  8
3
 10
63.370211396178661
 20
111.98924703282989
 30
0.0
 11
63.304070986888739
 21
112.03133638419629
 31
0.0
  0
LINE
  5
1188B
  8
3
 10
63.664836855743033
 20
111.87500450769279
 30
0.0
 11
63.53255603716309
 21
111.91108109457819
 31
0.0
  0
LINE
  5
1188C
  8
3
 10
63.53255603716309
 20
111.91108109457819
 30
0.0
 11
63.520530508201311
 21
111.91108109457819
 31
0.0
  0
LINE
  5
1188D
  8
3
 10
63.520530508201311
 20
111.91108109457819
 30
0.0
 11
63.514517743720369
 21
111.91709385905899
 31
0.0
  0
LINE
  5
1188E
  8
3
 10
63.514517743720369
 20
111.91709385905899
 30
0.0
 11
63.50850497923954
 21
111.91709385905899
 31
0.0
  0
LINE
  5
1188F
  8
3
 10
63.50850497923954
 20
111.91709385905899
 30
0.0
 11
63.502492214758597
 21
111.92310662353989
 31
0.0
  0
LINE
  5
11890
  8
3
 10
63.502492214758597
 20
111.92310662353989
 30
0.0
 11
63.496479450277661
 21
111.92310662353989
 31
0.0
  0
LINE
  5
11891
  8
3
 10
63.490466685796832
 20
111.92911938802089
 30
0.0
 11
63.48445392131589
 21
111.93513215250189
 31
0.0
  0
LINE
  5
11892
  8
3
 10
63.48445392131589
 20
111.93513215250189
 30
0.0
 11
63.478441156834947
 21
111.93513215250189
 31
0.0
  0
LINE
  5
11893
  8
3
 10
63.478441156834947
 20
111.93513215250189
 30
0.0
 11
63.472428392354118
 21
111.94114491698269
 31
0.0
  0
LINE
  5
11894
  8
3
 10
63.472428392354118
 20
111.94114491698269
 30
0.0
 11
63.466415627873182
 21
111.94114491698269
 31
0.0
  0
LINE
  5
11895
  8
3
 10
63.466415627873182
 20
111.94114491698269
 30
0.0
 11
63.460402863392233
 21
111.94114491698269
 31
0.0
  0
LINE
  5
11896
  8
3
 10
63.460402863392233
 20
111.94114491698269
 30
0.0
 11
63.460402863392233
 21
111.94715768146359
 31
0.0
  0
LINE
  5
11897
  8
3
 10
63.460402863392233
 20
111.94715768146359
 30
0.0
 11
63.45439009891129
 21
111.94715768146359
 31
0.0
  0
LINE
  5
11898
  8
3
 10
63.448377334430461
 20
111.94715768146359
 30
0.0
 11
63.436351805468682
 21
111.95317044594449
 31
0.0
  0
LINE
  5
11899
  8
3
 10
63.45439009891129
 20
111.94715768146359
 30
0.0
 11
63.448377334430461
 21
111.94715768146359
 31
0.0
  0
LINE
  5
1189A
  8
3
 10
63.496479450277661
 20
111.92310662353989
 30
0.0
 11
63.490466685796832
 21
111.92911938802089
 31
0.0
  0
LINE
  5
1189B
  8
3
 10
63.730977265032948
 20
111.85696621424999
 30
0.0
 11
63.664836855743033
 21
111.87500450769279
 31
0.0
  0
LINE
  5
1189C
  8
3
 10
66.148108586356884
 20
111.83892792080719
 30
0.0
 11
65.294296030068381
 21
111.83892792080719
 31
0.0
  0
LINE
  5
1189D
  8
3
 10
64.993657806023066
 20
111.83892792080719
 30
0.0
 11
64.981632277061294
 21
111.83892792080719
 31
0.0
  0
LINE
  5
1189E
  8
3
 10
64.981632277061294
 20
111.83892792080719
 30
0.0
 11
64.975619512580352
 21
111.85095344976909
 31
0.0
  0
LINE
  5
1189F
  8
3
 10
64.266113303833549
 20
111.83892792080719
 30
0.0
 11
64.199972894543635
 21
111.83291515632639
 31
0.0
  0
LINE
  5
118A0
  8
3
 10
63.995538902192841
 20
111.82690239184549
 30
0.0
 11
63.929398492902799
 21
111.83291515632639
 31
0.0
  0
LINE
  5
118A1
  8
3
 10
63.929398492902799
 20
111.83291515632639
 30
0.0
 11
63.863258083612891
 21
111.83892792080719
 31
0.0
  0
LINE
  5
118A2
  8
3
 10
64.13383248525372
 20
111.82690239184549
 30
0.0
 11
64.067692075963691
 21
111.82690239184549
 31
0.0
  0
LINE
  5
118A3
  8
3
 10
64.067692075963691
 20
111.82690239184549
 30
0.0
 11
63.995538902192841
 21
111.82690239184549
 31
0.0
  0
LINE
  5
118A4
  8
3
 10
64.199972894543635
 20
111.83291515632639
 30
0.0
 11
64.13383248525372
 21
111.82690239184549
 31
0.0
  0
LINE
  5
118A5
  8
3
 10
64.338266477604407
 20
111.84494068528809
 30
0.0
 11
64.266113303833549
 21
111.83892792080719
 31
0.0
  0
LINE
  5
118A6
  8
3
 10
63.863258083612891
 20
111.83892792080719
 30
0.0
 11
63.797117674322969
 21
111.84494068528809
 31
0.0
  0
LINE
  5
118A7
  8
3
 10
65.294296030068381
 20
111.83892792080719
 30
0.0
 11
64.993657806023066
 21
111.83892792080719
 31
0.0
  0
LINE
  5
118A8
  8
3
 10
64.404406886894435
 20
111.85696621424999
 30
0.0
 11
64.338266477604407
 21
111.84494068528809
 31
0.0
  0
LINE
  5
118A9
  8
3
 10
64.975619512580352
 20
111.85095344976909
 30
0.0
 11
64.96359398361858
 21
111.85696621424999
 31
0.0
  0
LINE
  5
118AA
  8
3
 10
63.797117674322969
 20
111.84494068528809
 30
0.0
 11
63.730977265032948
 21
111.85696621424999
 31
0.0
  0
LINE
  5
118AB
  8
3
 10
66.015827767776955
 20
112.13355338037159
 30
0.0
 11
66.148108586356884
 21
111.83892792080719
 31
0.0
  0
LINE
  5
118AC
  8
3
 10
65.294296030068381
 20
114.7791697519699
 30
0.0
 11
65.372461968320067
 21
114.71302934268
 31
0.0
  0
LINE
  5
118AD
  8
3
 10
65.372461968320067
 20
114.71302934268
 30
0.0
 11
65.450627906571867
 21
114.6408761689091
 31
0.0
  0
CIRCLE
  5
118AE
  8
3
 10
65.928479000194784
 20
114.92838925852659
 30
0.0
 40
0.241100623305389
  0
LINE
  5
118AF
  8
3
 10
64.59681535028335
 20
115.1038590339389
 30
0.0
 11
64.705045110939636
 21
115.0737952115344
 31
0.0
  0
LINE
  5
118B0
  8
3
 10
63.779079380880262
 20
115.1459483853051
 30
0.0
 11
63.827181496727462
 21
115.1459483853051
 31
0.0
  0
LINE
  5
118B1
  8
3
 10
64.13383248525372
 20
115.1639866787478
 30
0.0
 11
64.248075010390835
 21
115.157973914267
 31
0.0
  0
LINE
  5
118B2
  8
3
 10
63.929398492902799
 20
115.1459483853051
 30
0.0
 11
63.983513373231062
 21
115.1459483853051
 31
0.0
  0
LINE
  5
118B3
  8
3
 10
63.881296377055598
 20
115.1459483853051
 30
0.0
 11
63.929398492902799
 21
115.1459483853051
 31
0.0
  0
LINE
  5
118B4
  8
3
 10
63.827181496727462
 20
115.1459483853051
 30
0.0
 11
63.881296377055598
 21
115.1459483853051
 31
0.0
  0
LINE
  5
118B5
  8
3
 10
63.983513373231062
 20
115.1459483853051
 30
0.0
 11
64.031615489078263
 21
115.1519611497861
 31
0.0
  0
LINE
  5
118B6
  8
3
 10
64.031615489078263
 20
115.1519611497861
 30
0.0
 11
64.13383248525372
 21
115.1639866787478
 31
0.0
  0
LINE
  5
118B7
  8
3
 10
64.368330300009006
 20
115.1459483853051
 30
0.0
 11
64.482572825146121
 21
115.1279100918624
 31
0.0
  0
LINE
  5
118B8
  8
3
 10
64.248075010390835
 20
115.157973914267
 30
0.0
 11
64.368330300009006
 21
115.1459483853051
 31
0.0
  0
LINE
  5
118B9
  8
3
 10
64.482572825146121
 20
115.1279100918624
 30
0.0
 11
64.59681535028335
 21
115.1038590339389
 31
0.0
  0
LINE
  5
118BA
  8
3
 10
64.915491867771266
 20
114.9956292732826
 30
0.0
 11
65.017708863946723
 21
114.9535399219162
 31
0.0
  0
LINE
  5
118BB
  8
3
 10
64.813274871595922
 20
115.0377186246489
 30
0.0
 11
64.915491867771266
 21
114.9956292732826
 31
0.0
  0
LINE
  5
118BC
  8
3
 10
65.113913095641237
 20
114.899425041588
 30
0.0
 11
65.204104562854809
 21
114.839297396779
 31
0.0
  0
LINE
  5
118BD
  8
3
 10
65.017708863946723
 20
114.9535399219162
 30
0.0
 11
65.113913095641237
 21
114.899425041588
 31
0.0
  0
LINE
  5
118BE
  8
3
 10
64.705045110939636
 20
115.0737952115344
 30
0.0
 11
64.813274871595922
 21
115.0377186246489
 31
0.0
  0
LINE
  5
118BF
  8
3
 10
65.204104562854809
 20
114.839297396779
 30
0.0
 11
65.294296030068381
 21
114.7791697519699
 31
0.0
  0
LINE
  5
118C0
  8
3
 10
65.649049134441725
 20
114.4003655896729
 30
0.0
 11
65.745253366136239
 21
114.2560592421312
 31
0.0
  0
LINE
  5
118C1
  8
3
 10
65.522781080342725
 20
114.5627102306572
 30
0.0
 11
65.649049134441725
 21
114.4003655896729
 31
0.0
  0
LINE
  5
118C2
  8
3
 10
65.817406539907097
 20
114.1117528945895
 30
0.0
 11
65.87152142023524
 21
113.9554210180861
 31
0.0
  0
LINE
  5
118C3
  8
3
 10
65.87152142023524
 20
113.9554210180861
 30
0.0
 11
65.907598007120669
 21
113.7990891415824
 31
0.0
  0
LINE
  5
118C4
  8
3
 10
65.745253366136239
 20
114.2560592421312
 30
0.0
 11
65.817406539907097
 21
114.1117528945895
 31
0.0
  0
LINE
  5
118C5
  8
3
 10
64.662955759573379
 20
113.8772550798341
 30
0.0
 11
64.662955759573379
 21
113.8832678443151
 31
0.0
  0
LINE
  5
118C6
  8
3
 10
64.662955759573379
 20
113.8832678443151
 30
0.0
 11
64.662955759573379
 21
113.8892806087961
 31
0.0
  0
LINE
  5
118C7
  8
3
 10
64.662955759573379
 20
113.8892806087961
 30
0.0
 11
64.662955759573379
 21
113.8952933732768
 31
0.0
  0
LINE
  5
118C8
  8
3
 10
64.662955759573379
 20
113.8952933732768
 30
0.0
 11
64.662955759573379
 21
113.9013061377578
 31
0.0
  0
LINE
  5
118C9
  8
3
 10
64.662955759573379
 20
113.9013061377578
 30
0.0
 11
64.662955759573379
 21
113.9073189022387
 31
0.0
  0
LINE
  5
118CA
  8
3
 10
64.662955759573379
 20
113.9073189022387
 30
0.0
 11
64.668968524054208
 21
113.9193444312005
 31
0.0
  0
LINE
  5
118CB
  8
3
 10
64.668968524054208
 20
113.9193444312005
 30
0.0
 11
64.572764292359693
 21
113.9734593115286
 31
0.0
  0
LINE
  5
118CC
  8
3
 10
64.278138832795435
 20
114.0816890721849
 30
0.0
 11
64.169909072139035
 21
114.0937146011468
 31
0.0
  0
LINE
  5
118CD
  8
3
 10
64.061679311482735
 20
114.0997273656277
 30
0.0
 11
63.947436786345627
 21
114.0997273656277
 31
0.0
  0
LINE
  5
118CE
  8
3
 10
63.947436786345627
 20
114.0997273656277
 30
0.0
 11
63.833194261208412
 21
114.0997273656277
 31
0.0
  0
LINE
  5
118CF
  8
3
 10
64.169909072139035
 20
114.0937146011468
 30
0.0
 11
64.061679311482735
 21
114.0997273656277
 31
0.0
  0
LINE
  5
118D0
  8
3
 10
64.482572825146121
 20
114.0215614273759
 30
0.0
 11
64.380355828970778
 21
114.0576380142612
 31
0.0
  0
LINE
  5
118D1
  8
3
 10
64.380355828970778
 20
114.0576380142612
 30
0.0
 11
64.278138832795435
 21
114.0816890721849
 31
0.0
  0
LINE
  5
118D2
  8
3
 10
64.572764292359693
 20
113.9734593115286
 30
0.0
 11
64.482572825146121
 21
114.0215614273759
 31
0.0
  0
LINE
  5
118D3
  8
3
 10
65.450627906571867
 20
114.6408761689091
 30
0.0
 11
65.522781080342725
 21
114.5627102306572
 31
0.0
  0
LINE
  5
118D4
  8
3
 10
65.931649065044212
 20
113.6307317361171
 30
0.0
 11
65.943674594006097
 21
113.4683870951327
 31
0.0
  0
LINE
  5
118D5
  8
3
 10
65.943674594006097
 20
113.4683870951327
 30
0.0
 11
65.943674594006097
 21
113.3000296896673
 31
0.0
  0
LINE
  5
118D6
  8
3
 10
65.943674594006097
 20
113.125659519721
 30
0.0
 11
65.943674594006097
 21
112.9573021142558
 31
0.0
  0
LINE
  5
118D7
  8
3
 10
65.943674594006097
 20
113.3000296896673
 30
0.0
 11
65.943674594006097
 21
113.125659519721
 31
0.0
  0
LINE
  5
118D8
  8
3
 10
65.907598007120669
 20
113.7990891415824
 30
0.0
 11
65.931649065044212
 21
113.6307317361171
 31
0.0
  0
LINE
  5
118D9
  8
3
 10
63.382236925140553
 20
115.1279100918624
 30
0.0
 11
63.430339040987739
 21
115.1339228563434
 31
0.0
  0
LINE
  5
118DA
  8
3
 10
63.334134809293232
 20
115.1218973273816
 30
0.0
 11
63.382236925140553
 21
115.1279100918624
 31
0.0
  0
LINE
  5
118DB
  8
3
 10
63.526543272682261
 20
115.1399356208242
 30
0.0
 11
63.580658153010397
 21
115.1399356208242
 31
0.0
  0
LINE
  5
118DC
  8
3
 10
63.430339040987739
 20
115.1339228563434
 30
0.0
 11
63.478441156834947
 21
115.1399356208242
 31
0.0
  0
LINE
  5
118DD
  8
3
 10
63.478441156834947
 20
115.1399356208242
 30
0.0
 11
63.526543272682261
 21
115.1399356208242
 31
0.0
  0
LINE
  5
118DE
  8
3
 10
63.580658153010397
 20
115.1399356208242
 30
0.0
 11
63.628760268857611
 21
115.1459483853051
 31
0.0
  0
LINE
  5
118DF
  8
3
 10
63.628760268857611
 20
115.1459483853051
 30
0.0
 11
63.676862384704798
 21
115.1459483853051
 31
0.0
  0
LINE
  5
118E0
  8
3
 10
63.676862384704798
 20
115.1459483853051
 30
0.0
 11
63.730977265032948
 21
115.1459483853051
 31
0.0
  0
LINE
  5
118E1
  8
3
 10
63.490466685796832
 20
114.0816890721849
 30
0.0
 11
63.376224160659604
 21
114.0756763077039
 31
0.0
  0
LINE
  5
118E2
  8
3
 10
63.376224160659604
 20
114.0756763077039
 30
0.0
 11
63.261981635522382
 21
114.0756763077039
 31
0.0
  0
LINE
  5
118E3
  8
3
 10
63.604709210934061
 20
114.0877018366659
 30
0.0
 11
63.490466685796832
 21
114.0816890721849
 31
0.0
  0
LINE
  5
118E4
  8
3
 10
63.718951736071183
 20
114.0937146011468
 30
0.0
 11
63.604709210934061
 21
114.0877018366659
 31
0.0
  0
LINE
  5
118E5
  8
3
 10
63.730977265032948
 20
115.1459483853051
 30
0.0
 11
63.779079380880262
 21
115.1459483853051
 31
0.0
  0
LINE
  5
118E6
  8
3
 10
63.833194261208412
 20
114.0997273656277
 30
0.0
 11
63.718951736071183
 21
114.0937146011468
 31
0.0
  0
LINE
  5
118E8
  8
3
 10
61.770816044257913
 20
114.9836037443207
 30
0.0
 11
61.824930924586063
 21
115.0196803312063
 31
0.0
  0
LINE
  5
118E9
  8
3
 10
61.782841573219677
 20
111.88703003665459
 30
0.0
 11
61.734739457372477
 21
111.88101727217359
 31
0.0
  0
LINE
  5
118EA
  8
3
 10
62.823049828416288
 20
112.7889447087904
 30
0.0
 11
62.792986006011802
 21
112.9573021142558
 31
0.0
  0
LINE
  5
118EB
  8
3
 10
62.630641365027373
 20
112.9272382918512
 30
0.0
 11
62.618615836065487
 21
112.8490723535994
 31
0.0
  0
LINE
  5
118EC
  8
3
 10
62.618615836065487
 20
112.8490723535994
 30
0.0
 11
62.612603071584651
 21
112.7769191798285
 31
0.0
  0
LINE
  5
118ED
  8
3
 10
62.57652648469923
 20
112.6326128322868
 30
0.0
 11
62.522411604371079
 21
112.5003320137068
 31
0.0
  0
LINE
  5
118EE
  8
3
 10
62.895203002187152
 20
112.560459658516
 30
0.0
 11
62.865139179782659
 21
112.6326128322868
 31
0.0
  0
LINE
  5
118EF
  8
3
 10
62.522411604371079
 20
112.5003320137068
 30
0.0
 11
62.49234778196648
 21
112.44621713337879
 31
0.0
  0
LINE
  5
118F0
  8
3
 10
62.49234778196648
 20
112.44621713337879
 30
0.0
 11
62.462283959562001
 21
112.3921022530506
 31
0.0
  0
LINE
  5
118F1
  8
3
 10
62.462283959562001
 20
112.3921022530506
 30
0.0
 11
62.432220137157508
 21
112.34400013720339
 31
0.0
  0
LINE
  5
118F2
  8
3
 10
62.961343411477174
 20
112.4161533109742
 30
0.0
 11
62.925266824591752
 21
112.488306484745
 31
0.0
  0
LINE
  5
118F3
  8
3
 10
62.925266824591752
 20
112.488306484745
 30
0.0
 11
62.895203002187152
 21
112.560459658516
 31
0.0
  0
LINE
  5
118F4
  8
3
 10
62.594564778141937
 20
112.7047660060576
 30
0.0
 11
62.57652648469923
 21
112.6326128322868
 31
0.0
  0
LINE
  5
118F5
  8
3
 10
62.865139179782659
 20
112.6326128322868
 30
0.0
 11
62.841088121859002
 21
112.7107787705385
 31
0.0
  0
LINE
  5
118F6
  8
3
 10
63.003432762843431
 20
112.35602566616519
 30
0.0
 11
62.961343411477174
 21
112.4161533109742
 31
0.0
  0
LINE
  5
118F7
  8
3
 10
63.087611465576181
 20
112.229757612066
 30
0.0
 11
63.045522114209803
 21
112.28988525687519
 31
0.0
  0
LINE
  5
118F8
  8
3
 10
63.135713581423367
 20
112.17564273173809
 30
0.0
 11
63.087611465576181
 21
112.229757612066
 31
0.0
  0
LINE
  5
118F9
  8
3
 10
62.360066963386657
 20
112.24779590550889
 30
0.0
 11
62.317977612020279
 21
112.20570655414259
 31
0.0
  0
LINE
  5
118FA
  8
3
 10
62.317977612020279
 20
112.20570655414259
 30
0.0
 11
62.275888260653907
 21
112.16361720277609
 31
0.0
  0
LINE
  5
118FB
  8
3
 10
62.396143550272079
 20
112.29589802135609
 30
0.0
 11
62.360066963386657
 21
112.24779590550889
 31
0.0
  0
LINE
  5
118FC
  8
3
 10
62.432220137157508
 20
112.34400013720339
 30
0.0
 11
62.396143550272079
 21
112.29589802135609
 31
0.0
  0
LINE
  5
118FD
  8
3
 10
63.045522114209803
 20
112.28988525687519
 30
0.0
 11
63.003432762843431
 21
112.35602566616519
 31
0.0
  0
LINE
  5
118FE
  8
3
 10
62.143607442073971
 20
112.05538744211989
 30
0.0
 11
62.095505326226771
 21
112.01931085523449
 31
0.0
  0
LINE
  5
118FF
  8
3
 10
62.095505326226771
 20
112.01931085523449
 30
0.0
 11
62.041390445898621
 21
111.99525979731069
 31
0.0
  0
LINE
  5
11900
  8
3
 10
62.233798909287543
 20
112.12754061589069
 30
0.0
 11
62.191709557921293
 21
112.08545126452449
 31
0.0
  0
LINE
  5
11901
  8
3
 10
62.191709557921293
 20
112.08545126452449
 30
0.0
 11
62.143607442073971
 21
112.05538744211989
 31
0.0
  0
LINE
  5
11902
  8
3
 10
61.939173449723171
 20
111.94114491698269
 30
0.0
 11
61.830943689066999
 21
111.90506833009729
 31
0.0
  0
LINE
  5
11903
  8
3
 10
61.830943689066999
 20
111.90506833009729
 30
0.0
 11
61.782841573219677
 21
111.88703003665459
 31
0.0
  0
LINE
  5
11904
  8
3
 10
61.993288330051428
 20
111.96519597490629
 30
0.0
 11
61.939173449723171
 21
111.94114491698269
 31
0.0
  0
LINE
  5
11905
  8
3
 10
62.041390445898621
 20
111.99525979731069
 30
0.0
 11
61.993288330051428
 21
111.96519597490629
 31
0.0
  0
LINE
  5
11906
  8
3
 10
62.275888260653907
 20
112.16361720277609
 30
0.0
 11
62.233798909287543
 21
112.12754061589069
 31
0.0
  0
LINE
  5
11907
  8
3
 10
62.612603071584651
 20
112.7769191798285
 30
0.0
 11
62.594564778141937
 21
112.7047660060576
 31
0.0
  0
LINE
  5
11908
  8
3
 10
62.841088121859002
 20
112.7107787705385
 30
0.0
 11
62.823049828416288
 21
112.7889447087904
 31
0.0
  0
LINE
  5
11909
  8
3
 10
62.293926554096629
 20
115.1639866787478
 30
0.0
 11
62.336015905463
 21
115.1639866787478
 31
0.0
  0
LINE
  5
1190A
  8
3
 10
62.251837202730371
 20
115.1639866787478
 30
0.0
 11
62.293926554096629
 21
115.1639866787478
 31
0.0
  0
LINE
  5
1190B
  8
3
 10
62.62462860054643
 20
115.1639866787478
 30
0.0
 11
62.666717951912801
 21
115.1639866787478
 31
0.0
  0
LINE
  5
1190C
  8
3
 10
62.336015905463
 20
115.1639866787478
 30
0.0
 11
62.378105256829258
 21
115.1639866787478
 31
0.0
  0
LINE
  5
1190D
  8
3
 10
62.378105256829258
 20
115.1639866787478
 30
0.0
 11
62.420194608195622
 21
115.1639866787478
 31
0.0
  0
LINE
  5
1190E
  8
3
 10
62.420194608195622
 20
115.1639866787478
 30
0.0
 11
62.462283959562001
 21
115.1639866787478
 31
0.0
  0
LINE
  5
1190F
  8
3
 10
62.462283959562001
 20
115.1639866787478
 30
0.0
 11
62.504373310928372
 21
115.1639866787478
 31
0.0
  0
LINE
  5
11910
  8
3
 10
62.504373310928372
 20
115.1639866787478
 30
0.0
 11
62.540449897813801
 21
115.1639866787478
 31
0.0
  0
LINE
  5
11911
  8
3
 10
62.540449897813801
 20
115.1639866787478
 30
0.0
 11
62.582539249180059
 21
115.1639866787478
 31
0.0
  0
LINE
  5
11912
  8
3
 10
62.582539249180059
 20
115.1639866787478
 30
0.0
 11
62.62462860054643
 21
115.1639866787478
 31
0.0
  0
LINE
  5
11913
  8
3
 10
62.786973241530852
 20
115.1639866787478
 30
0.0
 11
62.871151944263602
 21
115.1639866787478
 31
0.0
  0
LINE
  5
11914
  8
3
 10
62.666717951912801
 20
115.1639866787478
 30
0.0
 11
62.702794538798223
 21
115.1639866787478
 31
0.0
  0
LINE
  5
11915
  8
3
 10
62.702794538798223
 20
115.1639866787478
 30
0.0
 11
62.744883890164601
 21
115.1639866787478
 31
0.0
  0
LINE
  5
11916
  8
3
 10
62.744883890164601
 20
115.1639866787478
 30
0.0
 11
62.786973241530852
 21
115.1639866787478
 31
0.0
  0
LINE
  5
11917
  8
3
 10
63.06356040765251
 20
114.8212591033362
 30
0.0
 11
63.105649759018888
 21
114.9174633350308
 31
0.0
  0
LINE
  5
11918
  8
3
 10
63.021471056286138
 20
114.6168251109855
 30
0.0
 11
63.027483820767088
 21
114.6709399913137
 31
0.0
  0
LINE
  5
11919
  8
3
 10
63.027483820767088
 20
114.6709399913137
 30
0.0
 11
63.033496585248031
 21
114.7190421071609
 31
0.0
  0
LINE
  5
1191A
  8
3
 10
63.033496585248031
 20
114.7190421071609
 30
0.0
 11
63.045522114209803
 21
114.7731569874891
 31
0.0
  0
LINE
  5
1191B
  8
3
 10
63.045522114209803
 20
114.7731569874891
 30
0.0
 11
63.06356040765251
 21
114.8212591033362
 31
0.0
  0
LINE
  5
1191C
  8
3
 10
62.077467032784057
 20
115.1279100918624
 30
0.0
 11
62.215760615844943
 21
115.1639866787478
 31
0.0
  0
LINE
  5
1191D
  8
3
 10
61.945186214204107
 20
115.0798079760151
 30
0.0
 11
62.011326623494142
 21
115.1098717984198
 31
0.0
  0
LINE
  5
1191E
  8
3
 10
62.011326623494142
 20
115.1098717984198
 30
0.0
 11
62.077467032784057
 21
115.1279100918624
 31
0.0
  0
LINE
  5
1191F
  8
3
 10
61.824930924586063
 20
115.0196803312063
 30
0.0
 11
61.885058569395142
 21
115.0497441536107
 31
0.0
  0
LINE
  5
11920
  8
3
 10
61.885058569395142
 20
115.0497441536107
 30
0.0
 11
61.945186214204107
 21
115.0798079760151
 31
0.0
  0
LINE
  5
11921
  8
3
 10
62.215760615844943
 20
115.1639866787478
 30
0.0
 11
62.251837202730371
 21
115.1639866787478
 31
0.0
  0
LINE
  5
11922
  8
3
 10
63.003432762843431
 20
114.5146081148101
 30
0.0
 11
63.009445527324367
 21
114.5687229951382
 31
0.0
  0
LINE
  5
11923
  8
3
 10
62.99140723388166
 20
114.4123911186347
 30
0.0
 11
62.997419998362602
 21
114.4604932344819
 31
0.0
  0
LINE
  5
11924
  8
3
 10
62.937292353553516
 20
114.207957126284
 30
0.0
 11
62.955330646996231
 21
114.2560592421312
 31
0.0
  0
LINE
  5
11925
  8
3
 10
62.955330646996231
 20
114.2560592421312
 30
0.0
 11
62.967356175958002
 21
114.3101741224593
 31
0.0
  0
LINE
  5
11926
  8
3
 10
62.967356175958002
 20
114.3101741224593
 30
0.0
 11
62.979381704919781
 21
114.3582762383066
 31
0.0
  0
LINE
  5
11927
  8
3
 10
62.979381704919781
 20
114.3582762383066
 30
0.0
 11
62.99140723388166
 21
114.4123911186347
 31
0.0
  0
LINE
  5
11928
  8
3
 10
62.913241295629859
 20
114.1598550104367
 30
0.0
 11
62.937292353553516
 21
114.207957126284
 31
0.0
  0
LINE
  5
11929
  8
3
 10
62.997419998362602
 20
114.4604932344819
 30
0.0
 11
63.003432762843431
 21
114.5146081148101
 31
0.0
  0
LINE
  5
1192A
  8
3
 10
63.075585936614289
 20
113.8411784929488
 30
0.0
 11
63.081598701095231
 21
113.8411784929488
 31
0.0
  0
LINE
  5
1192B
  8
3
 10
63.003432762843431
 20
113.7509870257352
 30
0.0
 11
63.075585936614289
 21
113.8411784929488
 31
0.0
  0
LINE
  5
1192C
  8
3
 10
63.081598701095231
 20
113.8411784929488
 30
0.0
 11
63.081598701095231
 21
113.8471912574297
 31
0.0
  0
LINE
  5
1192D
  8
3
 10
63.081598701095231
 20
113.8471912574297
 30
0.0
 11
63.087611465576181
 21
113.8471912574297
 31
0.0
  0
LINE
  5
1192E
  8
3
 10
63.087611465576181
 20
113.8471912574297
 30
0.0
 11
63.093624230057117
 21
113.8471912574297
 31
0.0
  0
LINE
  5
1192F
  8
3
 10
63.093624230057117
 20
113.8471912574297
 30
0.0
 11
63.099636994537953
 21
113.8532040219107
 31
0.0
  0
LINE
  5
11930
  8
3
 10
63.099636994537953
 20
113.8532040219107
 30
0.0
 11
63.105649759018888
 21
113.8532040219107
 31
0.0
  0
LINE
  5
11931
  8
3
 10
63.105649759018888
 20
113.8532040219107
 30
0.0
 11
63.111662523499717
 21
113.8532040219107
 31
0.0
  0
LINE
  5
11932
  8
3
 10
63.111662523499717
 20
113.8532040219107
 30
0.0
 11
63.11767528798066
 21
113.8592167863915
 31
0.0
  0
LINE
  5
11933
  8
3
 10
62.396143550272079
 20
114.0937146011468
 30
0.0
 11
62.330003140982051
 21
114.0877018366659
 31
0.0
  0
LINE
  5
11934
  8
3
 10
62.330003140982051
 20
113.8471912574297
 30
0.0
 11
62.342028669943943
 21
113.829152963987
 31
0.0
  0
LINE
  5
11935
  8
3
 10
62.330003140982051
 20
114.0877018366659
 30
0.0
 11
62.317977612020279
 21
114.0756763077039
 31
0.0
  0
LINE
  5
11936
  8
3
 10
62.317977612020279
 20
114.0756763077039
 30
0.0
 11
62.311964847539343
 21
114.0696635432231
 31
0.0
  0
LINE
  5
11937
  8
3
 10
62.311964847539343
 20
114.0696635432231
 30
0.0
 11
62.299939318577572
 21
114.0636507787422
 31
0.0
  0
LINE
  5
11938
  8
3
 10
62.299939318577572
 20
114.0636507787422
 30
0.0
 11
62.293926554096629
 21
114.0516252497804
 31
0.0
  0
LINE
  5
11939
  8
3
 10
62.293926554096629
 20
114.0516252497804
 30
0.0
 11
62.2879137896158
 21
114.0395997208186
 31
0.0
  0
LINE
  5
1193A
  8
3
 10
62.2879137896158
 20
114.0395997208186
 30
0.0
 11
62.281901025134857
 21
114.0275741918568
 31
0.0
  0
LINE
  5
1193B
  8
3
 10
62.281901025134857
 20
114.0275741918568
 30
0.0
 11
62.281901025134857
 21
114.015548662895
 31
0.0
  0
LINE
  5
1193C
  8
3
 10
62.281901025134857
 20
114.015548662895
 30
0.0
 11
62.275888260653907
 21
114.0035231339332
 31
0.0
  0
LINE
  5
1193D
  8
3
 10
62.275888260653907
 20
114.0035231339332
 30
0.0
 11
62.275888260653907
 21
113.9914976049714
 31
0.0
  0
LINE
  5
1193E
  8
3
 10
62.275888260653907
 20
113.9914976049714
 30
0.0
 11
62.269875496172972
 21
113.9794720760095
 31
0.0
  0
LINE
  5
1193F
  8
3
 10
62.269875496172972
 20
113.9794720760095
 30
0.0
 11
62.269875496172972
 21
113.9674465470478
 31
0.0
  0
LINE
  5
11940
  8
3
 10
62.269875496172972
 20
113.9674465470478
 30
0.0
 11
62.269875496172972
 21
113.949408253605
 31
0.0
  0
LINE
  5
11941
  8
3
 10
62.269875496172972
 20
113.949408253605
 30
0.0
 11
62.275888260653907
 21
113.9373827246432
 31
0.0
  0
LINE
  5
11942
  8
3
 10
62.275888260653907
 20
113.9373827246432
 30
0.0
 11
62.275888260653907
 21
113.9253571956814
 31
0.0
  0
LINE
  5
11943
  8
3
 10
62.275888260653907
 20
113.9253571956814
 30
0.0
 11
62.2879137896158
 21
113.9013061377578
 31
0.0
  0
LINE
  5
11944
  8
3
 10
62.2879137896158
 20
113.9013061377578
 30
0.0
 11
62.299939318577572
 21
113.8832678443151
 31
0.0
  0
LINE
  5
11945
  8
3
 10
62.299939318577572
 20
113.8832678443151
 30
0.0
 11
62.311964847539343
 21
113.8712423153533
 31
0.0
  0
LINE
  5
11946
  8
3
 10
62.311964847539343
 20
113.8712423153533
 30
0.0
 11
62.323990376501229
 21
113.8592167863915
 31
0.0
  0
LINE
  5
11947
  8
3
 10
62.323990376501229
 20
113.8592167863915
 30
0.0
 11
62.330003140982051
 21
113.8471912574297
 31
0.0
  0
LINE
  5
11948
  8
3
 10
62.684756245355508
 20
114.0937146011468
 30
0.0
 11
62.648679658470087
 21
114.0937146011468
 31
0.0
  0
LINE
  5
11949
  8
3
 10
62.648679658470087
 20
114.0937146011468
 30
0.0
 11
62.612603071584651
 21
114.0997273656277
 31
0.0
  0
LINE
  5
1194A
  8
3
 10
62.612603071584651
 20
114.0997273656277
 30
0.0
 11
62.582539249180059
 21
114.0997273656277
 31
0.0
  0
LINE
  5
1194B
  8
3
 10
62.582539249180059
 20
114.0997273656277
 30
0.0
 11
62.54646266229463
 21
114.0997273656277
 31
0.0
  0
LINE
  5
1194C
  8
3
 10
62.54646266229463
 20
114.0997273656277
 30
0.0
 11
62.516398839890137
 21
114.0997273656277
 31
0.0
  0
LINE
  5
1194D
  8
3
 10
62.516398839890137
 20
114.0997273656277
 30
0.0
 11
62.486335017485658
 21
114.0997273656277
 31
0.0
  0
LINE
  5
1194E
  8
3
 10
62.486335017485658
 20
114.0997273656277
 30
0.0
 11
62.456271195081058
 21
114.0997273656277
 31
0.0
  0
LINE
  5
1194F
  8
3
 10
62.456271195081058
 20
114.0997273656277
 30
0.0
 11
62.426207372676572
 21
114.0997273656277
 31
0.0
  0
LINE
  5
11950
  8
3
 10
62.426207372676572
 20
114.0997273656277
 30
0.0
 11
62.396143550272079
 21
114.0937146011468
 31
0.0
  0
LINE
  5
11951
  8
3
 10
62.342028669943943
 20
113.829152963987
 30
0.0
 11
62.354054198905722
 21
113.8171274350251
 31
0.0
  0
LINE
  5
11952
  8
3
 10
62.354054198905722
 20
113.8171274350251
 30
0.0
 11
62.366079727867493
 21
113.7990891415824
 31
0.0
  0
LINE
  5
11953
  8
3
 10
62.366079727867493
 20
113.7990891415824
 30
0.0
 11
62.378105256829258
 21
113.7870636126207
 31
0.0
  0
LINE
  5
11954
  8
3
 10
62.378105256829258
 20
113.7870636126207
 30
0.0
 11
62.390130785791143
 21
113.7690253191779
 31
0.0
  0
LINE
  5
11955
  8
3
 10
62.390130785791143
 20
113.7690253191779
 30
0.0
 11
62.402156314752908
 21
113.7509870257352
 31
0.0
  0
LINE
  5
11956
  8
3
 10
62.402156314752908
 20
113.7509870257352
 30
0.0
 11
62.4141818437148
 21
113.7389614967734
 31
0.0
  0
LINE
  5
11957
  8
3
 10
62.4141818437148
 20
113.7389614967734
 30
0.0
 11
62.426207372676572
 21
113.7209232033307
 31
0.0
  0
LINE
  5
11958
  8
3
 10
62.426207372676572
 20
113.7209232033307
 30
0.0
 11
62.432220137157508
 21
113.7028849098879
 31
0.0
  0
LINE
  5
11959
  8
3
 10
62.432220137157508
 20
113.7028849098879
 30
0.0
 11
62.444245666119294
 21
113.6908593809261
 31
0.0
  0
LINE
  5
1195A
  8
3
 10
62.871151944263602
 20
114.1177656590703
 30
0.0
 11
62.871151944263602
 21
114.1117528945895
 31
0.0
  0
LINE
  5
1195B
  8
3
 10
62.871151944263602
 20
114.1117528945895
 30
0.0
 11
62.877164708744431
 21
114.1117528945895
 31
0.0
  0
LINE
  5
1195C
  8
3
 10
62.877164708744431
 20
114.1117528945895
 30
0.0
 11
62.889190237706309
 21
114.1177656590703
 31
0.0
  0
LINE
  5
1195D
  8
3
 10
62.931279589072567
 20
114.1057401301085
 30
0.0
 11
62.871151944263602
 21
114.0997273656277
 31
0.0
  0
LINE
  5
1195E
  8
3
 10
62.871151944263602
 20
114.0997273656277
 30
0.0
 11
62.817037063935352
 21
114.0937146011468
 31
0.0
  0
LINE
  5
1195F
  8
3
 10
62.768934948088138
 20
114.0937146011468
 30
0.0
 11
62.726845596721773
 21
114.0937146011468
 31
0.0
  0
LINE
  5
11960
  8
3
 10
62.726845596721773
 20
114.0937146011468
 30
0.0
 11
62.684756245355508
 21
114.0937146011468
 31
0.0
  0
LINE
  5
11961
  8
3
 10
62.817037063935352
 20
114.0937146011468
 30
0.0
 11
62.768934948088138
 21
114.0937146011468
 31
0.0
  0
LINE
  5
11962
  8
3
 10
63.147739110385139
 20
114.0756763077039
 30
0.0
 11
62.931279589072567
 21
114.1057401301085
 31
0.0
  0
LINE
  5
11963
  8
3
 10
62.973368940438938
 20
113.7028849098879
 30
0.0
 11
63.003432762843431
 21
113.7509870257352
 31
0.0
  0
LINE
  5
11964
  8
3
 10
62.889190237706309
 20
114.1177656590703
 30
0.0
 11
62.913241295629859
 21
114.1598550104367
 31
0.0
  0
LINE
  5
11965
  8
3
 10
63.009445527324367
 20
114.5687229951382
 30
0.0
 11
63.021471056286138
 21
114.6168251109855
 31
0.0
  0
LINE
  5
11966
  8
3
 10
62.871151944263602
 20
115.1639866787478
 30
0.0
 11
62.871151944263602
 21
114.1177656590703
 31
0.0
  0
LINE
  5
11967
  8
3
 10
62.600577542622773
 20
113.3000296896673
 30
0.0
 11
62.612603071584651
 21
113.2278765158963
 31
0.0
  0
LINE
  5
11968
  8
3
 10
62.817037063935352
 20
113.2579403383009
 30
0.0
 11
62.82906259289723
 21
113.3180679831101
 31
0.0
  0
LINE
  5
11969
  8
3
 10
62.504373310928372
 20
113.5886423847507
 30
0.0
 11
62.534437133332858
 21
113.5164892109798
 31
0.0
  0
LINE
  5
1196A
  8
3
 10
62.901215766668088
 20
113.5465530333844
 30
0.0
 11
62.919254060110802
 21
113.6006679137125
 31
0.0
  0
LINE
  5
1196B
  8
3
 10
62.877164708744431
 20
113.4924381530562
 30
0.0
 11
62.901215766668088
 21
113.5465530333844
 31
0.0
  0
LINE
  5
1196C
  8
3
 10
62.474309488523772
 20
113.6607955585215
 30
0.0
 11
62.504373310928372
 21
113.5886423847507
 31
0.0
  0
LINE
  5
1196D
  8
3
 10
62.919254060110802
 20
113.6006679137125
 30
0.0
 11
62.949317882515281
 21
113.6547827940408
 31
0.0
  0
LINE
  5
1196E
  8
3
 10
62.534437133332858
 20
113.5164892109798
 30
0.0
 11
62.564500955737337
 21
113.4443360372089
 31
0.0
  0
LINE
  5
1196F
  8
3
 10
62.859126415301709
 20
113.4383232727282
 30
0.0
 11
62.877164708744431
 21
113.4924381530562
 31
0.0
  0
LINE
  5
11970
  8
3
 10
62.564500955737337
 20
113.4443360372089
 30
0.0
 11
62.582539249180059
 21
113.3721828634381
 31
0.0
  0
LINE
  5
11971
  8
3
 10
62.841088121859002
 20
113.3781956279189
 30
0.0
 11
62.859126415301709
 21
113.4383232727282
 31
0.0
  0
LINE
  5
11972
  8
3
 10
62.582539249180059
 20
113.3721828634381
 30
0.0
 11
62.600577542622773
 21
113.3000296896673
 31
0.0
  0
LINE
  5
11973
  8
3
 10
62.82906259289723
 20
113.3180679831101
 30
0.0
 11
62.841088121859002
 21
113.3781956279189
 31
0.0
  0
LINE
  5
11974
  8
3
 10
62.630641365027373
 20
112.999391465622
 30
0.0
 11
62.630641365027373
 21
112.9272382918512
 31
0.0
  0
LINE
  5
11975
  8
3
 10
62.792986006011802
 20
112.9573021142558
 30
0.0
 11
62.792986006011802
 21
113.0174297590647
 31
0.0
  0
LINE
  5
11976
  8
3
 10
62.630641365027373
 20
113.0775574038738
 30
0.0
 11
62.630641365027373
 21
112.999391465622
 31
0.0
  0
LINE
  5
11977
  8
3
 10
62.792986006011802
 20
113.0174297590647
 30
0.0
 11
62.792986006011802
 21
113.0775574038738
 31
0.0
  0
LINE
  5
11978
  8
3
 10
62.798998770492631
 20
113.1376850486828
 30
0.0
 11
62.80501153497358
 21
113.1978126934919
 31
0.0
  0
LINE
  5
11979
  8
3
 10
62.62462860054643
 20
113.1497105776448
 30
0.0
 11
62.630641365027373
 21
113.0775574038738
 31
0.0
  0
LINE
  5
1197A
  8
3
 10
62.792986006011802
 20
113.0775574038738
 30
0.0
 11
62.798998770492631
 21
113.1376850486828
 31
0.0
  0
LINE
  5
1197B
  8
3
 10
62.80501153497358
 20
113.1978126934919
 30
0.0
 11
62.817037063935352
 21
113.2579403383009
 31
0.0
  0
LINE
  5
1197C
  8
3
 10
62.612603071584651
 20
113.2278765158963
 30
0.0
 11
62.62462860054643
 21
113.1497105776448
 31
0.0
  0
LINE
  5
1197D
  8
3
 10
62.444245666119294
 20
113.6908593809261
 30
0.0
 11
62.474309488523772
 21
113.6607955585215
 31
0.0
  0
LINE
  5
1197E
  8
3
 10
62.949317882515281
 20
113.6547827940408
 30
0.0
 11
62.973368940438938
 21
113.7028849098879
 31
0.0
  0
LINE
  5
1197F
  8
3
 10
59.798629294520993
 20
112.8851489404848
 30
0.0
 11
59.834705881406421
 21
112.867110647042
 31
0.0
  0
LINE
  5
11980
  8
3
 10
61.367960824037247
 20
112.8610978825612
 30
0.0
 11
61.590433109830769
 21
112.8911617049657
 31
0.0
  0
LINE
  5
11981
  8
3
 10
61.037258777587454
 20
112.8310340601567
 30
0.0
 11
61.145488538243733
 21
112.8370468246376
 31
0.0
  0
LINE
  5
11982
  8
3
 10
61.055297071030161
 20
112.8310340601567
 30
0.0
 11
61.037258777587454
 21
112.8310340601567
 31
0.0
  0
LINE
  5
11983
  8
3
 10
60.929029016931167
 20
112.8190085311948
 30
0.0
 11
61.037258777587454
 21
112.8310340601567
 31
0.0
  0
LINE
  5
11984
  8
3
 10
60.820799256274881
 20
112.8190085311948
 30
0.0
 11
60.929029016931167
 21
112.8190085311948
 31
0.0
  0
LINE
  5
11985
  8
3
 10
61.253718298900033
 20
112.8490723535994
 30
0.0
 11
61.367960824037247
 21
112.8610978825612
 31
0.0
  0
LINE
  5
11986
  8
3
 10
61.145488538243733
 20
112.8370468246376
 30
0.0
 11
61.253718298900033
 21
112.8490723535994
 31
0.0
  0
LINE
  5
11987
  8
3
 10
60.941054545893053
 20
112.6386255967677
 30
0.0
 11
60.93504178141211
 21
112.5845107164396
 31
0.0
  0
LINE
  5
11988
  8
3
 10
61.06732259999194
 20
112.34400013720339
 30
0.0
 11
61.06732259999194
 21
112.4101405464933
 31
0.0
  0
LINE
  5
11989
  8
3
 10
61.06732259999194
 20
112.4101405464933
 30
0.0
 11
61.06732259999194
 21
112.488306484745
 31
0.0
  0
LINE
  5
1198A
  8
3
 10
61.06732259999194
 20
112.488306484745
 30
0.0
 11
61.061309835511111
 21
112.5845107164396
 31
0.0
  0
LINE
  5
1198B
  8
3
 10
60.93504178141211
 20
112.5845107164396
 30
0.0
 11
60.93504178141211
 21
112.5243830716304
 31
0.0
  0
LINE
  5
1198C
  8
3
 10
60.93504178141211
 20
112.5243830716304
 30
0.0
 11
60.929029016931167
 21
112.4702681913023
 31
0.0
  0
LINE
  5
1198D
  8
3
 10
60.929029016931167
 20
112.4702681913023
 30
0.0
 11
60.929029016931167
 21
112.4161533109742
 31
0.0
  0
LINE
  5
1198E
  8
3
 10
60.929029016931167
 20
112.4161533109742
 30
0.0
 11
60.923016252450338
 21
112.35602566616519
 31
0.0
  0
LINE
  5
1198F
  8
3
 10
60.949116186946867
 20
112.71118036625219
 30
0.0
 11
60.941054545893053
 21
112.6386255967677
 31
0.0
  0
LINE
  5
11990
  8
3
 10
61.079348128953832
 20
111.91709385905899
 30
0.0
 11
61.073335364472882
 21
111.97120873938719
 31
0.0
  0
LINE
  5
11991
  8
3
 10
61.073335364472882
 20
111.97120873938719
 30
0.0
 11
61.06732259999194
 21
112.01931085523449
 31
0.0
  0
LINE
  5
11992
  8
3
 10
61.06732259999194
 20
112.01931085523449
 30
0.0
 11
61.06732259999194
 21
112.05538744211989
 31
0.0
  0
LINE
  5
11993
  8
3
 10
61.06732259999194
 20
112.05538744211989
 30
0.0
 11
61.06732259999194
 21
112.09146402900539
 31
0.0
  0
LINE
  5
11994
  8
3
 10
61.06732259999194
 20
112.09146402900539
 30
0.0
 11
61.06732259999194
 21
112.12754061589069
 31
0.0
  0
LINE
  5
11995
  8
3
 10
61.06732259999194
 20
112.12754061589069
 30
0.0
 11
61.06732259999194
 21
112.16361720277609
 31
0.0
  0
LINE
  5
11996
  8
3
 10
61.06732259999194
 20
112.16361720277609
 30
0.0
 11
61.06732259999194
 21
112.19969378966159
 31
0.0
  0
LINE
  5
11997
  8
3
 10
61.06732259999194
 20
112.19969378966159
 30
0.0
 11
61.06732259999194
 21
112.24178314102789
 31
0.0
  0
LINE
  5
11998
  8
3
 10
61.06732259999194
 20
112.24178314102789
 30
0.0
 11
61.06732259999194
 21
112.28988525687519
 31
0.0
  0
LINE
  5
11999
  8
3
 10
60.917003487969403
 20
112.30191078583709
 30
0.0
 11
60.910990723488567
 21
112.24779590550889
 31
0.0
  0
LINE
  5
1199A
  8
3
 10
60.910990723488567
 20
112.24779590550889
 30
0.0
 11
60.90497795900751
 21
112.19368102518069
 31
0.0
  0
LINE
  5
1199B
  8
3
 10
60.90497795900751
 20
112.19368102518069
 30
0.0
 11
60.892952430045739
 21
112.14557890933349
 31
0.0
  0
LINE
  5
1199C
  8
3
 10
60.892952430045739
 20
112.14557890933349
 30
0.0
 11
60.874914136603017
 21
112.09146402900539
 31
0.0
  0
LINE
  5
1199D
  8
3
 10
60.874914136603017
 20
112.09146402900539
 30
0.0
 11
60.85687584316031
 21
112.04336191315799
 31
0.0
  0
LINE
  5
1199E
  8
3
 10
61.085360893434647
 20
111.85696621424999
 30
0.0
 11
61.079348128953832
 21
111.91709385905899
 31
0.0
  0
LINE
  5
1199F
  8
3
 10
60.80877372731311
 20
111.95317044594449
 30
0.0
 11
60.73060778906131
 21
111.92310662353989
 31
0.0
  0
LINE
  5
119A0
  8
3
 10
60.85687584316031
 20
112.04336191315799
 30
0.0
 11
60.80877372731311
 21
111.95317044594449
 31
0.0
  0
LINE
  5
119A1
  8
3
 10
61.175552360648339
 20
111.85696621424999
 30
0.0
 11
61.085360893434647
 21
111.85696621424999
 31
0.0
  0
LINE
  5
119A2
  8
3
 10
61.22365447649554
 20
111.85696621424999
 30
0.0
 11
61.175552360648339
 21
111.85696621424999
 31
0.0
  0
LINE
  5
119A3
  8
3
 10
61.06732259999194
 20
112.28988525687519
 30
0.0
 11
61.06732259999194
 21
112.34400013720339
 31
0.0
  0
LINE
  5
119A4
  8
3
 10
60.923016252450338
 20
112.35602566616519
 30
0.0
 11
60.917003487969403
 21
112.30191078583709
 31
0.0
  0
ARC
  5
119A5
  8
3
 10
61.083173131739272
 20
112.69937730181761
 30
0.0
 40
0.1345755430122404
 50
101.9548373798287
 51
174.968359139189
  0
LINE
  5
119A6
  8
3
 10
61.061309835511111
 20
112.5845107164396
 30
0.0
 11
61.055297071030161
 21
112.8310340601567
 31
0.0
  0
LINE
  5
119A7
  8
3
 10
60.057178167199929
 20
112.8430595891185
 30
0.0
 11
60.165407927856222
 21
112.8310340601567
 31
0.0
  0
LINE
  5
119A8
  8
3
 10
60.165407927856222
 20
112.8310340601567
 30
0.0
 11
60.279650452993451
 21
112.8250212956758
 31
0.0
  0
LINE
  5
119A9
  8
3
 10
60.279650452993451
 20
112.8250212956758
 30
0.0
 11
60.387880213649737
 21
112.8190085311948
 31
0.0
  0
LINE
  5
119AA
  8
3
 10
60.496109974306023
 20
112.8190085311948
 30
0.0
 11
60.604339734962302
 21
112.812995766714
 31
0.0
  0
LINE
  5
119AB
  8
3
 10
60.387880213649737
 20
112.8190085311948
 30
0.0
 11
60.496109974306023
 21
112.8190085311948
 31
0.0
  0
LINE
  5
119AC
  8
3
 10
60.604339734962302
 20
112.812995766714
 30
0.0
 11
60.712569495618602
 21
112.812995766714
 31
0.0
  0
LINE
  5
119AD
  8
3
 10
59.834705881406421
 20
112.867110647042
 30
0.0
 11
59.9429356420627
 21
112.8490723535994
 31
0.0
  0
LINE
  5
119AE
  8
3
 10
59.9429356420627
 20
112.8490723535994
 30
0.0
 11
60.057178167199929
 21
112.8430595891185
 31
0.0
  0
LINE
  5
119AF
  8
3
 10
60.580288677038652
 20
111.87500450769279
 30
0.0
 11
60.496109974306023
 21
111.86297897873099
 31
0.0
  0
LINE
  5
119B0
  8
3
 10
60.65244185080951
 20
111.89905556561639
 30
0.0
 11
60.580288677038652
 21
111.87500450769279
 31
0.0
  0
LINE
  5
119B1
  8
3
 10
59.840718645887357
 20
111.87500450769279
 30
0.0
 11
59.762552707635557
 21
111.88703003665459
 31
0.0
  0
LINE
  5
119B2
  8
3
 10
59.37773578085762
 20
111.97120873938719
 30
0.0
 11
59.341659193972191
 21
111.98323426834899
 31
0.0
  0
LINE
  5
119B3
  8
3
 10
59.305582607086762
 20
112.00127256179169
 30
0.0
 11
59.275518784682284
 21
112.01329809075349
 31
0.0
  0
LINE
  5
119B4
  8
3
 10
59.275518784682284
 20
112.01329809075349
 30
0.0
 11
59.239442197796841
 21
112.03133638419629
 31
0.0
  0
LINE
  5
119B5
  8
3
 10
59.341659193972191
 20
111.98323426834899
 30
0.0
 11
59.305582607086762
 21
112.00127256179169
 31
0.0
  0
LINE
  5
119B6
  8
3
 10
59.762552707635557
 20
111.88703003665459
 30
0.0
 11
59.684386769383757
 21
111.89905556561639
 31
0.0
  0
LINE
  5
119B7
  8
3
 10
59.684386769383757
 20
111.89905556561639
 30
0.0
 11
59.528054892880277
 21
111.92310662353989
 31
0.0
  0
LINE
  5
119B8
  8
3
 10
59.528054892880277
 20
111.92310662353989
 30
0.0
 11
59.485965541513899
 21
111.92911938802089
 31
0.0
  0
LINE
  5
119B9
  8
3
 10
59.485965541513899
 20
111.92911938802089
 30
0.0
 11
59.449888954628477
 21
111.94114491698269
 31
0.0
  0
LINE
  5
119BA
  8
3
 10
59.449888954628477
 20
111.94114491698269
 30
0.0
 11
59.413812367743041
 21
111.95918321042549
 31
0.0
  0
LINE
  5
119BB
  8
3
 10
59.413812367743041
 20
111.95918321042549
 30
0.0
 11
59.37773578085762
 21
111.97120873938719
 31
0.0
  0
LINE
  5
119BC
  8
3
 10
59.924897348619993
 20
111.86297897873099
 30
0.0
 11
59.840718645887357
 21
111.87500450769279
 31
0.0
  0
LINE
  5
119BD
  8
3
 10
60.009076051352743
 20
111.85696621424999
 30
0.0
 11
59.924897348619993
 21
111.86297897873099
 31
0.0
  0
LINE
  5
119BE
  8
3
 10
59.209378375392362
 20
112.04937467763899
 30
0.0
 11
59.173301788506819
 21
112.06741297108159
 31
0.0
  0
LINE
  5
119BF
  8
3
 10
59.239442197796841
 20
112.03133638419629
 30
0.0
 11
59.209378375392362
 21
112.04937467763899
 31
0.0
  0
LINE
  5
119C0
  8
3
 10
60.73060778906131
 20
111.92310662353989
 30
0.0
 11
60.65244185080951
 21
111.89905556561639
 31
0.0
  0
LINE
  5
119C1
  8
3
 10
60.712569495618602
 20
112.812995766714
 30
0.0
 11
60.820799256274881
 21
112.8190085311948
 31
0.0
  0
LINE
  5
119C2
  8
3
 10
61.404037410922683
 20
111.85095344976909
 30
0.0
 11
61.361948059556312
 21
111.85095344976909
 31
0.0
  0
LINE
  5
119C3
  8
3
 10
61.361948059556312
 20
111.85095344976909
 30
0.0
 11
61.313845943709111
 21
111.85095344976909
 31
0.0
  0
LINE
  5
119C4
  8
3
 10
61.313845943709111
 20
111.85095344976909
 30
0.0
 11
61.265743827861911
 21
111.85095344976909
 31
0.0
  0
LINE
  5
119C5
  8
3
 10
60.171420692337172
 20
111.84494068528809
 30
0.0
 11
60.087241989604422
 21
111.85095344976909
 31
0.0
  0
LINE
  5
119C6
  8
3
 10
60.255599395069801
 20
111.84494068528809
 30
0.0
 11
60.171420692337172
 21
111.84494068528809
 31
0.0
  0
LINE
  5
119C7
  8
3
 10
60.417944036054223
 20
111.85095344976909
 30
0.0
 11
60.333765333321587
 21
111.85095344976909
 31
0.0
  0
LINE
  5
119C8
  8
3
 10
60.333765333321587
 20
111.85095344976909
 30
0.0
 11
60.255599395069801
 21
111.84494068528809
 31
0.0
  0
LINE
  5
119C9
  8
3
 10
60.087241989604422
 20
111.85095344976909
 30
0.0
 11
60.009076051352743
 21
111.85696621424999
 31
0.0
  0
LINE
  5
119CA
  8
3
 10
61.265743827861911
 20
111.85095344976909
 30
0.0
 11
61.22365447649554
 21
111.85696621424999
 31
0.0
  0
LINE
  5
119CB
  8
3
 10
60.496109974306023
 20
111.86297897873099
 30
0.0
 11
60.417944036054223
 21
111.85095344976909
 31
0.0
  0
LINE
  5
119CC
  8
3
 10
61.63853522567797
 20
111.86297897873099
 30
0.0
 11
61.590433109830769
 21
111.86297897873099
 31
0.0
  0
LINE
  5
119CD
  8
3
 10
61.590433109830769
 20
111.86297897873099
 30
0.0
 11
61.548343758464398
 21
111.85696621424999
 31
0.0
  0
LINE
  5
119CE
  8
3
 10
61.734739457372477
 20
111.88101727217359
 30
0.0
 11
61.686637341525277
 21
111.86899174321179
 31
0.0
  0
LINE
  5
119CF
  8
3
 10
61.686637341525277
 20
111.86899174321179
 30
0.0
 11
61.63853522567797
 21
111.86297897873099
 31
0.0
  0
LINE
  5
119D0
  8
3
 10
61.548343758464398
 20
111.85696621424999
 30
0.0
 11
61.500241642617191
 21
111.85696621424999
 31
0.0
  0
LINE
  5
119D1
  8
3
 10
61.500241642617191
 20
111.85696621424999
 30
0.0
 11
61.452139526769876
 21
111.85095344976909
 31
0.0
  0
LINE
  5
119D2
  8
3
 10
61.452139526769876
 20
111.85095344976909
 30
0.0
 11
61.404037410922683
 21
111.85095344976909
 31
0.0
  0
LINE
  5
119D3
  8
3
 10
60.983143897259311
 20
115.1760122077098
 30
0.0
 11
60.98915666174026
 21
115.1098717984198
 31
0.0
  0
LINE
  5
119D4
  8
3
 10
60.995169426221203
 20
115.0497441536107
 30
0.0
 11
60.995169426221203
 21
114.9896165088016
 31
0.0
  0
LINE
  5
119D5
  8
3
 10
60.995169426221203
 20
114.9896165088016
 30
0.0
 11
61.001182190702032
 21
114.9234760995116
 31
0.0
  0
LINE
  5
119D6
  8
3
 10
61.001182190702032
 20
114.9234760995116
 30
0.0
 11
61.001182190702032
 21
114.8633484547026
 31
0.0
  0
LINE
  5
119D7
  8
3
 10
61.001182190702032
 20
114.8633484547026
 30
0.0
 11
61.001182190702032
 21
114.8032208098935
 31
0.0
  0
LINE
  5
119D8
  8
3
 10
61.001182190702032
 20
114.8032208098935
 30
0.0
 11
61.001182190702032
 21
114.7370804006037
 31
0.0
  0
LINE
  5
119D9
  8
3
 10
61.001182190702032
 20
114.7370804006037
 30
0.0
 11
60.995169426221203
 21
114.6769527557946
 31
0.0
  0
LINE
  5
119DA
  8
3
 10
60.995169426221203
 20
114.6769527557946
 30
0.0
 11
60.995169426221203
 21
114.6168251109855
 31
0.0
  0
LINE
  5
119DB
  8
3
 10
60.98915666174026
 20
115.1098717984198
 30
0.0
 11
60.995169426221203
 21
115.0497441536107
 31
0.0
  0
LINE
  5
119DC
  8
3
 10
60.995169426221203
 20
114.2981485934974
 30
0.0
 11
61.007194955182968
 21
114.1778933038794
 31
0.0
  0
LINE
  5
119DD
  8
3
 10
61.007194955182968
 20
114.1778933038794
 30
0.0
 11
60.90497795900751
 21
114.1658677749176
 31
0.0
  0
LINE
  5
119DE
  8
3
 10
61.355935295075483
 20
114.5506847016956
 30
0.0
 11
61.361948059556312
 21
114.5627102306572
 31
0.0
  0
LINE
  5
119DF
  8
3
 10
60.995169426221203
 20
114.4905570568866
 30
0.0
 11
60.98915666174026
 21
114.4244166475966
 31
0.0
  0
LINE
  5
119E0
  8
3
 10
60.995169426221203
 20
114.5506847016956
 30
0.0
 11
60.995169426221203
 21
114.4905570568866
 31
0.0
  0
LINE
  5
119E1
  8
3
 10
61.295807650266397
 20
114.3763145317493
 30
0.0
 11
61.295807650266397
 21
114.394352825192
 31
0.0
  0
LINE
  5
119E2
  8
3
 10
61.295807650266397
 20
114.394352825192
 30
0.0
 11
61.30182041474734
 21
114.4063783541539
 31
0.0
  0
LINE
  5
119E3
  8
3
 10
61.30182041474734
 20
114.4063783541539
 30
0.0
 11
61.307833179228169
 21
114.4244166475966
 31
0.0
  0
LINE
  5
119E4
  8
3
 10
61.253718298900033
 20
114.2199826552458
 30
0.0
 11
61.259731063380968
 21
114.2380209486885
 31
0.0
  0
LINE
  5
119E5
  8
3
 10
61.259731063380968
 20
114.2380209486885
 30
0.0
 11
61.265743827861911
 21
114.2560592421312
 31
0.0
  0
LINE
  5
119E6
  8
3
 10
61.265743827861911
 20
114.2560592421312
 30
0.0
 11
61.27175659234274
 21
114.2740975355738
 31
0.0
  0
LINE
  5
119E7
  8
3
 10
61.27175659234274
 20
114.2740975355738
 30
0.0
 11
61.277769356823683
 21
114.2921358290167
 31
0.0
  0
LINE
  5
119E8
  8
3
 10
61.277769356823683
 20
114.2921358290167
 30
0.0
 11
61.277769356823683
 21
114.3101741224593
 31
0.0
  0
LINE
  5
119E9
  8
3
 10
61.277769356823683
 20
114.3101741224593
 30
0.0
 11
61.283782121304633
 21
114.328212415902
 31
0.0
  0
LINE
  5
119EA
  8
3
 10
61.283782121304633
 20
114.328212415902
 30
0.0
 11
61.289794885785568
 21
114.3402379448639
 31
0.0
  0
LINE
  5
119EB
  8
3
 10
61.289794885785568
 20
114.3402379448639
 30
0.0
 11
61.289794885785568
 21
114.3582762383066
 31
0.0
  0
LINE
  5
119EC
  8
3
 10
60.995169426221203
 20
114.3642890027874
 30
0.0
 11
60.995169426221203
 21
114.2981485934974
 31
0.0
  0
LINE
  5
119ED
  8
3
 10
61.289794885785568
 20
114.3582762383066
 30
0.0
 11
61.295807650266397
 21
114.3763145317493
 31
0.0
  0
LINE
  5
119EE
  8
3
 10
60.98915666174026
 20
114.4244166475966
 30
0.0
 11
60.995169426221203
 21
114.3642890027874
 31
0.0
  0
LINE
  5
119EF
  8
3
 10
61.313845943709111
 20
114.4364421765585
 30
0.0
 11
61.319858708190047
 21
114.4484677055202
 31
0.0
  0
LINE
  5
119F0
  8
3
 10
61.307833179228169
 20
114.4244166475966
 30
0.0
 11
61.313845943709111
 21
114.4364421765585
 31
0.0
  0
LINE
  5
119F1
  8
3
 10
61.319858708190047
 20
114.4484677055202
 30
0.0
 11
61.337897001632761
 21
114.4785315279247
 31
0.0
  0
LINE
  5
119F2
  8
3
 10
61.337897001632761
 20
114.4785315279247
 30
0.0
 11
61.337897001632761
 21
114.4845442924055
 31
0.0
  0
LINE
  5
119F3
  8
3
 10
61.337897001632761
 20
114.4845442924055
 30
0.0
 11
61.337897001632761
 21
114.4905570568866
 31
0.0
  0
LINE
  5
119F4
  8
3
 10
61.337897001632761
 20
114.4905570568866
 30
0.0
 11
61.337897001632761
 21
114.4965698213674
 31
0.0
  0
LINE
  5
119F5
  8
3
 10
61.337897001632761
 20
114.4965698213674
 30
0.0
 11
61.337897001632761
 21
114.5025825858483
 31
0.0
  0
LINE
  5
119F6
  8
3
 10
61.337897001632761
 20
114.5025825858483
 30
0.0
 11
61.337897001632761
 21
114.5085953503291
 31
0.0
  0
LINE
  5
119F7
  8
3
 10
61.337897001632761
 20
114.5085953503291
 30
0.0
 11
61.343909766113597
 21
114.5146081148101
 31
0.0
  0
LINE
  5
119F8
  8
3
 10
61.343909766113597
 20
114.5146081148101
 30
0.0
 11
61.343909766113597
 21
114.520620879291
 31
0.0
  0
LINE
  5
119F9
  8
3
 10
61.343909766113597
 20
114.520620879291
 30
0.0
 11
61.343909766113597
 21
114.526633643772
 31
0.0
  0
LINE
  5
119FA
  8
3
 10
61.343909766113597
 20
114.526633643772
 30
0.0
 11
61.343909766113597
 21
114.5326464082528
 31
0.0
  0
LINE
  5
119FB
  8
3
 10
61.343909766113597
 20
114.5326464082528
 30
0.0
 11
61.343909766113597
 21
114.5386591727338
 31
0.0
  0
LINE
  5
119FC
  8
3
 10
61.343909766113597
 20
114.5386591727338
 30
0.0
 11
61.34992253059454
 21
114.5446719372146
 31
0.0
  0
LINE
  5
119FD
  8
3
 10
61.34992253059454
 20
114.5446719372146
 30
0.0
 11
61.34992253059454
 21
114.5506847016956
 31
0.0
  0
LINE
  5
119FE
  8
3
 10
61.34992253059454
 20
114.5506847016956
 30
0.0
 11
61.355935295075483
 21
114.5506847016956
 31
0.0
  0
LINE
  5
119FF
  8
3
 10
60.90497795900751
 20
114.1658677749176
 30
0.0
 11
60.802760962832167
 21
114.1598550104367
 31
0.0
  0
LINE
  5
11A00
  8
3
 10
61.265743827861911
 20
113.6908593809261
 30
0.0
 11
61.253718298900033
 21
113.7569997902161
 31
0.0
  0
LINE
  5
11A01
  8
3
 10
61.253718298900033
 20
113.7569997902161
 30
0.0
 11
61.241692769938247
 21
113.823140199506
 31
0.0
  0
LINE
  5
11A02
  8
3
 10
61.241692769938247
 20
113.823140199506
 30
0.0
 11
61.235680005457418
 21
113.8892806087961
 31
0.0
  0
LINE
  5
11A03
  8
3
 10
61.235680005457418
 20
113.8892806087961
 30
0.0
 11
61.229667240976482
 21
113.9554210180861
 31
0.0
  0
LINE
  5
11A04
  8
3
 10
61.229667240976482
 20
113.9554210180861
 30
0.0
 11
61.229667240976482
 21
114.0215614273759
 31
0.0
  0
LINE
  5
11A05
  8
3
 10
61.229667240976482
 20
114.0215614273759
 30
0.0
 11
61.229667240976482
 21
114.0877018366659
 31
0.0
  0
LINE
  5
11A06
  8
3
 10
60.88092690108396
 20
113.9073189022387
 30
0.0
 11
60.88092690108396
 21
113.8471912574297
 31
0.0
  0
LINE
  5
11A07
  8
3
 10
60.88092690108396
 20
113.8471912574297
 30
0.0
 11
60.88092690108396
 21
113.7930763771015
 31
0.0
  0
LINE
  5
11A08
  8
3
 10
60.88092690108396
 20
113.7930763771015
 30
0.0
 11
60.886939665564903
 21
113.7449742612542
 31
0.0
  0
LINE
  5
11A09
  8
3
 10
60.886939665564903
 20
113.7449742612542
 30
0.0
 11
60.886939665564903
 21
113.696872145407
 31
0.0
  0
LINE
  5
11A0A
  8
3
 10
61.229667240976482
 20
114.0877018366659
 30
0.0
 11
61.253718298900033
 21
114.2199826552458
 31
0.0
  0
LINE
  5
11A0B
  8
3
 10
61.361948059556312
 20
114.5627102306572
 30
0.0
 11
61.398024646441741
 21
114.6108123465046
 31
0.0
  0
LINE
  5
11A0C
  8
3
 10
60.995169426221203
 20
114.6168251109855
 30
0.0
 11
60.995169426221203
 21
114.5506847016956
 31
0.0
  0
LINE
  5
11A0D
  8
3
 10
59.804642059001942
 20
115.1699994432287
 30
0.0
 11
59.810654823482757
 21
115.1699994432287
 31
0.0
  0
LINE
  5
11A0E
  8
3
 10
59.810654823482757
 20
115.1699994432287
 30
0.0
 11
59.816667587963707
 21
115.1699994432287
 31
0.0
  0
LINE
  5
11A0F
  8
3
 10
59.816667587963707
 20
115.1699994432287
 30
0.0
 11
59.828693116925479
 21
115.1760122077098
 31
0.0
  0
LINE
  5
11A10
  8
3
 10
59.828693116925479
 20
115.1760122077098
 30
0.0
 11
59.828693116925479
 21
115.1760122077098
 31
0.0
  0
LINE
  5
11A11
  8
3
 10
59.798629294520993
 20
115.1699994432287
 30
0.0
 11
59.804642059001942
 21
115.1699994432287
 31
0.0
  0
LINE
  5
11A12
  8
3
 10
59.786603765559221
 20
115.1639866787478
 30
0.0
 11
59.79261653004005
 21
115.1639866787478
 31
0.0
  0
LINE
  5
11A13
  8
3
 10
59.79261653004005
 20
115.1639866787478
 30
0.0
 11
59.798629294520993
 21
115.1639866787478
 31
0.0
  0
LINE
  5
11A14
  8
3
 10
59.798629294520993
 20
115.1639866787478
 30
0.0
 11
59.798629294520993
 21
115.1699994432287
 31
0.0
  0
LINE
  5
11A15
  8
3
 10
59.774578236597449
 20
115.157973914267
 30
0.0
 11
59.780591001078271
 21
115.157973914267
 31
0.0
  0
LINE
  5
11A16
  8
3
 10
59.780591001078271
 20
115.157973914267
 30
0.0
 11
59.786603765559221
 21
115.1639866787478
 31
0.0
  0
LINE
  5
11A17
  8
3
 10
59.383748545338563
 20
115.0737952115344
 30
0.0
 11
59.467927248071192
 21
115.0978462694579
 31
0.0
  0
LINE
  5
11A18
  8
3
 10
59.467927248071192
 20
115.0978462694579
 30
0.0
 11
59.552105950803821
 21
115.1218973273816
 31
0.0
  0
LINE
  5
11A19
  8
3
 10
59.738501649711907
 20
115.157973914267
 30
0.0
 11
59.744514414192849
 21
115.157973914267
 31
0.0
  0
LINE
  5
11A1A
  8
3
 10
59.744514414192849
 20
115.157973914267
 30
0.0
 11
59.750527178673792
 21
115.157973914267
 31
0.0
  0
LINE
  5
11A1B
  8
3
 10
59.750527178673792
 20
115.157973914267
 30
0.0
 11
59.756539943154621
 21
115.157973914267
 31
0.0
  0
LINE
  5
11A1C
  8
3
 10
59.756539943154621
 20
115.157973914267
 30
0.0
 11
59.768565472116499
 21
115.157973914267
 31
0.0
  0
LINE
  5
11A1D
  8
3
 10
59.552105950803821
 20
115.1218973273816
 30
0.0
 11
59.732488885231078
 21
115.1639866787478
 31
0.0
  0
LINE
  5
11A1E
  8
3
 10
59.732488885231078
 20
115.1639866787478
 30
0.0
 11
59.738501649711907
 21
115.157973914267
 31
0.0
  0
LINE
  5
11A1F
  8
3
 10
59.768565472116499
 20
115.157973914267
 30
0.0
 11
59.774578236597449
 21
115.157973914267
 31
0.0
  0
LINE
  5
11A20
  8
3
 10
59.221403904354133
 20
115.0136675667251
 30
0.0
 11
59.299569842605933
 21
115.0437313891298
 31
0.0
  0
LINE
  5
11A21
  8
3
 10
59.299569842605933
 20
115.0437313891298
 30
0.0
 11
59.383748545338563
 21
115.0737952115344
 31
0.0
  0
LINE
  5
11A22
  8
3
 10
60.201484514741651
 20
114.1658677749176
 30
0.0
 11
60.105280283047129
 21
114.1658677749176
 31
0.0
  0
LINE
  5
11A23
  8
3
 10
60.297688746436158
 20
114.1658677749176
 30
0.0
 11
60.201484514741651
 21
114.1658677749176
 31
0.0
  0
LINE
  5
11A24
  8
3
 10
60.399905742611509
 20
114.1658677749176
 30
0.0
 11
60.297688746436158
 21
114.1658677749176
 31
0.0
  0
LINE
  5
11A25
  8
3
 10
60.502122738786959
 20
114.1658677749176
 30
0.0
 11
60.399905742611509
 21
114.1658677749176
 31
0.0
  0
LINE
  5
11A26
  8
3
 10
60.706556731137653
 20
114.1598550104367
 30
0.0
 11
60.604339734962302
 21
114.1598550104367
 31
0.0
  0
LINE
  5
11A27
  8
3
 10
60.105280283047129
 20
114.1658677749176
 30
0.0
 11
60.009076051352743
 21
114.1538422459559
 31
0.0
  0
LINE
  5
11A28
  8
3
 10
60.604339734962302
 20
114.1598550104367
 30
0.0
 11
60.502122738786959
 21
114.1658677749176
 31
0.0
  0
LINE
  5
11A29
  8
3
 10
60.009076051352743
 20
114.1538422459559
 30
0.0
 11
59.91888458413905
 21
114.141816716994
 31
0.0
  0
LINE
  5
11A2A
  8
3
 10
59.834705881406421
 20
114.1177656590703
 30
0.0
 11
59.750527178673792
 21
114.0877018366659
 31
0.0
  0
LINE
  5
11A2B
  8
3
 10
59.750527178673792
 20
114.0877018366659
 30
0.0
 11
59.666348475941163
 21
114.0516252497804
 31
0.0
  0
LINE
  5
11A2C
  8
3
 10
59.666348475941163
 20
114.0516252497804
 30
0.0
 11
59.528054892880277
 21
113.9433954891241
 31
0.0
  0
LINE
  5
11A2D
  8
3
 10
59.528054892880277
 20
113.9433954891241
 30
0.0
 11
59.528054892880277
 21
113.9373827246432
 31
0.0
  0
LINE
  5
11A2E
  8
3
 10
59.528054892880277
 20
113.9373827246432
 30
0.0
 11
59.528054892880277
 21
113.9313699601624
 31
0.0
  0
LINE
  5
11A2F
  8
3
 10
59.528054892880277
 20
113.9313699601624
 30
0.0
 11
59.528054892880277
 21
113.9253571956814
 31
0.0
  0
LINE
  5
11A30
  8
3
 10
59.528054892880277
 20
113.9253571956814
 30
0.0
 11
59.528054892880277
 21
113.9193444312005
 31
0.0
  0
LINE
  5
11A31
  8
3
 10
59.528054892880277
 20
113.9193444312005
 30
0.0
 11
59.53406765736122
 21
113.9193444312005
 31
0.0
  0
LINE
  5
11A32
  8
3
 10
59.53406765736122
 20
113.9193444312005
 30
0.0
 11
59.53406765736122
 21
113.9133316667196
 31
0.0
  0
LINE
  5
11A33
  8
3
 10
59.53406765736122
 20
113.9133316667196
 30
0.0
 11
59.540080421842049
 21
113.9133316667196
 31
0.0
  0
LINE
  5
11A34
  8
3
 10
59.540080421842049
 20
113.9133316667196
 30
0.0
 11
59.540080421842049
 21
113.9073189022387
 31
0.0
  0
LINE
  5
11A35
  8
3
 10
59.540080421842049
 20
113.9073189022387
 30
0.0
 11
59.546093186322992
 21
113.9073189022387
 31
0.0
  0
LINE
  5
11A36
  8
3
 10
59.546093186322992
 20
113.9073189022387
 30
0.0
 11
59.558118715284763
 21
113.9073189022387
 31
0.0
  0
LINE
  5
11A37
  8
3
 10
59.91888458413905
 20
114.141816716994
 30
0.0
 11
59.834705881406421
 21
114.1177656590703
 31
0.0
  0
LINE
  5
11A38
  8
3
 10
59.828693116925479
 20
115.1760122077098
 30
0.0
 11
60.983143897259311
 21
115.1760122077098
 31
0.0
  0
LINE
  5
11A39
  8
3
 10
59.558118715284763
 20
113.9073189022387
 30
0.0
 11
60.88092690108396
 21
113.9073189022387
 31
0.0
  0
LINE
  5
11A3A
  8
3
 10
60.802760962832167
 20
114.1598550104367
 30
0.0
 11
60.706556731137653
 21
114.1598550104367
 31
0.0
  0
LINE
  5
11A3B
  8
3
 10
60.898965194526681
 20
113.3180679831101
 30
0.0
 11
60.90497795900751
 21
113.2459148093392
 31
0.0
  0
LINE
  5
11A3C
  8
3
 10
60.90497795900751
 20
113.2459148093392
 30
0.0
 11
60.898965194526681
 21
113.2399020448582
 31
0.0
  0
LINE
  5
11A3D
  8
3
 10
60.898965194526681
 20
113.2399020448582
 30
0.0
 11
60.898965194526681
 21
113.2338892803774
 31
0.0
  0
LINE
  5
11A3E
  8
3
 10
60.898965194526681
 20
113.2338892803774
 30
0.0
 11
60.898965194526681
 21
113.2278765158963
 31
0.0
  0
LINE
  5
11A3F
  8
3
 10
60.898965194526681
 20
113.3541445699954
 30
0.0
 11
60.898965194526681
 21
113.3180679831101
 31
0.0
  0
LINE
  5
11A40
  8
3
 10
61.30182041474734
 20
113.5706040913079
 30
0.0
 11
61.283782121304633
 21
113.6307317361171
 31
0.0
  0
LINE
  5
11A41
  8
3
 10
60.892952430045739
 20
113.6126934426743
 30
0.0
 11
60.892952430045739
 21
113.5706040913079
 31
0.0
  0
LINE
  5
11A42
  8
3
 10
61.325871472670883
 20
113.504463682018
 30
0.0
 11
61.30182041474734
 21
113.5706040913079
 31
0.0
  0
LINE
  5
11A43
  8
3
 10
60.892952430045739
 20
113.5706040913079
 30
0.0
 11
60.892952430045739
 21
113.5345275044227
 31
0.0
  0
LINE
  5
11A44
  8
3
 10
60.892952430045739
 20
113.5345275044227
 30
0.0
 11
60.892952430045739
 21
113.4984509175372
 31
0.0
  0
LINE
  5
11A45
  8
3
 10
60.886939665564903
 20
113.6547827940408
 30
0.0
 11
60.892952430045739
 21
113.6126934426743
 31
0.0
  0
LINE
  5
11A46
  8
3
 10
60.892952430045739
 20
113.4623743306518
 30
0.0
 11
60.892952430045739
 21
113.4262977437662
 31
0.0
  0
LINE
  5
11A47
  8
3
 10
61.34992253059454
 20
113.4503488016899
 30
0.0
 11
61.325871472670883
 21
113.504463682018
 31
0.0
  0
LINE
  5
11A48
  8
3
 10
60.892952430045739
 20
113.4984509175372
 30
0.0
 11
60.892952430045739
 21
113.4623743306518
 31
0.0
  0
LINE
  5
11A49
  8
3
 10
61.410050175403619
 20
113.3361062765527
 30
0.0
 11
61.379986352999019
 21
113.3902211568809
 31
0.0
  0
LINE
  5
11A4A
  8
3
 10
60.892952430045739
 20
113.3902211568809
 30
0.0
 11
60.898965194526681
 21
113.3541445699954
 31
0.0
  0
LINE
  5
11A4B
  8
3
 10
61.379986352999019
 20
113.3902211568809
 30
0.0
 11
61.34992253059454
 21
113.4503488016899
 31
0.0
  0
LINE
  5
11A4C
  8
3
 10
60.892952430045739
 20
113.4262977437662
 30
0.0
 11
60.892952430045739
 21
113.3902211568809
 31
0.0
  0
LINE
  5
11A4D
  8
3
 10
60.898965194526681
 20
113.2218637514155
 30
0.0
 11
60.898965194526681
 21
113.2158509869345
 31
0.0
  0
LINE
  5
11A4E
  8
3
 10
60.898965194526681
 20
113.2158509869345
 30
0.0
 11
60.898965194526681
 21
113.2098382224536
 31
0.0
  0
LINE
  5
11A4F
  8
3
 10
60.898965194526681
 20
113.2098382224536
 30
0.0
 11
60.898965194526681
 21
113.2038254579727
 31
0.0
  0
LINE
  5
11A50
  8
3
 10
60.898965194526681
 20
113.2038254579727
 30
0.0
 11
60.892952430045739
 21
113.2038254579727
 31
0.0
  0
LINE
  5
11A51
  8
3
 10
60.892952430045739
 20
113.2038254579727
 30
0.0
 11
60.892952430045739
 21
113.1978126934919
 31
0.0
  0
LINE
  5
11A52
  8
3
 10
60.892952430045739
 20
113.1978126934919
 30
0.0
 11
60.892952430045739
 21
113.1917999290109
 31
0.0
  0
LINE
  5
11A53
  8
3
 10
60.892952430045739
 20
113.1917999290109
 30
0.0
 11
60.892952430045739
 21
113.18578716453
 31
0.0
  0
LINE
  5
11A54
  8
3
 10
60.892952430045739
 20
113.18578716453
 30
0.0
 11
60.892952430045739
 21
113.1797744000493
 31
0.0
  0
LINE
  5
11A55
  8
3
 10
60.898965194526681
 20
113.2278765158963
 30
0.0
 11
60.898965194526681
 21
113.2218637514155
 31
0.0
  0
LINE
  5
11A56
  8
3
 10
59.648310182498328
 20
112.999391465622
 30
0.0
 11
59.672361240421992
 21
112.9753404076984
 31
0.0
  0
LINE
  5
11A57
  8
3
 10
59.672361240421992
 20
112.9753404076984
 30
0.0
 11
59.702425062826592
 21
112.9573021142558
 31
0.0
  0
LINE
  5
11A58
  8
3
 10
59.702425062826592
 20
112.9573021142558
 30
0.0
 11
59.726476120750142
 21
112.9332510563321
 31
0.0
  0
LINE
  5
11A59
  8
3
 10
59.726476120750142
 20
112.9332510563321
 30
0.0
 11
59.756539943154621
 21
112.9152127628894
 31
0.0
  0
LINE
  5
11A5A
  8
3
 10
59.756539943154621
 20
112.9152127628894
 30
0.0
 11
59.780591001078271
 21
112.9031872339275
 31
0.0
  0
LINE
  5
11A5B
  8
3
 10
59.552105950803821
 20
113.0895829328356
 30
0.0
 11
59.576157008727471
 21
113.065531874912
 31
0.0
  0
LINE
  5
11A5C
  8
3
 10
59.576157008727471
 20
113.065531874912
 30
0.0
 11
59.594195302170192
 21
113.0474935814693
 31
0.0
  0
LINE
  5
11A5D
  8
3
 10
59.594195302170192
 20
113.0474935814693
 30
0.0
 11
59.624259124574792
 21
113.0234425235456
 31
0.0
  0
LINE
  5
11A5E
  8
3
 10
59.624259124574792
 20
113.0234425235456
 30
0.0
 11
59.648310182498328
 21
112.999391465622
 31
0.0
  0
LINE
  5
11A5F
  8
3
 10
59.516029363918499
 20
113.1557233421256
 30
0.0
 11
59.522042128399342
 21
113.131672284202
 31
0.0
  0
LINE
  5
11A60
  8
3
 10
59.522042128399342
 20
113.131672284202
 30
0.0
 11
59.53406765736122
 21
113.1136339907592
 31
0.0
  0
LINE
  5
11A61
  8
3
 10
59.53406765736122
 20
113.1136339907592
 30
0.0
 11
59.552105950803821
 21
113.0895829328356
 31
0.0
  0
LINE
  5
11A62
  8
3
 10
59.516029363918499
 20
113.1737616355683
 30
0.0
 11
59.516029363918499
 21
113.1557233421256
 31
0.0
  0
LINE
  5
11A63
  8
3
 10
59.780591001078271
 20
112.9031872339275
 30
0.0
 11
59.798629294520993
 21
112.8851489404848
 31
0.0
  0
LINE
  5
11A64
  8
3
 10
60.892952430045739
 20
113.1797744000493
 30
0.0
 11
59.516029363918499
 21
113.1737616355683
 31
0.0
  0
LINE
  5
11A65
  8
3
 10
61.283782121304633
 20
113.6307317361171
 30
0.0
 11
61.265743827861911
 21
113.6908593809261
 31
0.0
  0
LINE
  5
11A66
  8
3
 10
60.886939665564903
 20
113.696872145407
 30
0.0
 11
60.886939665564903
 21
113.6547827940408
 31
0.0
  0
LINE
  5
11A67
  8
3
 10
61.566382051907112
 20
114.8152463388554
 30
0.0
 11
61.614484167754313
 21
114.8573356902216
 31
0.0
  0
LINE
  5
11A68
  8
3
 10
61.518279936059912
 20
114.7671442230081
 30
0.0
 11
61.566382051907112
 21
114.8152463388554
 31
0.0
  0
LINE
  5
11A69
  8
3
 10
61.614484167754313
 20
114.8573356902216
 30
0.0
 11
61.662586283601627
 21
114.899425041588
 31
0.0
  0
LINE
  5
11A6A
  8
3
 10
61.662586283601627
 20
114.899425041588
 30
0.0
 11
61.71670116392977
 21
114.9415143929544
 31
0.0
  0
LINE
  5
11A6B
  8
3
 10
61.71670116392977
 20
114.9415143929544
 30
0.0
 11
61.770816044257913
 21
114.9836037443207
 31
0.0
  0
LINE
  5
11A6C
  8
3
 10
61.434101233327283
 20
114.6649272268327
 30
0.0
 11
61.476190584693541
 21
114.71302934268
 31
0.0
  0
LINE
  5
11A6D
  8
3
 10
61.476190584693541
 20
114.71302934268
 30
0.0
 11
61.518279936059912
 21
114.7671442230081
 31
0.0
  0
LINE
  5
11A6E
  8
3
 10
61.48220334917437
 20
113.2399020448582
 30
0.0
 11
61.446126762289062
 21
113.2880041607055
 31
0.0
  0
LINE
  5
11A6F
  8
3
 10
61.608471403273477
 20
112.9813531721794
 30
0.0
 11
61.608471403273477
 21
113.005404230103
 31
0.0
  0
LINE
  5
11A70
  8
3
 10
61.602458638792541
 20
112.9272382918512
 30
0.0
 11
61.608471403273477
 21
112.9452765852939
 31
0.0
  0
LINE
  5
11A71
  8
3
 10
61.596445874311712
 20
112.9031872339275
 30
0.0
 11
61.602458638792541
 21
112.9152127628894
 31
0.0
  0
LINE
  5
11A72
  8
3
 10
61.602458638792541
 20
112.9152127628894
 30
0.0
 11
61.602458638792541
 21
112.9272382918512
 31
0.0
  0
LINE
  5
11A73
  8
3
 10
61.608471403273477
 20
112.9452765852939
 30
0.0
 11
61.608471403273477
 21
112.9633148787366
 31
0.0
  0
LINE
  5
11A74
  8
3
 10
61.608471403273477
 20
112.9633148787366
 30
0.0
 11
61.608471403273477
 21
112.9813531721794
 31
0.0
  0
LINE
  5
11A75
  8
3
 10
61.602458638792541
 20
113.0715446393929
 30
0.0
 11
61.602458638792541
 21
113.0895829328356
 31
0.0
  0
LINE
  5
11A76
  8
3
 10
61.608471403273477
 20
113.0474935814693
 30
0.0
 11
61.602458638792541
 21
113.0715446393929
 31
0.0
  0
LINE
  5
11A77
  8
3
 10
61.608471403273477
 20
113.005404230103
 30
0.0
 11
61.608471403273477
 21
113.0234425235456
 31
0.0
  0
LINE
  5
11A78
  8
3
 10
61.608471403273477
 20
113.0234425235456
 30
0.0
 11
61.608471403273477
 21
113.0474935814693
 31
0.0
  0
LINE
  5
11A79
  8
3
 10
61.602458638792541
 20
113.0895829328356
 30
0.0
 11
61.596445874311712
 21
113.1076212262783
 31
0.0
  0
LINE
  5
11A7A
  8
3
 10
61.596445874311712
 20
113.1076212262783
 30
0.0
 11
61.590433109830769
 21
113.1436978131638
 31
0.0
  0
LINE
  5
11A7B
  8
3
 10
61.590433109830769
 20
112.8911617049657
 30
0.0
 11
61.596445874311712
 21
112.8911617049657
 31
0.0
  0
LINE
  5
11A7C
  8
3
 10
61.596445874311712
 20
112.8911617049657
 30
0.0
 11
61.596445874311712
 21
112.9031872339275
 31
0.0
  0
LINE
  5
11A7D
  8
3
 10
61.590433109830769
 20
113.1436978131638
 30
0.0
 11
61.48220334917437
 21
113.2399020448582
 31
0.0
  0
LINE
  5
11A7E
  8
3
 10
61.398024646441741
 20
114.6108123465046
 30
0.0
 11
61.434101233327283
 21
114.6649272268327
 31
0.0
  0
LINE
  5
11A7F
  8
3
 10
61.446126762289062
 20
113.2880041607055
 30
0.0
 11
61.410050175403619
 21
113.3361062765527
 31
0.0
  0
LINE
  5
11A80
  8
3
 10
58.199233942600237
 20
112.8791361760038
 30
0.0
 11
58.211259471562009
 21
112.8430595891185
 31
0.0
  0
LINE
  5
11A81
  8
3
 10
58.41569346391281
 20
112.8490723535994
 30
0.0
 11
58.38562964150821
 21
112.9212255273702
 31
0.0
  0
LINE
  5
11A82
  8
3
 10
56.996681046419212
 20
112.8911617049657
 30
0.0
 11
56.99066828193827
 21
112.8430595891185
 31
0.0
  0
LINE
  5
11A83
  8
3
 10
57.14098739396092
 20
112.6747021836531
 30
0.0
 11
57.086872513632777
 21
112.9031872339275
 31
0.0
  0
LINE
  5
11A84
  8
3
 10
58.451770050798252
 20
112.7769191798285
 30
0.0
 11
58.41569346391281
 21
112.8490723535994
 31
0.0
  0
LINE
  5
11A85
  8
3
 10
58.211259471562009
 20
112.8430595891185
 30
0.0
 11
58.223285000523902
 21
112.806983002233
 31
0.0
  0
LINE
  5
11A86
  8
3
 10
58.223285000523902
 20
112.806983002233
 30
0.0
 11
58.235310529485673
 21
112.7709064153477
 31
0.0
  0
LINE
  5
11A87
  8
3
 10
58.67424233659176
 20
112.4522298978597
 30
0.0
 11
58.620127456263617
 21
112.5123575426687
 31
0.0
  0
LINE
  5
11A88
  8
3
 10
58.578038104897239
 20
112.57849795195879
 30
0.0
 11
58.529935989050053
 21
112.6386255967677
 31
0.0
  0
LINE
  5
11A89
  8
3
 10
58.620127456263617
 20
112.5123575426687
 30
0.0
 11
58.578038104897239
 21
112.57849795195879
 31
0.0
  0
LINE
  5
11A8A
  8
3
 10
58.529935989050053
 20
112.6386255967677
 30
0.0
 11
58.487846637683667
 21
112.7107787705385
 31
0.0
  0
LINE
  5
11A8B
  8
3
 10
58.728357216919903
 20
112.3921022530506
 30
0.0
 11
58.67424233659176
 21
112.4522298978597
 31
0.0
  0
LINE
  5
11A8C
  8
3
 10
58.788484861728982
 20
112.3379873727224
 30
0.0
 11
58.728357216919903
 21
112.3921022530506
 31
0.0
  0
LINE
  5
11A8D
  8
3
 10
58.349553054622788
 20
112.5063447781877
 30
0.0
 11
58.367591348065623
 21
112.4582426623406
 31
0.0
  0
LINE
  5
11A8E
  8
3
 10
58.367591348065623
 20
112.4582426623406
 30
0.0
 11
58.39164240598916
 21
112.4101405464933
 31
0.0
  0
LINE
  5
11A8F
  8
3
 10
58.39164240598916
 20
112.4101405464933
 30
0.0
 11
58.41569346391281
 21
112.36805119512699
 31
0.0
  0
LINE
  5
11A90
  8
3
 10
58.41569346391281
 20
112.36805119512699
 30
0.0
 11
58.439744521836481
 21
112.3259618437606
 31
0.0
  0
LINE
  5
11A91
  8
3
 10
58.271387116371102
 20
112.6626766546914
 30
0.0
 11
58.289425409813809
 21
112.6266000678058
 31
0.0
  0
LINE
  5
11A92
  8
3
 10
58.289425409813809
 20
112.6266000678058
 30
0.0
 11
58.301450938775581
 21
112.5965362454014
 31
0.0
  0
LINE
  5
11A93
  8
3
 10
58.301450938775581
 20
112.5965362454014
 30
0.0
 11
58.313476467737473
 21
112.560459658516
 31
0.0
  0
LINE
  5
11A94
  8
3
 10
58.313476467737473
 20
112.560459658516
 30
0.0
 11
58.349553054622788
 21
112.5063447781877
 31
0.0
  0
LINE
  5
11A95
  8
3
 10
58.247336058447452
 20
112.734829828462
 30
0.0
 11
58.259361587409217
 21
112.6987532415768
 31
0.0
  0
LINE
  5
11A96
  8
3
 10
58.259361587409217
 20
112.6987532415768
 30
0.0
 11
58.271387116371102
 21
112.6626766546914
 31
0.0
  0
LINE
  5
11A97
  8
3
 10
58.632152985225389
 20
112.07342573556259
 30
0.0
 11
58.662216807629868
 21
112.04336191315799
 31
0.0
  0
LINE
  5
11A98
  8
3
 10
58.463795579760017
 20
112.28988525687519
 30
0.0
 11
58.49385940216461
 21
112.24779590550889
 31
0.0
  0
LINE
  5
11A99
  8
3
 10
58.49385940216461
 20
112.24779590550889
 30
0.0
 11
58.51791046008816
 21
112.21171931862339
 31
0.0
  0
LINE
  5
11A9A
  8
3
 10
58.51791046008816
 20
112.21171931862339
 30
0.0
 11
58.54797428249276
 21
112.17564273173809
 31
0.0
  0
LINE
  5
11A9B
  8
3
 10
58.54797428249276
 20
112.17564273173809
 30
0.0
 11
58.572025340416303
 21
112.14557890933349
 31
0.0
  0
LINE
  5
11A9C
  8
3
 10
58.572025340416303
 20
112.14557890933349
 30
0.0
 11
58.602089162820903
 21
112.10950232244809
 31
0.0
  0
LINE
  5
11A9D
  8
3
 10
58.602089162820903
 20
112.10950232244809
 30
0.0
 11
58.632152985225389
 21
112.07342573556259
 31
0.0
  0
LINE
  5
11A9E
  8
3
 10
59.143237966102333
 20
112.08545126452449
 30
0.0
 11
59.113174143697847
 21
112.10348955796719
 31
0.0
  0
LINE
  5
11A9F
  8
3
 10
59.113174143697847
 20
112.10348955796719
 30
0.0
 11
59.077097556812419
 21
112.12152785140979
 31
0.0
  0
LINE
  5
11AA0
  8
3
 10
59.077097556812419
 20
112.12152785140979
 30
0.0
 11
59.047033734407812
 21
112.14557890933349
 31
0.0
  0
LINE
  5
11AA1
  8
3
 10
59.047033734407812
 20
112.14557890933349
 30
0.0
 11
58.986906089598733
 21
112.18766826069979
 31
0.0
  0
LINE
  5
11AA2
  8
3
 10
58.914752915827989
 20
112.2357703765469
 30
0.0
 11
58.848612506537961
 21
112.28387249239429
 31
0.0
  0
LINE
  5
11AA3
  8
3
 10
58.986906089598733
 20
112.18766826069979
 30
0.0
 11
58.914752915827989
 21
112.2357703765469
 31
0.0
  0
LINE
  5
11AA4
  8
3
 10
58.662216807629868
 20
112.04336191315799
 30
0.0
 11
58.692280630034467
 21
112.00728532627269
 31
0.0
  0
LINE
  5
11AA5
  8
3
 10
58.692280630034467
 20
112.00728532627269
 30
0.0
 11
58.722344452438961
 21
111.97120873938719
 31
0.0
  0
LINE
  5
11AA6
  8
3
 10
58.722344452438961
 20
111.97120873938719
 30
0.0
 11
58.788484861728982
 21
111.90506833009729
 31
0.0
  0
LINE
  5
11AA7
  8
3
 10
58.439744521836481
 20
112.3259618437606
 30
0.0
 11
58.463795579760017
 21
112.28988525687519
 31
0.0
  0
LINE
  5
11AA8
  8
3
 10
58.848612506537961
 20
112.28387249239429
 30
0.0
 11
58.788484861728982
 21
112.3379873727224
 31
0.0
  0
LINE
  5
11AA9
  8
3
 10
58.487846637683667
 20
112.7107787705385
 30
0.0
 11
58.451770050798252
 21
112.7769191798285
 31
0.0
  0
LINE
  5
11AAA
  8
3
 10
58.235310529485673
 20
112.7709064153477
 30
0.0
 11
58.247336058447452
 21
112.734829828462
 31
0.0
  0
LINE
  5
11AAB
  8
3
 10
56.99066828193827
 20
112.8430595891185
 30
0.0
 11
56.978642752976498
 21
112.7949574732713
 31
0.0
  0
LINE
  5
11AAC
  8
3
 10
56.972629988495562
 20
112.7468553574241
 30
0.0
 11
56.966617224014612
 21
112.6927404770959
 31
0.0
  0
LINE
  5
11AAD
  8
3
 10
56.966617224014612
 20
112.6927404770959
 30
0.0
 11
56.954591695052841
 21
112.6386255967677
 31
0.0
  0
LINE
  5
11AAE
  8
3
 10
56.954591695052841
 20
112.6386255967677
 30
0.0
 11
56.948578930572012
 21
112.57849795195879
 31
0.0
  0
LINE
  5
11AAF
  8
3
 10
57.207127803250948
 20
112.44621713337879
 30
0.0
 11
57.14098739396092
 21
112.6747021836531
 31
0.0
  0
LINE
  5
11AB0
  8
3
 10
56.942566166091069
 20
112.5243830716304
 30
0.0
 11
56.936553401610119
 21
112.4642554268215
 31
0.0
  0
LINE
  5
11AB1
  8
3
 10
56.936553401610119
 20
112.4642554268215
 30
0.0
 11
56.930540637129297
 21
112.4101405464933
 31
0.0
  0
LINE
  5
11AB2
  8
3
 10
56.930540637129297
 20
112.4101405464933
 30
0.0
 11
56.918515108167412
 21
112.3500129016842
 31
0.0
  0
LINE
  5
11AB3
  8
3
 10
56.948578930572012
 20
112.57849795195879
 30
0.0
 11
56.942566166091069
 21
112.5243830716304
 31
0.0
  0
LINE
  5
11AB4
  8
3
 10
57.477702204891671
 20
111.90506833009729
 30
0.0
 11
57.471689440410728
 21
111.90506833009729
 31
0.0
  0
LINE
  5
11AB5
  8
3
 10
57.471689440410728
 20
111.90506833009729
 30
0.0
 11
57.465676675929778
 21
111.91108109457819
 31
0.0
  0
LINE
  5
11AB6
  8
3
 10
57.465676675929778
 20
111.91108109457819
 30
0.0
 11
57.465676675929778
 21
111.91709385905899
 31
0.0
  0
LINE
  5
11AB7
  8
3
 10
57.465676675929778
 20
111.91709385905899
 30
0.0
 11
57.465676675929778
 21
111.92310662353989
 31
0.0
  0
LINE
  5
11AB8
  8
3
 10
57.465676675929778
 20
111.92310662353989
 30
0.0
 11
57.459663911448963
 21
111.92911938802089
 31
0.0
  0
LINE
  5
11AB9
  8
3
 10
57.459663911448963
 20
111.92911938802089
 30
0.0
 11
57.459663911448963
 21
111.93513215250189
 31
0.0
  0
LINE
  5
11ABA
  8
3
 10
57.459663911448963
 20
111.93513215250189
 30
0.0
 11
57.453651146968006
 21
111.94114491698269
 31
0.0
  0
LINE
  5
11ABB
  8
3
 10
57.453651146968006
 20
111.94114491698269
 30
0.0
 11
57.453651146968006
 21
111.94715768146359
 31
0.0
  0
LINE
  5
11ABC
  8
3
 10
57.453651146968006
 20
111.94715768146359
 30
0.0
 11
57.453651146968006
 21
111.95918321042549
 31
0.0
  0
LINE
  5
11ABD
  8
3
 10
57.453651146968006
 20
111.95918321042549
 30
0.0
 11
57.447638382487071
 21
111.95918321042549
 31
0.0
  0
LINE
  5
11ABE
  8
3
 10
57.447638382487071
 20
111.95918321042549
 30
0.0
 11
57.441625618006242
 21
111.95918321042549
 31
0.0
  0
LINE
  5
11ABF
  8
3
 10
57.441625618006242
 20
111.95918321042549
 30
0.0
 11
57.435612853525299
 21
111.95918321042549
 31
0.0
  0
LINE
  5
11AC0
  8
3
 10
57.435612853525299
 20
111.95918321042549
 30
0.0
 11
57.435612853525299
 21
111.96519597490629
 31
0.0
  0
LINE
  5
11AC1
  8
3
 10
57.429600089044357
 20
111.96519597490629
 30
0.0
 11
57.42358732456352
 21
111.96519597490629
 31
0.0
  0
LINE
  5
11AC2
  8
3
 10
57.42358732456352
 20
111.96519597490629
 30
0.0
 11
57.417574560082578
 21
111.96519597490629
 31
0.0
  0
LINE
  5
11AC3
  8
3
 10
57.417574560082578
 20
111.96519597490629
 30
0.0
 11
57.411561795601642
 21
111.97120873938719
 31
0.0
  0
LINE
  5
11AC4
  8
3
 10
57.411561795601642
 20
111.97120873938719
 30
0.0
 11
57.297319270464527
 21
112.21171931862339
 31
0.0
  0
LINE
  5
11AC5
  8
3
 10
57.435612853525299
 20
111.96519597490629
 30
0.0
 11
57.429600089044357
 21
111.96519597490629
 31
0.0
  0
LINE
  5
11AC6
  8
3
 10
56.912502343686583
 20
112.29589802135609
 30
0.0
 11
56.900476814724698
 21
112.24178314102789
 31
0.0
  0
LINE
  5
11AC7
  8
3
 10
56.900476814724698
 20
112.24178314102789
 30
0.0
 11
56.876425756801041
 21
112.13956614485259
 31
0.0
  0
LINE
  5
11AC8
  8
3
 10
56.876425756801041
 20
112.13956614485259
 30
0.0
 11
56.858387463358319
 21
112.11551508692899
 31
0.0
  0
LINE
  5
11AC9
  8
3
 10
56.846361934396548
 20
112.09146402900539
 30
0.0
 11
56.834336405434783
 21
112.07342573556259
 31
0.0
  0
LINE
  5
11ACA
  8
3
 10
56.834336405434783
 20
112.07342573556259
 30
0.0
 11
56.816298111992069
 21
112.05538744211989
 31
0.0
  0
LINE
  5
11ACB
  8
3
 10
56.816298111992069
 20
112.05538744211989
 30
0.0
 11
56.798259818549361
 21
112.03734914867709
 31
0.0
  0
LINE
  5
11ACC
  8
3
 10
56.798259818549361
 20
112.03734914867709
 30
0.0
 11
56.78022152510664
 21
112.01931085523449
 31
0.0
  0
LINE
  5
11ACD
  8
3
 10
56.78022152510664
 20
112.01931085523449
 30
0.0
 11
56.762183231663919
 21
112.00127256179169
 31
0.0
  0
LINE
  5
11ACE
  8
3
 10
56.762183231663919
 20
112.00127256179169
 30
0.0
 11
56.738132173740269
 21
111.98924703282989
 31
0.0
  0
LINE
  5
11ACF
  8
3
 10
56.738132173740269
 20
111.98924703282989
 30
0.0
 11
56.720093880297547
 21
111.97722150386809
 31
0.0
  0
LINE
  5
11AD0
  8
3
 10
56.720093880297547
 20
111.97722150386809
 30
0.0
 11
56.696042822374011
 21
111.96519597490629
 31
0.0
  0
LINE
  5
11AD1
  8
3
 10
56.858387463358319
 20
112.11551508692899
 30
0.0
 11
56.846361934396548
 21
112.09146402900539
 31
0.0
  0
LINE
  5
11AD2
  8
3
 10
56.599838590679489
 20
111.92310662353989
 30
0.0
 11
56.557749239313118
 21
111.91709385905899
 31
0.0
  0
LINE
  5
11AD3
  8
3
 10
56.449519478656839
 20
111.91108109457819
 30
0.0
 11
56.34128971800056
 21
111.90506833009729
 31
0.0
  0
LINE
  5
11AD4
  8
3
 10
56.34128971800056
 20
111.90506833009729
 30
0.0
 11
56.23305995734426
 21
111.90506833009729
 31
0.0
  0
LINE
  5
11AD5
  8
3
 10
56.557749239313118
 20
111.91709385905899
 30
0.0
 11
56.449519478656839
 21
111.91108109457819
 31
0.0
  0
LINE
  5
11AD6
  8
3
 10
56.671991764450347
 20
111.95317044594449
 30
0.0
 11
56.647940706526697
 21
111.94114491698269
 31
0.0
  0
LINE
  5
11AD7
  8
3
 10
56.62388964860304
 20
111.93513215250189
 30
0.0
 11
56.599838590679489
 21
111.92310662353989
 31
0.0
  0
LINE
  5
11AD8
  8
3
 10
56.647940706526697
 20
111.94114491698269
 30
0.0
 11
56.62388964860304
 21
111.93513215250189
 31
0.0
  0
LINE
  5
11AD9
  8
3
 10
56.696042822374011
 20
111.96519597490629
 30
0.0
 11
56.671991764450347
 21
111.95317044594449
 31
0.0
  0
LINE
  5
11ADA
  8
3
 10
57.297319270464527
 20
112.21171931862339
 30
0.0
 11
57.207127803250948
 21
112.44621713337879
 31
0.0
  0
LINE
  5
11ADB
  8
3
 10
56.918515108167412
 20
112.3500129016842
 30
0.0
 11
56.912502343686583
 21
112.29589802135609
 31
0.0
  0
LINE
  5
11ADC
  8
3
 10
56.124830196687981
 20
111.89905556561639
 30
0.0
 11
56.022613200512517
 21
111.89905556561639
 31
0.0
  0
LINE
  5
11ADD
  8
3
 10
56.022613200512517
 20
111.89905556561639
 30
0.0
 11
55.914383439856238
 21
111.90506833009729
 31
0.0
  0
LINE
  5
11ADE
  8
3
 10
55.806153679199952
 20
111.91108109457819
 30
0.0
 11
55.697923918543673
 21
111.91709385905899
 31
0.0
  0
LINE
  5
11ADF
  8
3
 10
55.595706922368322
 20
111.92911938802089
 30
0.0
 11
55.493489926192979
 21
111.94715768146359
 31
0.0
  0
LINE
  5
11AE0
  8
3
 10
55.697923918543673
 20
111.91709385905899
 30
0.0
 11
55.595706922368322
 21
111.92911938802089
 31
0.0
  0
LINE
  5
11AE1
  8
3
 10
55.914383439856238
 20
111.90506833009729
 30
0.0
 11
55.806153679199952
 21
111.91108109457819
 31
0.0
  0
LINE
  5
11AE2
  8
3
 10
55.391272930017522
 20
111.97120873938719
 30
0.0
 11
55.289055933842057
 21
111.99525979731069
 31
0.0
  0
LINE
  5
11AE3
  8
3
 10
55.289055933842057
 20
111.99525979731069
 30
0.0
 11
55.192851702147657
 21
112.03133638419629
 31
0.0
  0
LINE
  5
11AE4
  8
3
 10
55.493489926192979
 20
111.94715768146359
 30
0.0
 11
55.391272930017522
 21
111.97120873938719
 31
0.0
  0
LINE
  5
11AE5
  8
3
 10
56.23305995734426
 20
111.90506833009729
 30
0.0
 11
56.124830196687981
 21
111.89905556561639
 31
0.0
  0
LINE
  5
11AE6
  8
3
 10
56.978642752976498
 20
112.7949574732713
 30
0.0
 11
56.972629988495562
 21
112.7468553574241
 31
0.0
  0
LINE
  5
11AE7
  8
3
 10
58.788484861728982
 20
111.90506833009729
 30
0.0
 11
57.477702204891671
 21
111.90506833009729
 31
0.0
  0
LINE
  5
11AE8
  8
3
 10
58.097016946424787
 20
116.240845988774
 30
0.0
 11
58.097016946424787
 21
116.0364119964232
 31
0.0
  0
LINE
  5
11AE9
  8
3
 10
58.103029710905837
 20
115.78330142028111
 30
0.0
 11
58.103029710905837
 21
115.55481637000671
 31
0.0
  0
LINE
  5
11AEA
  8
3
 10
58.097016946424787
 20
116.0364119964232
 30
0.0
 11
58.103029710905837
 21
115.78330142028111
 31
0.0
  0
LINE
  5
11AEB
  8
3
 10
58.097016946424787
 20
116.240845988774
 30
0.0
 11
57.022322326764538
 21
116.240845988774
 31
0.0
  0
LINE
  5
11AEC
  8
3
 10
55.697923918543673
 20
115.2481653814805
 30
0.0
 11
55.758051563352751
 21
115.2541781459614
 31
0.0
  0
LINE
  5
11AED
  8
3
 10
55.493489926192979
 20
115.2241143235569
 30
0.0
 11
55.523553748597472
 21
115.2241143235569
 31
0.0
  0
LINE
  5
11AEE
  8
3
 10
55.523553748597472
 20
115.2241143235569
 30
0.0
 11
55.553617571001951
 21
115.2301270880379
 31
0.0
  0
LINE
  5
11AEF
  8
3
 10
55.553617571001951
 20
115.2301270880379
 30
0.0
 11
55.58368139340643
 21
115.2361398525188
 31
0.0
  0
LINE
  5
11AF0
  8
3
 10
55.58368139340643
 20
115.2361398525188
 30
0.0
 11
55.613745215811043
 21
115.2361398525188
 31
0.0
  0
LINE
  5
11AF1
  8
3
 10
55.613745215811043
 20
115.2361398525188
 30
0.0
 11
55.63779627373458
 21
115.2421526169997
 31
0.0
  0
LINE
  5
11AF2
  8
3
 10
55.63779627373458
 20
115.2421526169997
 30
0.0
 11
55.667860096139179
 21
115.2481653814805
 31
0.0
  0
LINE
  5
11AF3
  8
3
 10
55.667860096139179
 20
115.2481653814805
 30
0.0
 11
55.697923918543673
 21
115.2481653814805
 31
0.0
  0
LINE
  5
11AF4
  8
3
 10
55.758051563352751
 20
115.2541781459614
 30
0.0
 11
55.758051563352751
 21
115.2541781459614
 31
0.0
  0
LINE
  5
11AF5
  8
3
 10
55.463426103788379
 20
115.2181015590761
 30
0.0
 11
55.493489926192979
 21
115.2241143235569
 31
0.0
  0
LINE
  5
11AF6
  8
3
 10
55.367221872093978
 20
115.2000632656333
 30
0.0
 11
55.397285694498457
 21
115.2060760301142
 31
0.0
  0
LINE
  5
11AF7
  8
3
 10
55.397285694498457
 20
115.2060760301142
 30
0.0
 11
55.42734951690295
 21
115.2120887945952
 31
0.0
  0
LINE
  5
11AF8
  8
3
 10
55.42734951690295
 20
115.2120887945952
 30
0.0
 11
55.463426103788379
 21
115.2181015590761
 31
0.0
  0
LINE
  5
11AF9
  8
3
 10
55.758051563352751
 20
115.2541781459614
 30
0.0
 11
56.870412992320212
 21
115.2601909104424
 31
0.0
  0
LINE
  5
11AFA
  8
3
 10
58.103029710905837
 20
115.55481637000671
 30
0.0
 11
58.103029710905837
 21
115.3082930262896
 31
0.0
  0
LINE
  5
11AFB
  8
3
 10
58.998931618560619
 20
114.8934122771071
 30
0.0
 11
59.071084792331483
 21
114.9355016284734
 31
0.0
  0
LINE
  5
11AFC
  8
3
 10
59.071084792331483
 20
114.9355016284734
 30
0.0
 11
59.143237966102333
 21
114.9775909798399
 31
0.0
  0
LINE
  5
11AFD
  8
3
 10
58.66822957211081
 20
114.6168251109855
 30
0.0
 11
58.728357216919903
 21
114.6769527557946
 31
0.0
  0
LINE
  5
11AFE
  8
3
 10
58.728357216919903
 20
114.6769527557946
 30
0.0
 11
58.794497626209932
 21
114.7370804006037
 31
0.0
  0
LINE
  5
11AFF
  8
3
 10
58.794497626209932
 20
114.7370804006037
 30
0.0
 11
58.860638035499839
 21
114.7911952809317
 31
0.0
  0
LINE
  5
11B00
  8
3
 10
58.860638035499839
 20
114.7911952809317
 30
0.0
 11
58.926778444789761
 21
114.8453101612598
 31
0.0
  0
LINE
  5
11B01
  8
3
 10
58.926778444789761
 20
114.8453101612598
 30
0.0
 11
58.998931618560619
 21
114.8934122771071
 31
0.0
  0
LINE
  5
11B02
  8
3
 10
58.109042475386673
 20
115.0617696825725
 30
0.0
 11
58.109042475386673
 21
114.8092335743746
 31
0.0
  0
LINE
  5
11B03
  8
3
 10
58.523923224569103
 20
114.4304294120774
 30
0.0
 11
58.553987046973589
 21
114.4785315279247
 31
0.0
  0
LINE
  5
11B04
  8
3
 10
58.553987046973589
 20
114.4785315279247
 30
0.0
 11
58.608101927301732
 21
114.5506847016956
 31
0.0
  0
LINE
  5
11B05
  8
3
 10
58.499872166645439
 20
114.3823272962302
 30
0.0
 11
58.511897695607217
 21
114.4063783541539
 31
0.0
  0
LINE
  5
11B06
  8
3
 10
58.511897695607217
 20
114.4063783541539
 30
0.0
 11
58.523923224569103
 21
114.4304294120774
 31
0.0
  0
LINE
  5
11B07
  8
3
 10
58.463795579760017
 20
114.3101741224593
 30
0.0
 11
58.475821108721789
 21
114.3342251803831
 31
0.0
  0
LINE
  5
11B08
  8
3
 10
58.475821108721789
 20
114.3342251803831
 30
0.0
 11
58.487846637683667
 21
114.3582762383066
 31
0.0
  0
LINE
  5
11B09
  8
3
 10
58.487846637683667
 20
114.3582762383066
 30
0.0
 11
58.499872166645439
 21
114.3823272962302
 31
0.0
  0
LINE
  5
11B0A
  8
3
 10
58.403667934951038
 20
114.1899188328413
 30
0.0
 11
58.41569346391281
 21
114.2139698907649
 31
0.0
  0
LINE
  5
11B0B
  8
3
 10
58.39164240598916
 20
114.1658677749176
 30
0.0
 11
58.403667934951038
 21
114.1899188328413
 31
0.0
  0
LINE
  5
11B0C
  8
3
 10
58.115055239867502
 20
114.5627102306572
 30
0.0
 11
58.115055239867502
 21
114.3161868869402
 31
0.0
  0
LINE
  5
11B0D
  8
3
 10
58.41569346391281
 20
114.2139698907649
 30
0.0
 11
58.427718992874702
 21
114.2380209486885
 31
0.0
  0
LINE
  5
11B0E
  8
3
 10
58.427718992874702
 20
114.2380209486885
 30
0.0
 11
58.439744521836481
 21
114.262072006612
 31
0.0
  0
LINE
  5
11B0F
  8
3
 10
58.439744521836481
 20
114.262072006612
 30
0.0
 11
58.451770050798252
 21
114.2861230645357
 31
0.0
  0
LINE
  5
11B10
  8
3
 10
58.379616877027388
 20
114.141816716994
 30
0.0
 11
58.39164240598916
 21
114.1658677749176
 31
0.0
  0
LINE
  5
11B11
  8
3
 10
58.451770050798252
 20
114.2861230645357
 30
0.0
 11
58.463795579760017
 21
114.3101741224593
 31
0.0
  0
LINE
  5
11B12
  8
3
 10
58.277399880852037
 20
113.7269359678115
 30
0.0
 11
58.283412645332866
 21
113.7810508481397
 31
0.0
  0
LINE
  5
11B13
  8
3
 10
58.283412645332866
 20
113.7810508481397
 30
0.0
 11
58.295438174294759
 21
113.8351657284678
 31
0.0
  0
LINE
  5
11B14
  8
3
 10
58.295438174294759
 20
113.8351657284678
 30
0.0
 11
58.301450938775581
 21
113.8892806087961
 31
0.0
  0
LINE
  5
11B15
  8
3
 10
58.301450938775581
 20
113.8892806087961
 30
0.0
 11
58.313476467737473
 21
113.9433954891241
 31
0.0
  0
LINE
  5
11B16
  8
3
 10
58.313476467737473
 20
113.9433954891241
 30
0.0
 11
58.325501996699238
 21
113.9914976049714
 31
0.0
  0
LINE
  5
11B17
  8
3
 10
58.121068004348437
 20
114.0877018366659
 30
0.0
 11
58.121068004348437
 21
113.8652295508724
 31
0.0
  0
LINE
  5
11B18
  8
3
 10
58.325501996699238
 20
113.9914976049714
 30
0.0
 11
58.355565819103731
 21
114.0997273656277
 31
0.0
  0
LINE
  5
11B19
  8
3
 10
58.355565819103731
 20
114.0997273656277
 30
0.0
 11
58.367591348065623
 21
114.1177656590703
 31
0.0
  0
LINE
  5
11B1A
  8
3
 10
58.367591348065623
 20
114.1177656590703
 30
0.0
 11
58.379616877027388
 21
114.141816716994
 31
0.0
  0
LINE
  5
11B1B
  8
3
 10
58.115055239867502
 20
114.3161868869402
 30
0.0
 11
58.121068004348437
 21
114.0877018366659
 31
0.0
  0
LINE
  5
11B1C
  8
3
 10
58.608101927301732
 20
114.5506847016956
 30
0.0
 11
58.66822957211081
 21
114.6168251109855
 31
0.0
  0
LINE
  5
11B1D
  8
3
 10
58.109042475386673
 20
114.8092335743746
 30
0.0
 11
58.115055239867502
 21
114.5627102306572
 31
0.0
  0
LINE
  5
11B1E
  8
3
 10
58.289425409813809
 20
113.2399020448582
 30
0.0
 11
58.277399880852037
 21
113.2940169251864
 31
0.0
  0
LINE
  5
11B1F
  8
3
 10
58.277399880852037
 20
113.2940169251864
 30
0.0
 11
58.277399880852037
 21
113.3481318055146
 31
0.0
  0
LINE
  5
11B20
  8
3
 10
58.271387116371102
 20
113.5706040913079
 30
0.0
 11
58.271387116371102
 21
113.6247189716362
 31
0.0
  0
LINE
  5
11B21
  8
3
 10
58.121068004348437
 20
113.6668083230026
 30
0.0
 11
58.12708076882938
 21
113.4864253885754
 31
0.0
  0
LINE
  5
11B22
  8
3
 10
58.271387116371102
 20
113.5164892109798
 30
0.0
 11
58.271387116371102
 21
113.5706040913079
 31
0.0
  0
LINE
  5
11B23
  8
3
 10
58.271387116371102
 20
113.6247189716362
 30
0.0
 11
58.277399880852037
 21
113.6788338519644
 31
0.0
  0
LINE
  5
11B24
  8
3
 10
58.271387116371102
 20
113.4563615661708
 30
0.0
 11
58.271387116371102
 21
113.5164892109798
 31
0.0
  0
LINE
  5
11B25
  8
3
 10
58.277399880852037
 20
113.3481318055146
 30
0.0
 11
58.271387116371102
 21
113.4022466858427
 31
0.0
  0
LINE
  5
11B26
  8
3
 10
58.271387116371102
 20
113.4022466858427
 30
0.0
 11
58.271387116371102
 21
113.4563615661708
 31
0.0
  0
LINE
  5
11B27
  8
3
 10
58.12708076882938
 20
113.4864253885754
 30
0.0
 11
58.133093533310209
 21
113.3361062765527
 31
0.0
  0
LINE
  5
11B28
  8
3
 10
58.163157355714823
 20
112.999391465622
 30
0.0
 11
58.175182884676587
 21
112.9573021142558
 31
0.0
  0
LINE
  5
11B29
  8
3
 10
58.175182884676587
 20
112.9573021142558
 30
0.0
 11
58.187208413638473
 21
112.9212255273702
 31
0.0
  0
LINE
  5
11B2A
  8
3
 10
58.145119062272101
 20
113.0775574038738
 30
0.0
 11
58.151131826753037
 21
113.0354680525073
 31
0.0
  0
LINE
  5
11B2B
  8
3
 10
58.151131826753037
 20
113.0354680525073
 30
0.0
 11
58.163157355714823
 21
112.999391465622
 31
0.0
  0
LINE
  5
11B2C
  8
3
 10
58.133093533310209
 20
113.2158509869345
 30
0.0
 11
58.145119062272101
 21
113.0775574038738
 31
0.0
  0
LINE
  5
11B2D
  8
3
 10
58.38562964150821
 20
112.9212255273702
 30
0.0
 11
58.355565819103731
 21
112.999391465622
 31
0.0
  0
LINE
  5
11B2E
  8
3
 10
58.355565819103731
 20
112.999391465622
 30
0.0
 11
58.331514761180181
 21
113.0775574038738
 31
0.0
  0
LINE
  5
11B2F
  8
3
 10
58.187208413638473
 20
112.9212255273702
 30
0.0
 11
58.199233942600237
 21
112.8791361760038
 31
0.0
  0
LINE
  5
11B30
  8
3
 10
58.133093533310209
 20
113.3361062765527
 30
0.0
 11
58.133093533310209
 21
113.2158509869345
 31
0.0
  0
LINE
  5
11B31
  8
3
 10
58.331514761180181
 20
113.0775574038738
 30
0.0
 11
58.289425409813809
 21
113.2399020448582
 31
0.0
  0
LINE
  5
11B32
  8
3
 10
58.121068004348437
 20
113.8652295508724
 30
0.0
 11
58.121068004348437
 21
113.6668083230026
 31
0.0
  0
LINE
  5
11B33
  8
3
 10
58.277399880852037
 20
113.6788338519644
 30
0.0
 11
58.277399880852037
 21
113.7269359678115
 31
0.0
  0
LINE
  5
11B34
  8
3
 10
57.032757633304641
 20
114.6047995820237
 30
0.0
 11
57.038770397785576
 21
114.8934122771071
 31
0.0
  0
LINE
  5
11B35
  8
3
 10
57.038770397785576
 20
114.8934122771071
 30
0.0
 11
57.041776780025998
 21
115.0437313891298
 31
0.0
  0
LINE
  5
11B36
  8
3
 10
55.168800644224007
 20
115.1158845629006
 30
0.0
 11
55.186838937666721
 21
115.1279100918624
 31
0.0
  0
LINE
  5
11B37
  8
3
 10
55.186838937666721
 20
115.1279100918624
 30
0.0
 11
55.204877231109428
 21
115.1339228563434
 31
0.0
  0
LINE
  5
11B38
  8
3
 10
55.204877231109428
 20
115.1339228563434
 30
0.0
 11
55.222915524552143
 21
115.1459483853051
 31
0.0
  0
LINE
  5
11B39
  8
3
 10
55.222915524552143
 20
115.1459483853051
 30
0.0
 11
55.240953817994871
 21
115.157973914267
 31
0.0
  0
LINE
  5
11B3A
  8
3
 10
55.240953817994871
 20
115.157973914267
 30
0.0
 11
55.277030404880293
 21
115.1820249721906
 31
0.0
  0
LINE
  5
11B3B
  8
3
 10
55.277030404880293
 20
115.1820249721906
 30
0.0
 11
55.307094227284892
 21
115.1880377366716
 31
0.0
  0
LINE
  5
11B3C
  8
3
 10
55.307094227284892
 20
115.1880377366716
 30
0.0
 11
55.337158049689378
 21
115.1940505011525
 31
0.0
  0
LINE
  5
11B3D
  8
3
 10
56.485596065542261
 20
114.1899188328413
 30
0.0
 11
56.389391833847753
 21
114.1959315973221
 31
0.0
  0
LINE
  5
11B3E
  8
3
 10
56.768195996144748
 20
114.2019443618031
 30
0.0
 11
56.678004528931183
 21
114.1899188328413
 31
0.0
  0
LINE
  5
11B3F
  8
3
 10
56.581800297236782
 20
114.1899188328413
 30
0.0
 11
56.485596065542261
 21
114.1899188328413
 31
0.0
  0
LINE
  5
11B40
  8
3
 10
56.678004528931183
 20
114.1899188328413
 30
0.0
 11
56.581800297236782
 21
114.1899188328413
 31
0.0
  0
LINE
  5
11B41
  8
3
 10
56.858387463358319
 20
114.2199826552458
 30
0.0
 11
56.768195996144748
 21
114.2019443618031
 31
0.0
  0
LINE
  5
11B42
  8
3
 10
56.293187602153239
 20
114.1959315973221
 30
0.0
 11
56.196983370458838
 21
114.2019443618031
 31
0.0
  0
LINE
  5
11B43
  8
3
 10
56.389391833847753
 20
114.1959315973221
 30
0.0
 11
56.293187602153239
 21
114.1959315973221
 31
0.0
  0
LINE
  5
11B44
  8
3
 10
57.008706575380977
 20
113.829152963987
 30
0.0
 11
57.014719339861927
 21
114.0816890721849
 31
0.0
  0
LINE
  5
11B45
  8
3
 10
56.738132173740269
 20
113.9794720760095
 30
0.0
 11
56.744144938221211
 21
113.9373827246432
 31
0.0
  0
LINE
  5
11B46
  8
3
 10
56.744144938221211
 20
113.9373827246432
 30
0.0
 11
56.756170467182983
 21
113.8952933732768
 31
0.0
  0
LINE
  5
11B47
  8
3
 10
56.756170467182983
 20
113.8952933732768
 30
0.0
 11
56.762183231663919
 21
113.8532040219107
 31
0.0
  0
LINE
  5
11B48
  8
3
 10
56.762183231663919
 20
113.8532040219107
 30
0.0
 11
56.762183231663919
 21
113.8111146705443
 31
0.0
  0
LINE
  5
11B49
  8
3
 10
56.762183231663919
 20
113.8111146705443
 30
0.0
 11
56.768195996144748
 21
113.763012554697
 31
0.0
  0
LINE
  5
11B4A
  8
3
 10
56.768195996144748
 20
113.763012554697
 30
0.0
 11
56.768195996144748
 21
113.7209232033307
 31
0.0
  0
LINE
  5
11B4B
  8
3
 10
57.014719339861927
 20
114.0816890721849
 30
0.0
 11
57.020732104342748
 21
114.3342251803831
 31
0.0
  0
LINE
  5
11B4C
  8
3
 10
55.812166443680887
 20
114.1959315973221
 30
0.0
 11
55.721974976467322
 21
114.1839060683603
 31
0.0
  0
LINE
  5
11B4D
  8
3
 10
56.094766374283381
 20
114.207957126284
 30
0.0
 11
55.99856214258898
 21
114.207957126284
 31
0.0
  0
LINE
  5
11B4E
  8
3
 10
55.99856214258898
 20
114.207957126284
 30
0.0
 11
55.908370675375409
 21
114.207957126284
 31
0.0
  0
LINE
  5
11B4F
  8
3
 10
55.908370675375409
 20
114.207957126284
 30
0.0
 11
55.812166443680887
 21
114.1959315973221
 31
0.0
  0
LINE
  5
11B50
  8
3
 10
55.721974976467322
 20
114.1839060683603
 30
0.0
 11
55.63779627373458
 21
114.1598550104367
 31
0.0
  0
LINE
  5
11B51
  8
3
 10
55.409311223460229
 20
114.0215614273759
 30
0.0
 11
55.409311223460229
 21
114.015548662895
 31
0.0
  0
LINE
  5
11B52
  8
3
 10
55.409311223460229
 20
114.015548662895
 30
0.0
 11
55.409311223460229
 21
114.0095358984141
 31
0.0
  0
LINE
  5
11B53
  8
3
 10
55.409311223460229
 20
114.0095358984141
 30
0.0
 11
55.409311223460229
 21
114.0035231339332
 31
0.0
  0
LINE
  5
11B54
  8
3
 10
55.409311223460229
 20
114.0035231339332
 30
0.0
 11
55.409311223460229
 21
113.9975103694522
 31
0.0
  0
LINE
  5
11B55
  8
3
 10
55.409311223460229
 20
113.9975103694522
 30
0.0
 11
55.409311223460229
 21
113.9914976049714
 31
0.0
  0
LINE
  5
11B56
  8
3
 10
55.409311223460229
 20
113.9914976049714
 30
0.0
 11
55.415323987941072
 21
113.9914976049714
 31
0.0
  0
LINE
  5
11B57
  8
3
 10
55.415323987941072
 20
113.9914976049714
 30
0.0
 11
55.415323987941072
 21
113.9854848404905
 31
0.0
  0
LINE
  5
11B58
  8
3
 10
55.415323987941072
 20
113.9854848404905
 30
0.0
 11
55.421336752422008
 21
113.9854848404905
 31
0.0
  0
LINE
  5
11B59
  8
3
 10
55.553617571001951
 20
114.1237784235514
 30
0.0
 11
55.409311223460229
 21
114.0215614273759
 31
0.0
  0
LINE
  5
11B5A
  8
3
 10
55.63779627373458
 20
114.1598550104367
 30
0.0
 11
55.553617571001951
 21
114.1237784235514
 31
0.0
  0
LINE
  5
11B5B
  8
3
 10
56.196983370458838
 20
114.2019443618031
 30
0.0
 11
56.094766374283381
 21
114.207957126284
 31
0.0
  0
LINE
  5
11B5C
  8
3
 10
55.421336752422008
 20
113.9854848404905
 30
0.0
 11
56.738132173740269
 21
113.9794720760095
 31
0.0
  0
LINE
  5
11B5D
  8
3
 10
57.020732104342748
 20
114.3342251803831
 30
0.0
 11
57.032757633304641
 21
114.6047995820237
 31
0.0
  0
LINE
  5
11B5E
  8
3
 10
57.026744868823691
 20
113.3601573344763
 30
0.0
 11
57.014719339861927
 21
113.5946551492316
 31
0.0
  0
LINE
  5
11B5F
  8
3
 10
56.696042822374011
 20
113.2699658672627
 30
0.0
 11
56.611864119641268
 21
113.2639531027819
 31
0.0
  0
LINE
  5
11B60
  8
3
 10
56.611864119641268
 20
113.2639531027819
 30
0.0
 11
56.527685416908639
 21
113.2639531027819
 31
0.0
  0
LINE
  5
11B61
  8
3
 10
56.437493949694947
 20
113.2639531027819
 30
0.0
 11
56.353315246962318
 21
113.2639531027819
 31
0.0
  0
LINE
  5
11B62
  8
3
 10
56.353315246962318
 20
113.2639531027819
 30
0.0
 11
56.263123779748753
 21
113.2639531027819
 31
0.0
  0
LINE
  5
11B63
  8
3
 10
56.527685416908639
 20
113.2639531027819
 30
0.0
 11
56.437493949694947
 21
113.2639531027819
 31
0.0
  0
LINE
  5
11B64
  8
3
 10
56.768195996144748
 20
113.3601573344763
 30
0.0
 11
56.78022152510664
 21
113.2759786317437
 31
0.0
  0
LINE
  5
11B65
  8
3
 10
56.78022152510664
 20
113.2759786317437
 30
0.0
 11
56.696042822374011
 21
113.2699658672627
 31
0.0
  0
LINE
  5
11B66
  8
3
 10
56.768195996144748
 20
113.5826296202699
 30
0.0
 11
56.768195996144748
 21
113.5405402689035
 31
0.0
  0
LINE
  5
11B67
  8
3
 10
56.768195996144748
 20
113.5405402689035
 30
0.0
 11
56.768195996144748
 21
113.4924381530562
 31
0.0
  0
LINE
  5
11B68
  8
3
 10
56.768195996144748
 20
113.6728210874833
 30
0.0
 11
56.768195996144748
 21
113.6307317361171
 31
0.0
  0
LINE
  5
11B69
  8
3
 10
56.768195996144748
 20
113.6307317361171
 30
0.0
 11
56.768195996144748
 21
113.5826296202699
 31
0.0
  0
LINE
  5
11B6A
  8
3
 10
56.768195996144748
 20
113.4924381530562
 30
0.0
 11
56.768195996144748
 21
113.4443360372089
 31
0.0
  0
LINE
  5
11B6B
  8
3
 10
56.768195996144748
 20
113.4022466858427
 30
0.0
 11
56.768195996144748
 21
113.3601573344763
 31
0.0
  0
LINE
  5
11B6C
  8
3
 10
56.768195996144748
 20
113.4443360372089
 30
0.0
 11
56.768195996144748
 21
113.4022466858427
 31
0.0
  0
LINE
  5
11B6D
  8
3
 10
57.086872513632777
 20
112.9031872339275
 30
0.0
 11
57.050795926747348
 21
113.131672284202
 31
0.0
  0
LINE
  5
11B6E
  8
3
 10
57.026744868823691
 20
112.9813531721794
 30
0.0
 11
57.008706575380977
 21
112.9392638208129
 31
0.0
  0
LINE
  5
11B6F
  8
3
 10
57.008706575380977
 20
112.9392638208129
 30
0.0
 11
56.996681046419212
 21
112.8911617049657
 31
0.0
  0
LINE
  5
11B70
  8
3
 10
56.726106644778497
 20
112.9633148787366
 30
0.0
 11
56.822310876473011
 21
112.9693276432174
 31
0.0
  0
LINE
  5
11B71
  8
3
 10
56.822310876473011
 20
112.9693276432174
 30
0.0
 11
56.90648957920564
 21
112.9753404076984
 31
0.0
  0
LINE
  5
11B72
  8
3
 10
56.509647123465918
 20
112.9512893497747
 30
0.0
 11
56.62388964860304
 21
112.9573021142558
 31
0.0
  0
LINE
  5
11B73
  8
3
 10
56.389391833847753
 20
112.9452765852939
 30
0.0
 11
56.509647123465918
 21
112.9512893497747
 31
0.0
  0
LINE
  5
11B74
  8
3
 10
56.269136544229703
 20
112.9452765852939
 30
0.0
 11
56.389391833847753
 21
112.9452765852939
 31
0.0
  0
LINE
  5
11B75
  8
3
 10
56.62388964860304
 20
112.9573021142558
 30
0.0
 11
56.726106644778497
 21
112.9633148787366
 31
0.0
  0
LINE
  5
11B76
  8
3
 10
56.90648957920564
 20
112.9753404076984
 30
0.0
 11
57.026744868823691
 21
112.9813531721794
 31
0.0
  0
LINE
  5
11B77
  8
3
 10
57.050795926747348
 20
113.131672284202
 30
0.0
 11
57.026744868823691
 21
113.3601573344763
 31
0.0
  0
LINE
  5
11B78
  8
3
 10
55.992549378108038
 20
113.2639531027819
 30
0.0
 11
55.902357910894473
 21
113.2699658672627
 31
0.0
  0
LINE
  5
11B79
  8
3
 10
56.172932312535181
 20
113.2639531027819
 30
0.0
 11
56.082740845321609
 21
113.2639531027819
 31
0.0
  0
LINE
  5
11B7A
  8
3
 10
56.082740845321609
 20
113.2639531027819
 30
0.0
 11
55.992549378108038
 21
113.2639531027819
 31
0.0
  0
LINE
  5
11B7B
  8
3
 10
55.721974976467322
 20
113.2699658672627
 30
0.0
 11
55.63779627373458
 21
113.2699658672627
 31
0.0
  0
LINE
  5
11B7C
  8
3
 10
55.63779627373458
 20
113.2699658672627
 30
0.0
 11
55.547604806521008
 21
113.2699658672627
 31
0.0
  0
LINE
  5
11B7D
  8
3
 10
55.812166443680887
 20
113.2699658672627
 30
0.0
 11
55.721974976467322
 21
113.2699658672627
 31
0.0
  0
LINE
  5
11B7E
  8
3
 10
55.902357910894473
 20
113.2699658672627
 30
0.0
 11
55.812166443680887
 21
113.2699658672627
 31
0.0
  0
LINE
  5
11B7F
  8
3
 10
55.379247401055629
 20
113.2639531027819
 30
0.0
 11
55.367221872093978
 21
113.2579403383009
 31
0.0
  0
LINE
  5
11B80
  8
3
 10
55.367221872093978
 20
113.2579403383009
 30
0.0
 11
55.355196343132093
 21
113.25192757382
 31
0.0
  0
LINE
  5
11B81
  8
3
 10
55.355196343132093
 20
113.25192757382
 30
0.0
 11
55.34918357865115
 21
113.25192757382
 31
0.0
  0
LINE
  5
11B82
  8
3
 10
55.34918357865115
 20
113.25192757382
 30
0.0
 11
55.34918357865115
 21
113.2459148093392
 31
0.0
  0
LINE
  5
11B83
  8
3
 10
55.34918357865115
 20
113.2459148093392
 30
0.0
 11
55.343170814170207
 21
113.2338892803774
 31
0.0
  0
LINE
  5
11B84
  8
3
 10
55.343170814170207
 20
113.2338892803774
 30
0.0
 11
55.343170814170207
 21
113.2278765158963
 31
0.0
  0
LINE
  5
11B85
  8
3
 10
55.547604806521008
 20
113.2699658672627
 30
0.0
 11
55.379247401055629
 21
113.2639531027819
 31
0.0
  0
LINE
  5
11B86
  8
3
 10
55.776089856795458
 20
112.9873659366603
 30
0.0
 11
55.896345146413523
 21
112.9633148787366
 31
0.0
  0
LINE
  5
11B87
  8
3
 10
55.896345146413523
 20
112.9633148787366
 30
0.0
 11
56.016600436031688
 21
112.9512893497747
 31
0.0
  0
LINE
  5
11B88
  8
3
 10
56.016600436031688
 20
112.9512893497747
 30
0.0
 11
56.142868490130688
 21
112.9452765852939
 31
0.0
  0
LINE
  5
11B89
  8
3
 10
55.66184733165823
 20
113.0114169945839
 30
0.0
 11
55.776089856795458
 21
112.9873659366603
 31
0.0
  0
LINE
  5
11B8A
  8
3
 10
55.553617571001951
 20
113.0535063459502
 30
0.0
 11
55.66184733165823
 21
113.0114169945839
 31
0.0
  0
LINE
  5
11B8B
  8
3
 10
55.45741333930755
 20
113.1016084617973
 30
0.0
 11
55.553617571001951
 21
113.0535063459502
 31
0.0
  0
LINE
  5
11B8C
  8
3
 10
55.343170814170207
 20
113.2218637514155
 30
0.0
 11
55.34918357865115
 21
113.2158509869345
 31
0.0
  0
LINE
  5
11B8D
  8
3
 10
55.34918357865115
 20
113.2158509869345
 30
0.0
 11
55.34918357865115
 21
113.2038254579727
 31
0.0
  0
LINE
  5
11B8E
  8
3
 10
55.34918357865115
 20
113.2038254579727
 30
0.0
 11
55.355196343132093
 21
113.1978126934919
 31
0.0
  0
LINE
  5
11B8F
  8
3
 10
55.355196343132093
 20
113.1978126934919
 30
0.0
 11
55.355196343132093
 21
113.1917999290109
 31
0.0
  0
LINE
  5
11B90
  8
3
 10
55.355196343132093
 20
113.1917999290109
 30
0.0
 11
55.361209107613043
 21
113.18578716453
 31
0.0
  0
LINE
  5
11B91
  8
3
 10
55.361209107613043
 20
113.18578716453
 30
0.0
 11
55.367221872093978
 21
113.1737616355683
 31
0.0
  0
LINE
  5
11B92
  8
3
 10
55.367221872093978
 20
113.1737616355683
 30
0.0
 11
55.367221872093978
 21
113.1677488710874
 31
0.0
  0
LINE
  5
11B93
  8
3
 10
55.367221872093978
 20
113.1677488710874
 30
0.0
 11
55.379247401055629
 21
113.1617361066065
 31
0.0
  0
LINE
  5
11B94
  8
3
 10
55.379247401055629
 20
113.1617361066065
 30
0.0
 11
55.45741333930755
 21
113.1016084617973
 31
0.0
  0
LINE
  5
11B95
  8
3
 10
55.343170814170207
 20
113.2278765158963
 30
0.0
 11
55.343170814170207
 21
113.2218637514155
 31
0.0
  0
LINE
  5
11B96
  8
3
 10
56.142868490130688
 20
112.9452765852939
 30
0.0
 11
56.269136544229703
 21
112.9452765852939
 31
0.0
  0
LINE
  5
11B97
  8
3
 10
56.263123779748753
 20
113.2639531027819
 30
0.0
 11
56.172932312535181
 21
113.2639531027819
 31
0.0
  0
LINE
  5
11B98
  8
3
 10
57.014719339861927
 20
113.5946551492316
 30
0.0
 11
57.008706575380977
 21
113.829152963987
 31
0.0
  0
LINE
  5
11B99
  8
3
 10
56.768195996144748
 20
113.7209232033307
 30
0.0
 11
56.768195996144748
 21
113.6728210874833
 31
0.0
  0
LINE
  5
11B9A
  8
3
 10
58.103029710905837
 20
115.3082930262896
 30
0.0
 11
58.109042475386673
 21
115.0617696825725
 31
0.0
  0
LINE
  5
11B9B
  8
3
 10
55.337158049689378
 20
115.1940505011525
 30
0.0
 11
55.367221872093978
 21
115.2000632656333
 31
0.0
  0
LINE
  5
11B9C
  8
3
 10
56.870412992320212
 20
115.2601909104424
 30
0.0
 11
56.858387463358319
 21
114.2199826552458
 31
0.0
  0
LINE
  5
11B9D
  8
3
 10
57.041776780025998
 20
115.0437313891298
 30
0.0
 11
57.022322326764538
 21
116.240845988774
 31
0.0
  0
LINE
  5
11B9E
  8
3
 10
59.173301788506819
 20
112.06741297108159
 30
0.0
 11
59.143237966102333
 21
112.08545126452449
 31
0.0
  0
LINE
  5
11B9F
  8
3
 10
59.143237966102333
 20
114.9775909798399
 30
0.0
 11
59.221403904354133
 21
115.0136675667251
 31
0.0
  0
LINE
  5
11BA0
  8
3
 10
63.189828461751517
 20
112.12152785140979
 30
0.0
 11
63.135713581423367
 21
112.17564273173809
 31
0.0
  0
LINE
  5
11BA1
  8
3
 10
63.105649759018888
 20
114.9174633350308
 30
0.0
 11
63.334134809293232
 21
115.1218973273816
 31
0.0
  0
LINE
  5
11BA2
  8
3
 10
63.261981635522382
 20
114.0756763077039
 30
0.0
 11
63.147739110385139
 21
114.0756763077039
 31
0.0
  0
LINE
  5
11BA3
  8
3
 10
63.11767528798066
 20
113.8592167863915
 30
0.0
 11
64.662955759573379
 21
113.8772550798341
 31
0.0
  0
LINE
  5
11BA4
  8
1
 10
60.17426844099429
 20
111.84494068528809
 30
0.0
 11
60.174268440994183
 21
95.096263444988836
 31
0.0
  0
LINE
  5
11BA5
  8
3
 10
54.327013616897368
 20
112.8190085311948
 30
0.0
 11
54.278911501050061
 21
112.9091999984084
 31
0.0
  0
LINE
  5
11BA6
  8
3
 10
54.832085833293263
 20
112.229757612066
 30
0.0
 11
54.796009246407948
 21
112.25380866998979
 31
0.0
  0
LINE
  5
11BA7
  8
3
 10
54.765945424003341
 20
112.28387249239429
 30
0.0
 11
54.735881601598862
 21
112.30792355031789
 31
0.0
  0
LINE
  5
11BA8
  8
3
 10
54.796009246407948
 20
112.25380866998979
 30
0.0
 11
54.765945424003341
 21
112.28387249239429
 31
0.0
  0
LINE
  5
11BA9
  8
3
 10
54.92829006498777
 20
112.16962996725709
 30
0.0
 11
54.892213478102349
 21
112.18766826069979
 31
0.0
  0
LINE
  5
11BAA
  8
3
 10
54.892213478102349
 20
112.18766826069979
 30
0.0
 11
54.862149655697863
 21
112.21171931862339
 31
0.0
  0
LINE
  5
11BAB
  8
3
 10
54.862149655697863
 20
112.21171931862339
 30
0.0
 11
54.832085833293263
 21
112.229757612066
 31
0.0
  0
LINE
  5
11BAC
  8
3
 10
55.102660234934092
 20
112.06741297108159
 30
0.0
 11
54.92829006498777
 21
112.16962996725709
 31
0.0
  0
LINE
  5
11BAD
  8
3
 10
54.735881601598862
 20
112.30792355031789
 30
0.0
 11
54.705817779194263
 21
112.3319746082415
 31
0.0
  0
LINE
  5
11BAE
  8
3
 10
54.345051910340089
 20
112.7889447087904
 30
0.0
 11
54.327013616897368
 21
112.8190085311948
 31
0.0
  0
LINE
  5
11BAF
  8
3
 10
54.351064674820918
 20
112.7769191798285
 30
0.0
 11
54.345051910340089
 21
112.7889447087904
 31
0.0
  0
LINE
  5
11BB0
  8
3
 10
54.675753956789769
 20
112.36203843064609
 30
0.0
 11
54.645690134385291
 21
112.3860894885696
 31
0.0
  0
LINE
  5
11BB1
  8
3
 10
54.645690134385291
 20
112.3860894885696
 30
0.0
 11
54.615626311980812
 21
112.4161533109742
 31
0.0
  0
LINE
  5
11BB2
  8
3
 10
54.615626311980812
 20
112.4161533109742
 30
0.0
 11
54.585562489576198
 21
112.44621713337879
 31
0.0
  0
LINE
  5
11BB3
  8
3
 10
54.585562489576198
 20
112.44621713337879
 30
0.0
 11
54.561511431652541
 21
112.4762809557832
 31
0.0
  0
LINE
  5
11BB4
  8
3
 10
54.375115732744568
 20
112.7288170639813
 30
0.0
 11
54.369102968263633
 21
112.7468553574241
 31
0.0
  0
LINE
  5
11BB5
  8
3
 10
54.537460373728997
 20
112.5063447781877
 30
0.0
 11
54.513409315805347
 21
112.5364086005923
 31
0.0
  0
LINE
  5
11BB6
  8
3
 10
54.513409315805347
 20
112.5364086005923
 30
0.0
 11
54.477332728919919
 21
112.6025490098823
 31
0.0
  0
LINE
  5
11BB7
  8
3
 10
54.477332728919919
 20
112.6025490098823
 30
0.0
 11
54.459294435477197
 21
112.6085617743631
 31
0.0
  0
LINE
  5
11BB8
  8
3
 10
54.459294435477197
 20
112.6085617743631
 30
0.0
 11
54.447268906515319
 21
112.620587303325
 31
0.0
  0
LINE
  5
11BB9
  8
3
 10
54.447268906515319
 20
112.620587303325
 30
0.0
 11
54.44125614203449
 21
112.6266000678058
 31
0.0
  0
LINE
  5
11BBA
  8
3
 10
54.44125614203449
 20
112.6266000678058
 30
0.0
 11
54.429230613072718
 21
112.6446383612487
 31
0.0
  0
LINE
  5
11BBB
  8
3
 10
54.429230613072718
 20
112.6446383612487
 30
0.0
 11
54.41720508411084
 21
112.6566638902104
 31
0.0
  0
LINE
  5
11BBC
  8
3
 10
54.41720508411084
 20
112.6566638902104
 30
0.0
 11
54.411192319629997
 21
112.6686894191722
 31
0.0
  0
LINE
  5
11BBD
  8
3
 10
54.411192319629997
 20
112.6686894191722
 30
0.0
 11
54.399166790668112
 21
112.6807149481341
 31
0.0
  0
LINE
  5
11BBE
  8
3
 10
54.399166790668112
 20
112.6807149481341
 30
0.0
 11
54.39315402618729
 21
112.6987532415768
 31
0.0
  0
LINE
  5
11BBF
  8
3
 10
54.39315402618729
 20
112.6987532415768
 30
0.0
 11
54.38714126170634
 21
112.7167915350194
 31
0.0
  0
LINE
  5
11BC0
  8
3
 10
54.38714126170634
 20
112.7167915350194
 30
0.0
 11
54.375115732744568
 21
112.7288170639813
 31
0.0
  0
LINE
  5
11BC1
  8
3
 10
54.369102968263633
 20
112.7468553574241
 30
0.0
 11
54.36309020378269
 21
112.7588808863858
 31
0.0
  0
LINE
  5
11BC2
  8
3
 10
54.561511431652541
 20
112.4762809557832
 30
0.0
 11
54.537460373728997
 21
112.5063447781877
 31
0.0
  0
LINE
  5
11BC3
  8
3
 10
54.36309020378269
 20
112.7588808863858
 30
0.0
 11
54.351064674820918
 21
112.7769191798285
 31
0.0
  0
LINE
  5
11BC4
  8
3
 10
54.705817779194263
 20
112.3319746082415
 30
0.0
 11
54.675753956789769
 21
112.36203843064609
 31
0.0
  0
LINE
  5
11BC5
  8
3
 10
55.108672999415028
 20
115.091833504977
 30
0.0
 11
55.126711292857628
 21
115.1038590339389
 31
0.0
  0
LINE
  5
11BC6
  8
3
 10
55.030507061163227
 20
115.0557569180916
 30
0.0
 11
55.048545354605942
 21
115.0677824470533
 31
0.0
  0
LINE
  5
11BC7
  8
3
 10
55.048545354605942
 20
115.0677824470533
 30
0.0
 11
55.072596412529492
 21
115.0737952115344
 31
0.0
  0
LINE
  5
11BC8
  8
3
 10
55.072596412529492
 20
115.0737952115344
 30
0.0
 11
55.090634705972207
 21
115.085820740496
 31
0.0
  0
LINE
  5
11BC9
  8
3
 10
55.090634705972207
 20
115.085820740496
 30
0.0
 11
55.108672999415028
 21
115.091833504977
 31
0.0
  0
LINE
  5
11BCA
  8
3
 10
55.126711292857628
 20
115.1038590339389
 30
0.0
 11
55.144749586300463
 21
115.1098717984198
 31
0.0
  0
LINE
  5
11BCB
  8
3
 10
54.820060304331491
 20
114.9174633350308
 30
0.0
 11
54.832085833293263
 21
114.9355016284735
 31
0.0
  0
LINE
  5
11BCC
  8
3
 10
54.735881601598862
 20
114.8513229257409
 30
0.0
 11
54.747907130560627
 21
114.8633484547026
 31
0.0
  0
LINE
  5
11BCD
  8
3
 10
54.681766721270712
 20
114.8152463388554
 30
0.0
 11
54.699805014713441
 21
114.8272718678172
 31
0.0
  0
LINE
  5
11BCE
  8
3
 10
54.699805014713441
 20
114.8272718678172
 30
0.0
 11
54.717843308156148
 21
114.839297396779
 31
0.0
  0
LINE
  5
11BCF
  8
3
 10
54.717843308156148
 20
114.839297396779
 30
0.0
 11
54.735881601598862
 21
114.8513229257409
 31
0.0
  0
LINE
  5
11BD0
  8
3
 10
54.747907130560627
 20
114.8633484547026
 30
0.0
 11
54.765945424003341
 21
114.8753739836645
 31
0.0
  0
LINE
  5
11BD1
  8
3
 10
54.765945424003341
 20
114.8753739836645
 30
0.0
 11
54.783983717446063
 21
114.8934122771071
 31
0.0
  0
LINE
  5
11BD2
  8
3
 10
54.783983717446063
 20
114.8934122771071
 30
0.0
 11
54.802022010888777
 21
114.905437806069
 31
0.0
  0
LINE
  5
11BD3
  8
3
 10
54.802022010888777
 20
114.905437806069
 30
0.0
 11
54.820060304331491
 21
114.9174633350308
 31
0.0
  0
LINE
  5
11BD4
  8
3
 10
54.994430474277813
 20
115.031705860168
 30
0.0
 11
55.01246876772052
 21
115.0437313891298
 31
0.0
  0
LINE
  5
11BD5
  8
3
 10
54.832085833293263
 20
114.9355016284735
 30
0.0
 11
54.850124126736091
 21
114.9475271574353
 31
0.0
  0
LINE
  5
11BD6
  8
3
 10
54.850124126736091
 20
114.9475271574353
 30
0.0
 11
54.868162420178798
 21
114.9595526863971
 31
0.0
  0
LINE
  5
11BD7
  8
3
 10
54.868162420178798
 20
114.9595526863971
 30
0.0
 11
54.886200713621413
 21
114.9715782153589
 31
0.0
  0
LINE
  5
11BD8
  8
3
 10
54.886200713621413
 20
114.9715782153589
 30
0.0
 11
54.910251771545063
 21
114.9836037443207
 31
0.0
  0
LINE
  5
11BD9
  8
3
 10
54.910251771545063
 20
114.9836037443207
 30
0.0
 11
54.92829006498777
 21
115.0016420377634
 31
0.0
  0
LINE
  5
11BDA
  8
3
 10
54.92829006498777
 20
115.0016420377634
 30
0.0
 11
54.976392180835091
 21
115.0256930956871
 31
0.0
  0
LINE
  5
11BDB
  8
3
 10
54.976392180835091
 20
115.0256930956871
 30
0.0
 11
54.994430474277813
 21
115.031705860168
 31
0.0
  0
LINE
  5
11BDC
  8
3
 10
55.01246876772052
 20
115.0437313891298
 30
0.0
 11
55.030507061163227
 21
115.0557569180916
 31
0.0
  0
LINE
  5
11BDD
  8
3
 10
54.36309020378269
 20
114.4003655896729
 30
0.0
 11
54.375115732744568
 21
114.4184038831156
 31
0.0
  0
LINE
  5
11BDE
  8
3
 10
54.351064674820918
 20
114.3823272962302
 30
0.0
 11
54.36309020378269
 21
114.4003655896729
 31
0.0
  0
LINE
  5
11BDF
  8
3
 10
54.327013616897368
 20
114.3462507093448
 30
0.0
 11
54.339039145859147
 21
114.3642890027874
 31
0.0
  0
LINE
  5
11BE0
  8
3
 10
54.339039145859147
 20
114.3642890027874
 30
0.0
 11
54.351064674820918
 21
114.3823272962302
 31
0.0
  0
LINE
  5
11BE1
  8
3
 10
54.375115732744568
 20
114.4184038831156
 30
0.0
 11
54.38714126170634
 21
114.4364421765585
 31
0.0
  0
LINE
  5
11BE2
  8
3
 10
54.38714126170634
 20
114.4364421765585
 30
0.0
 11
54.399166790668112
 21
114.4484677055202
 31
0.0
  0
LINE
  5
11BE3
  8
3
 10
54.399166790668112
 20
114.4484677055202
 30
0.0
 11
54.411192319629997
 21
114.4665059989629
 31
0.0
  0
LINE
  5
11BE4
  8
3
 10
54.411192319629997
 20
114.4665059989629
 30
0.0
 11
54.423217848591783
 21
114.4845442924055
 31
0.0
  0
LINE
  5
11BE5
  8
3
 10
54.423217848591783
 20
114.4845442924055
 30
0.0
 11
54.435243377553547
 21
114.5025825858483
 31
0.0
  0
LINE
  5
11BE6
  8
3
 10
54.435243377553547
 20
114.5025825858483
 30
0.0
 11
54.44125614203449
 21
114.5146081148101
 31
0.0
  0
LINE
  5
11BE7
  8
3
 10
54.44125614203449
 20
114.5146081148101
 30
0.0
 11
54.453281670996262
 21
114.5326464082528
 31
0.0
  0
LINE
  5
11BE8
  8
3
 10
54.453281670996262
 20
114.5326464082528
 30
0.0
 11
54.465307199958147
 21
114.5506847016956
 31
0.0
  0
LINE
  5
11BE9
  8
3
 10
54.465307199958147
 20
114.5506847016956
 30
0.0
 11
54.477332728919919
 21
114.5627102306572
 31
0.0
  0
LINE
  5
11BEA
  8
3
 10
54.477332728919919
 20
114.5627102306572
 30
0.0
 11
54.483345493400741
 21
114.5807485241
 31
0.0
  0
LINE
  5
11BEB
  8
3
 10
54.248847678645582
 20
114.1598550104367
 30
0.0
 11
54.327013616897368
 21
114.3462507093448
 31
0.0
  0
LINE
  5
11BEC
  8
3
 10
54.194732798317432
 20
113.9734593115286
 30
0.0
 11
54.218783856240968
 21
114.0636507787422
 31
0.0
  0
LINE
  5
11BED
  8
3
 10
54.15865621143201
 20
113.7750380836587
 30
0.0
 11
54.170681740393782
 21
113.8712423153533
 31
0.0
  0
LINE
  5
11BEE
  8
3
 10
54.170681740393782
 20
113.8712423153533
 30
0.0
 11
54.194732798317432
 21
113.9734593115286
 31
0.0
  0
LINE
  5
11BEF
  8
3
 10
54.218783856240968
 20
114.0636507787422
 30
0.0
 11
54.248847678645582
 21
114.1598550104367
 31
0.0
  0
LINE
  5
11BF0
  8
3
 10
54.483345493400741
 20
114.5807485241
 30
0.0
 11
54.507396551324412
 21
114.6228378754665
 31
0.0
  0
LINE
  5
11BF1
  8
3
 10
54.507396551324412
 20
114.6228378754665
 30
0.0
 11
54.681766721270712
 21
114.8152463388554
 31
0.0
  0
LINE
  5
11BF2
  8
3
 10
54.170681740393782
 20
113.2880041607055
 30
0.0
 11
54.15264344695106
 21
113.3842083923999
 31
0.0
  0
LINE
  5
11BF3
  8
3
 10
54.146630682470118
 20
113.5826296202699
 30
0.0
 11
54.146630682470118
 21
113.6788338519644
 31
0.0
  0
LINE
  5
11BF4
  8
3
 10
54.146630682470118
 20
113.4804126240945
 30
0.0
 11
54.146630682470118
 21
113.5826296202699
 31
0.0
  0
LINE
  5
11BF5
  8
3
 10
54.15264344695106
 20
113.3842083923999
 30
0.0
 11
54.146630682470118
 21
113.4804126240945
 31
0.0
  0
LINE
  5
11BF6
  8
3
 10
54.212771091760033
 20
113.0955956973165
 30
0.0
 11
54.188720033836489
 21
113.18578716453
 31
0.0
  0
LINE
  5
11BF7
  8
3
 10
54.278911501050061
 20
112.9091999984084
 30
0.0
 11
54.242834914164632
 21
112.999391465622
 31
0.0
  0
LINE
  5
11BF8
  8
3
 10
54.242834914164632
 20
112.999391465622
 30
0.0
 11
54.212771091760033
 21
113.0955956973165
 31
0.0
  0
LINE
  5
11BF9
  8
3
 10
54.188720033836489
 20
113.18578716453
 30
0.0
 11
54.170681740393782
 21
113.2880041607055
 31
0.0
  0
LINE
  5
11BFA
  8
3
 10
54.146630682470118
 20
113.6788338519644
 30
0.0
 11
54.15865621143201
 21
113.7750380836587
 31
0.0
  0
LINE
  5
11C12
  8
3
 10
55.192851702147657
 20
112.03133638419629
 30
0.0
 11
55.102660234934092
 21
112.06741297108159
 31
0.0
  0
LINE
  5
11C13
  8
3
 10
55.144749586300463
 20
115.1098717984198
 30
0.0
 11
55.168800644224007
 21
115.1158845629006
 31
0.0
  0
LINE
  5
11C16
  8
0
 10
93.174268440994297
 20
100.09626344498879
 30
0.0
 11
92.215468483161885
 21
126.1480507348446
 31
0.0
  0
LINE
  5
11C17
  8
1
 10
60.17426844099446
 20
132.59626344498921
 30
0.0
 11
60.17426844099429
 21
115.1760122077098
 31
0.0
  0
ARC
  5
11C18
  8
0
 10
29.632174157807409
 20
126.09626344498891
 30
0.0
 40
1.5
 50
90.0
 51
178.0214780512737
1001
GENIUS_GENODEF_13
1002
{
1000
HIER
1070
     0
1002
}
1002
{
1000
MANEDIT
1070
     0
1002
}
1002
{
1000
NOSEL
1070
     0
1002
}
1002
{
1000
BEHIND
1070
     0
1002
}
1002
{
1000
REACTOR
1002
}
1001
GENIUS_GENOBJ-N-FIL_13
1002
{
1000
OWNER
1000
GEN
1002
}
  0
ARC
  5
11C19
  8
0
 10
313.44063770167509
 20
123.59626344498879
 30
0.0
 40
4.0
 50
60.39920419016596
 51
90.0
1001
GENIUS_GENODEF_13
1002
{
1000
HIER
1070
     0
1002
}
1002
{
1000
MANEDIT
1070
     0
1002
}
1002
{
1000
NOSEL
1070
     0
1002
}
1002
{
1000
BEHIND
1070
     0
1002
}
1002
{
1000
REACTOR
1002
}
1001
GENIUS_GENOBJ-N-FIL_13
1002
{
1000
OWNER
1000
GEN
1002
}
  0
ARC
  5
11C1A
  8
0
 10
312.0684989447472
 20
125.09626344498879
 30
0.0
 40
2.5
 50
90.0
 51
154.29004621918801
1001
GENIUS_GENODEF_13
1002
{
1000
HIER
1070
     0
1002
}
1002
{
1000
MANEDIT
1070
     0
1002
}
1002
{
1000
NOSEL
1070
     0
1002
}
1002
{
1000
BEHIND
1070
     0
1002
}
1002
{
1000
REACTOR
1002
}
1001
GENIUS_GENOBJ-N-FIL_13
1002
{
1000
OWNER
1000
GEN
1002
}
  0
LINE
  5
11C1B
  8
0
 10
310.49751300701161
 20
127.59626344498879
 30
0.0
 11
313.44063770167509
 21
127.59626344498879
 31
0.0
  0
LINE
  5
11C1C
  8
0
 10
297.49751300701172
 20
127.59626344498879
 30
0.0
 11
310.49751300701161
 21
127.59626344498879
 31
0.0
  0
ARC
  5
11C1D
  8
0
 10
151.962483439024
 20
125.09626344498879
 30
0.0
 40
2.5
 50
25.709953780811919
 51
90.0
1001
GENIUS_GENODEF_13
1002
{
1000
HIER
1070
     0
1002
}
1002
{
1000
MANEDIT
1070
     0
1002
}
1002
{
1000
NOSEL
1070
     0
1002
}
1002
{
1000
BEHIND
1070
     0
1002
}
1002
{
1000
REACTOR
1002
}
1001
GENIUS_GENOBJ-N-FIL_13
1002
{
1000
OWNER
1000
GEN
1002
}
  0
LINE
  5
11C1E
  8
0
 10
153.53346937675951
 20
127.59626344498879
 30
0.0
 11
150.59034468209609
 21
127.59626344498879
 31
0.0
  0
LINE
  5
11C1F
  8
0
 10
156.7333099205382
 20
127.59626344498879
 30
0.0
 11
150.59034468209609
 21
127.59626344498879
 31
0.0
  0
LINE
  5
11C20
  8
0
 10
166.53346937675951
 20
127.59626344498879
 30
0.0
 11
153.53346937675951
 21
127.59626344498879
 31
0.0
  0
LINE
  5
11C22
  8
0
 10
345.99751300701161
 20
100.09626344498879
 30
0.0
 11
345.43234029266557
 21
108.2232730290378
 31
0.0
  0
ARC
  5
11C23
  8
0
 10
341.94077300179151
 20
107.9804606461192
 30
0.0
 40
3.5
 50
3.9780881634258529
 51
60.39920419016596
1001
GENIUS_GENODEF_13
1002
{
1000
HIER
1070
     0
1002
}
1002
{
1000
MANEDIT
1070
     0
1002
}
1002
{
1000
NOSEL
1070
     0
1002
}
1002
{
1000
BEHIND
1070
     0
1002
}
1002
{
1000
REACTOR
1002
}
1001
GENIUS_GENOBJ-N-FIL_13
1002
{
1000
OWNER
1000
GEN
1002
}
  0
LINE
  5
11C3E
  8
0
 10
312.99751300701172
 20
100.09626344498879
 30
0.0
 11
312.54166181685662
 21
106.6512631773742
 31
0.0
  0
LINE
  5
11C3F
  8
0
 10
312.30208782201441
 20
110.09626344498879
 30
0.0
 11
312.54166181685639
 21
106.6512631773775
 31
0.0
  0
ARC
  5
11C44
  8
0
 10
303.1731333038984
 20
109.09626344498879
 30
0.0
 40
1.5
 50
2.0580162977811378
 51
90.0
1001
GENIUS_GENODEF_13
1002
{
1000
HIER
1070
     0
1002
}
1002
{
1000
MANEDIT
1070
     0
1002
}
1002
{
1000
NOSEL
1070
     0
1002
}
1002
{
1000
BEHIND
1070
     0
1002
}
1002
{
1000
REACTOR
1002
}
1001
GENIUS_GENOBJ-N-FIL_13
1002
{
1000
OWNER
1000
GEN
1002
}
  0
LINE
  5
11C45
  8
0
 10
304.99751300701172
 20
100.09626344498879
 30
0.0
 11
304.49442838442258
 21
114.09626344498879
 31
0.0
  0
ARC
  5
11C46
  8
0
 10
304.56093658057313
 20
106.09626344498879
 30
0.0
 40
8.0
 50
3.9780881634258529
 51
90.0
1001
GENIUS_GENODEF_13
1002
{
1000
HIER
1070
     0
1002
}
1002
{
1000
MANEDIT
1070
     0
1002
}
1002
{
1000
NOSEL
1070
     0
1002
}
1002
{
1000
BEHIND
1070
     0
1002
}
1002
{
1000
REACTOR
1002
}
1001
GENIUS_GENOBJ-N-FIL_13
1002
{
1000
OWNER
1000
GEN
1002
}
  0
LINE
  5
11C47
  8
0
 10
307.24751300701172
 20
120.84626344498879
 30
0.0
 11
312.30208782201441
 21
110.09626344498879
 31
0.0
  0
ARC
  5
11C4D
  8
0
 10
291.82189271012481
 20
109.09626344498879
 30
0.0
 40
1.5
 50
90.0
 51
177.94198370221889
1001
GENIUS_GENODEF_13
1002
{
1000
HIER
1070
     0
1002
}
1002
{
1000
MANEDIT
1070
     0
1002
}
1002
{
1000
NOSEL
1070
     0
1002
}
1002
{
1000
BEHIND
1070
     0
1002
}
1002
{
1000
REACTOR
1002
}
1001
GENIUS_GENOBJ-N-FIL_13
1002
{
1000
OWNER
1000
GEN
1002
}
  0
LINE
  5
11C4E
  8
0
 10
289.99751300701172
 20
100.09626344498879
 30
0.0
 11
290.75186691691511
 21
121.08866564622851
 31
0.0
  0
LINE
  5
11C51
  8
0
 10
303.1731333038984
 20
110.59626344498879
 30
0.0
 11
291.82189271012481
 21
110.59626344498879
 31
0.0
1001
GENIUS_GENOREF_13
1005
0
  0
LINE
  5
11C52
  8
0
 10
304.99751300701172
 20
100.09626344498879
 30
0.0
 11
289.99751300701172
 21
100.09626344498879
 31
0.0
1001
GENIUS_GENOREF_13
1005
0
  0
CIRCLE
  5
11C53
  8
0
 10
297.49751300701172
 20
120.84626344498879
 30
0.0
 40
3.0
  0
LINE
  5
11C54
  8
0
 10
297.4975130070103
 20
114.09626344498879
 30
0.0
 11
304.56093658057313
 21
114.09626344498879
 31
0.0
  0
LINE
  5
11C5B
  8
0
 10
174.03346937675951
 20
100.09626344498879
 30
0.0
 11
173.2791154668561
 21
121.08866564622851
 31
0.0
  0
LINE
  5
11C5C
  8
0
 10
159.5365539993486
 20
114.09626344498879
 30
0.0
 11
159.4700458031981
 21
114.09626344498879
 31
0.0
  0
LINE
  5
11C62
  8
0
 10
159.03346937675951
 20
100.09626344498879
 30
0.0
 11
159.78782328666301
 21
121.08866564622851
 31
0.0
  0
LINE
  5
11C63
  8
0
 10
151.03346937675951
 20
100.09626344498879
 30
0.0
 11
151.7288945617567
 21
110.09626344498879
 31
0.0
  0
LINE
  5
11C64
  8
0
 10
156.78346937675951
 20
120.84626344498879
 30
0.0
 11
151.7288945617567
 21
110.09626344498879
 31
0.0
  0
CIRCLE
  5
11C65
  8
0
 10
166.53346937675951
 20
121.09626344498879
 30
0.0
 40
3.0
  0
LINE
  5
11C66
  8
0
 10
159.03346937675951
 20
100.09626344498879
 30
0.0
 11
174.03346937675951
 21
100.09626344498879
 31
0.0
1001
GENIUS_GENOREF_13
1005
0
  0
ARC
  5
11C68
  8
0
 10
172.6096557509602
 20
222.11451873046499
 30
0.0
 40
1.4238387735863101
 50
359.65946814168723
 51
87.936641707405997
  0
ARC
  5
11C69
  8
0
 10
171.9419629491222
 20
221.14527212995719
 30
0.0
 40
1.372548862745099
 50
0.0
 51
90.0
  0
ARC
  5
11C6A
  8
0
 10
171.9419629491222
 20
213.35605733387871
 30
0.0
 40
1.372548862745099
 50
270.0
 51
0.0
  0
ARC
  5
11C6B
  8
0
 10
172.66092051401441
 20
210.3364516659046
 30
0.0
 40
1.372548862745099
 50
0.0
 51
90.0
  0
LINE
  5
11C6C
  8
0
 10
173.31451181186731
 20
221.14527212995719
 30
0.0
 11
173.31451181186731
 21
213.35605733387871
 31
0.0
  0
ARC
  5
11C6D
  8
0
 10
172.66092051401441
 20
202.6501780345321
 30
0.0
 40
1.372548862745099
 50
270.0
 51
0.0
  0
ARC
  5
11C6E
  8
0
 10
171.9419629491222
 20
192.08155179139479
 30
0.0
 40
1.372548862745099
 50
270.0
 51
0.0
  0
ARC
  5
11C6F
  8
0
 10
172.66092051401441
 20
189.06194429335559
 30
0.0
 40
1.372548862745099
 50
0.0
 51
90.0
  0
LINE
  5
11C70
  8
0
 10
173.31451181186719
 20
199.69919774007511
 30
0.0
 11
173.31451181186731
 21
192.08155179139479
 31
0.0
  0
ARC
  5
11C71
  8
0
 10
171.9419629491222
 20
199.6991979796301
 30
0.0
 40
1.372548862745099
 50
359.99999000000059
 51
90.0
  0
ARC
  5
11C72
  8
0
 10
171.9419629491222
 20
178.42469060708109
 30
0.0
 40
1.372548862745099
 50
359.99999000000059
 51
90.0
  0
ARC
  5
11C73
  8
0
 10
172.66092051401441
 20
181.37567066198301
 30
0.0
 40
1.372548862745099
 50
270.0
 51
0.0
  0
ARC
  5
11C74
  8
0
 10
160.40167100133681
 20
222.1113442769234
 30
0.0
 40
1.4273047650034889
 50
92.364004883663313
 51
163.45393605027439
  0
ARC
  5
11C75
  8
0
 10
160.40601823950459
 20
210.3364516659046
 30
0.0
 40
1.372548862745099
 50
90.0
 51
180.0
  0
LINE
  5
11C76
  8
0
 10
156.8439272889913
 20
222.51782099270221
 30
0.0
 11
156.8439272889913
 21
223.53743432080651
 31
0.0
  0
ARC
  5
11C77
  8
0
 10
160.40601823950459
 20
202.6501780345321
 30
0.0
 40
1.372548862745099
 50
180.0
 51
270.0
  0
ARC
  5
11C78
  8
0
 10
160.40601823950459
 20
189.06194429335559
 30
0.0
 40
1.372548862745099
 50
90.0
 51
180.0
  0
ARC
  5
11C79
  8
0
 10
160.40601823950459
 20
181.37567066198301
 30
0.0
 40
1.372548862745099
 50
180.0
 51
270.0
  0
LINE
  5
11C7A
  8
0
 10
159.03346937675951
 20
190.64037548551241
 30
0.0
 11
159.03346937675951
 21
179.7972394698262
 31
0.0
  0
LINE
  5
11C7B
  8
0
 10
156.8439272889913
 20
179.7972394698262
 30
0.0
 11
156.8439272889913
 21
190.64037548551241
 31
0.0
  0
LINE
  5
11C7C
  8
0
 10
156.8439272889913
 20
201.07174684237529
 30
0.0
 11
156.8439272889913
 21
211.9148810279963
 31
0.0
  0
LINE
  5
11C7D
  8
0
 10
159.03346937675951
 20
211.9148810279963
 30
0.0
 11
159.03346937675951
 21
201.07174684237529
 31
0.0
  0
LINE
  5
11C7E
  8
0
 10
152.3321615301119
 20
222.51782099270221
 30
0.0
 11
171.9419629491222
 21
222.51782099270221
 31
0.0
  0
LINE
  5
11C7F
  8
0
 10
160.34279758680199
 20
223.53743432080651
 30
0.0
 11
172.66092051401441
 21
223.53743432080651
 31
0.0
  0
LINE
  5
11C80
  8
0
 10
152.3321615301119
 20
211.9148810279963
 30
0.0
 11
171.9419629491222
 21
211.9148810279963
 31
0.0
  0
LINE
  5
11C81
  8
0
 10
152.3321615301119
 20
190.64037548551241
 30
0.0
 11
171.9419629491222
 21
190.64037548551241
 31
0.0
  0
LINE
  5
11C82
  8
0
 10
152.3321615301119
 20
201.07174684237529
 30
0.0
 11
171.9419629491222
 21
201.07174684237529
 31
0.0
  0
LINE
  5
11C83
  8
0
 10
160.40601823950459
 20
190.4344931561007
 30
0.0
 11
172.66092051401441
 21
190.43449315610059
 31
0.0
  0
LINE
  5
11C84
  8
0
 10
160.40601823950459
 20
211.7090005286496
 30
0.0
 11
172.66092051401441
 21
211.70900052864971
 31
0.0
  0
LINE
  5
11C85
  8
0
 10
160.40601823950459
 20
201.27762917178691
 30
0.0
 11
172.66092051401441
 21
201.27762917178691
 31
0.0
  0
LINE
  5
11C86
  8
0
 10
152.3321615301119
 20
179.7972394698262
 30
0.0
 11
171.9419629491222
 21
179.7972394698262
 31
0.0
  0
LINE
  5
11C87
  8
0
 10
160.40601823950459
 20
180.0031217992379
 30
0.0
 11
172.66092051401441
 21
180.0031217992379
 31
0.0
  0
ARC
  5
11C88
  8
0
 10
171.9419629491222
 20
170.73841880577359
 30
0.0
 40
1.372548862745099
 50
270.0
 51
0.0
  0
ARC
  5
11C89
  8
0
 10
172.66092051401441
 20
167.7874387508717
 30
0.0
 40
1.372548862745099
 50
0.0
 51
90.0
  0
ARC
  5
11C8A
  8
0
 10
172.66092051401441
 20
158.90998318355159
 30
0.0
 40
1.372548862745099
 50
270.0
 51
0.0
  0
ARC
  5
11C8B
  8
0
 10
160.40601823950459
 20
167.7874387508717
 30
0.0
 40
1.372548862745099
 50
90.0
 51
180.0
  0
ARC
  5
11C8C
  8
0
 10
160.40601823950459
 20
158.90998318355159
 30
0.0
 40
1.372548862745099
 50
180.0
 51
270.0
  0
LINE
  5
11C8D
  8
0
 10
159.03346937675951
 20
169.36586994302851
 30
0.0
 11
159.03346937675951
 21
158.90998318355159
 31
0.0
  0
LINE
  5
11C8E
  8
0
 10
156.8439272889913
 20
157.53743432080651
 30
0.0
 11
156.8439272889913
 21
169.36586994302851
 31
0.0
  0
LINE
  5
11C8F
  8
0
 10
152.3321615301119
 20
169.36586994302851
 30
0.0
 11
171.9419629491222
 21
169.36586994302851
 31
0.0
  0
LINE
  5
11C90
  8
0
 10
160.40601823950459
 20
157.53743432080651
 30
0.0
 11
172.66092051401441
 21
157.53743432080651
 31
0.0
  0
LINE
  5
11C91
  8
0
 10
160.40601823950459
 20
169.15998761361681
 30
0.0
 11
172.66092051401441
 21
169.15998761361681
 31
0.0
  0
LINE
  5
11C92
  8
0
 10
173.31451181186731
 20
178.3560631639439
 30
0.0
 11
173.31451181186731
 21
170.80704624891089
 31
0.0
  0
LINE
  5
11C93
  8
0
 10
174.03346937675951
 20
222.10605633387871
 30
0.0
 11
174.03346937675951
 21
158.90998318355159
 31
0.0
  0
LINE
  5
11C94
  8
1
 10
166.53346937675951
 20
228.4786051966239
 30
0.0
 11
166.53346937675951
 21
152.59626344498929
 31
0.0
  0
LINE
  5
11C95
  8
0
 10
345.99751300701161
 20
100.09626344498879
 30
0.0
 11
312.99751300701172
 21
100.09626344498879
 31
0.0
  0
LINE
  5
11C96
  8
0
 10
156.78346937675951
 20
120.84626344498879
 30
0.0
 11
154.21498761342181
 21
126.1808024919211
 31
0.0
  0
ARC
  5
11C97
  8
0
 10
166.53346937675951
 20
120.84626344498879
 30
0.0
 40
6.75
 50
0.0
 51
180.0
  0
ARC
  5
11C98
  8
0
 10
297.49751300701172
 20
120.84626344498879
 30
0.0
 40
6.75
 50
90.0
 51
270.0
  0
LINE
  5
11C99
  8
0
 10
315.41645347522689
 20
127.0742157202485
 30
0.0
 11
343.66961180364939
 21
111.02366888697129
 31
0.0
  0
LINE
  5
11C9A
  8
0
 10
307.24751300701172
 20
120.84626344498879
 30
0.0
 11
309.81599477034928
 21
126.1808024919211
 31
0.0
  0
LINE
  5
11C9B
  8
0
 10
93.174268440994297
 20
100.09626344498879
 30
0.0
 11
27.174268440991678
 21
100.09626344498879
 31
0.0
  0
LINE
  5
11C9C
  8
0
 10
90.716362724181067
 20
127.5962634449895
 30
0.0
 11
29.632174157807409
 21
127.59626344498891
 31
0.0
  0
LINE
  5
11C9D
  8
3
 10
27.53305500803015
 20
109.84494068528799
 30
0.0
 11
92.815481873956742
 21
109.84494068528809
 31
0.0
  0
ARC
  5
11CA0
  8
0
 10
262.59843641438118
 20
126.09626344498891
 30
0.0
 40
1.5
 50
1.978521948726262
 51
90.0
1001
GENIUS_GENODEF_13
1002
{
1000
HIER
1070
     0
1002
}
1002
{
1000
MANEDIT
1070
     0
1002
}
1002
{
1000
NOSEL
1070
     0
1002
}
1002
{
1000
BEHIND
1070
     0
1002
}
1002
{
1000
REACTOR
1002
}
1001
GENIUS_GENOBJ-N-FIL_13
1002
{
1000
OWNER
1000
GEN
1002
}
  0
ARC
  5
11CA1
  8
0
 10
254.93378883838329
 20
126.09626344498879
 30
0.0
 40
1.5
 50
90.0
 51
180.0
1001
GENIUS_GENODEF_13
1002
{
1000
HIER
1070
     0
1002
}
1002
{
1000
MANEDIT
1070
     0
1002
}
1002
{
1000
NOSEL
1070
     0
1002
}
1002
{
1000
BEHIND
1070
     0
1002
}
1002
{
1000
REACTOR
1002
}
1001
GENIUS_GENOBJ-N-FIL_13
1002
{
1000
OWNER
1000
GEN
1002
}
  0
ARC
  5
11CA2
  8
0
 10
251.93378883838329
 20
126.09626344498879
 30
0.0
 40
1.5
 50
0.0
 51
90.0
1001
GENIUS_GENODEF_13
1002
{
1000
HIER
1070
     0
1002
}
1002
{
1000
MANEDIT
1070
     0
1002
}
1002
{
1000
NOSEL
1070
     0
1002
}
1002
{
1000
BEHIND
1070
     0
1002
}
1002
{
1000
REACTOR
1002
}
1001
GENIUS_GENOBJ-N-FIL_13
1002
{
1000
OWNER
1000
GEN
1002
}
  0
LINE
  5
11CA3
  8
0
 10
262.59843641438118
 20
127.59626344498879
 30
0.0
 11
254.93378883838329
 21
127.59626344498879
 31
0.0
  0
ARC
  5
11CA4
  8
0
 10
241.0906546527622
 20
126.09626344498879
 30
0.0
 40
1.5
 50
0.0
 51
90.0
1001
GENIUS_GENODEF_13
1002
{
1000
HIER
1070
     0
1002
}
1002
{
1000
MANEDIT
1070
     0
1002
}
1002
{
1000
NOSEL
1070
     0
1002
}
1002
{
1000
BEHIND
1070
     0
1002
}
1002
{
1000
REACTOR
1002
}
1001
GENIUS_GENOBJ-N-FIL_13
1002
{
1000
OWNER
1000
GEN
1002
}
  0
ARC
  5
11CA5
  8
0
 10
244.0906546527622
 20
126.09626344498879
 30
0.0
 40
1.5
 50
90.0
 51
180.0
1001
GENIUS_GENODEF_13
1002
{
1000
HIER
1070
     0
1002
}
1002
{
1000
MANEDIT
1070
     0
1002
}
1002
{
1000
NOSEL
1070
     0
1002
}
1002
{
1000
BEHIND
1070
     0
1002
}
1002
{
1000
REACTOR
1002
}
1001
GENIUS_GENOBJ-N-FIL_13
1002
{
1000
OWNER
1000
GEN
1002
}
  0
ARC
  5
11CA6
  8
0
 10
233.6592832958994
 20
126.09626344498879
 30
0.0
 40
1.5
 50
90.0
 51
180.0
1001
GENIUS_GENODEF_13
1002
{
1000
HIER
1070
     0
1002
}
1002
{
1000
MANEDIT
1070
     0
1002
}
1002
{
1000
NOSEL
1070
     0
1002
}
1002
{
1000
BEHIND
1070
     0
1002
}
1002
{
1000
REACTOR
1002
}
1001
GENIUS_GENOBJ-N-FIL_13
1002
{
1000
OWNER
1000
GEN
1002
}
  0
ARC
  5
11CA7
  8
0
 10
230.6592832958994
 20
126.09626344498879
 30
0.0
 40
1.5
 50
0.0
 51
90.0
1001
GENIUS_GENODEF_13
1002
{
1000
HIER
1070
     0
1002
}
1002
{
1000
MANEDIT
1070
     0
1002
}
1002
{
1000
NOSEL
1070
     0
1002
}
1002
{
1000
BEHIND
1070
     0
1002
}
1002
{
1000
REACTOR
1002
}
1001
GENIUS_GENOBJ-N-FIL_13
1002
{
1000
OWNER
1000
GEN
1002
}
  0
ARC
  5
11CA8
  8
0
 10
222.81614728021319
 20
126.09626344498879
 30
0.0
 40
1.5
 50
90.0
 51
180.0
1001
GENIUS_GENODEF_13
1002
{
1000
HIER
1070
     0
1002
}
1002
{
1000
MANEDIT
1070
     0
1002
}
1002
{
1000
NOSEL
1070
     0
1002
}
1002
{
1000
BEHIND
1070
     0
1002
}
1002
{
1000
REACTOR
1002
}
1001
GENIUS_GENOBJ-N-FIL_13
1002
{
1000
OWNER
1000
GEN
1002
}
  0
ARC
  5
11CA9
  8
0
 10
219.81614728021319
 20
126.09626344498879
 30
0.0
 40
1.5
 50
0.0
 51
90.0
1001
GENIUS_GENODEF_13
1002
{
1000
HIER
1070
     0
1002
}
1002
{
1000
MANEDIT
1070
     0
1002
}
1002
{
1000
NOSEL
1070
     0
1002
}
1002
{
1000
BEHIND
1070
     0
1002
}
1002
{
1000
REACTOR
1002
}
1001
GENIUS_GENOBJ-N-FIL_13
1002
{
1000
OWNER
1000
GEN
1002
}
  0
LINE
  5
11CAA
  8
0
 10
230.6592832958994
 20
127.59626344498891
 30
0.0
 11
222.81614728021319
 21
127.59626344498891
 31
0.0
  0
LINE
  5
11CAB
  8
0
 10
241.0906546527622
 20
127.59626344498891
 30
0.0
 11
233.6592832958994
 21
127.59626344498891
 31
0.0
  0
ARC
  5
11CAC
  8
0
 10
209.38477775341551
 20
126.09626344498879
 30
0.0
 40
1.5
 50
0.0
 51
90.0
1001
GENIUS_GENODEF_13
1002
{
1000
HIER
1070
     0
1002
}
1002
{
1000
MANEDIT
1070
     0
1002
}
1002
{
1000
NOSEL
1070
     0
1002
}
1002
{
1000
BEHIND
1070
     0
1002
}
1002
{
1000
REACTOR
1002
}
1001
GENIUS_GENOBJ-N-FIL_13
1002
{
1000
OWNER
1000
GEN
1002
}
  0
ARC
  5
11CAD
  8
0
 10
212.38477775341551
 20
126.09626344498879
 30
0.0
 40
1.5
 50
90.0
 51
180.0
1001
GENIUS_GENODEF_13
1002
{
1000
HIER
1070
     0
1002
}
1002
{
1000
MANEDIT
1070
     0
1002
}
1002
{
1000
NOSEL
1070
     0
1002
}
1002
{
1000
BEHIND
1070
     0
1002
}
1002
{
1000
REACTOR
1002
}
1001
GENIUS_GENOBJ-N-FIL_13
1002
{
1000
OWNER
1000
GEN
1002
}
  0
ARC
  5
11CAE
  8
0
 10
201.5142478480077
 20
126.09626344498891
 30
0.0
 40
1.5
 50
90.0
 51
178.0214780512737
1001
GENIUS_GENODEF_13
1002
{
1000
HIER
1070
     0
1002
}
1002
{
1000
MANEDIT
1070
     0
1002
}
1002
{
1000
NOSEL
1070
     0
1002
}
1002
{
1000
BEHIND
1070
     0
1002
}
1002
{
1000
REACTOR
1002
}
1001
GENIUS_GENOBJ-N-FIL_13
1002
{
1000
OWNER
1000
GEN
1002
}
  0
LINE
  5
11CAF
  8
0
 10
209.38477775341551
 20
127.59626344498891
 30
0.0
 11
201.5142478480077
 21
127.59626344498891
 31
0.0
  0
LINE
  5
11CB0
  8
0
 10
219.81614728021319
 20
127.59626344498879
 30
0.0
 11
212.38477775341551
 21
127.59626344498891
 31
0.0
  0
LINE
  5
11CB1
  8
0
 10
251.93378883838329
 20
127.59626344498879
 30
0.0
 11
244.0906546527622
 21
127.59626344498879
 31
0.0
  0
LINE
  5
11CCC
  8
1
 10
134.7334693767601
 20
214.24589347595111
 30
0.0
 11
134.7334693767601
 21
199.8289751656622
 31
0.0
  0
POINT
  5
11CCD
  8
0
 10
120.2990658354513
 20
223.53743432080651
 30
0.0
  0
LINE
  5
11CCE
  8
3
 10
126.6839548154278
 20
192.61468581537591
 30
0.0
 11
126.6839548154278
 21
193.68938043503621
 31
0.0
  0
LINE
  5
11CCF
  8
3
 10
126.6839548154278
 20
192.61468581537591
 30
0.0
 11
126.4795208230771
 21
192.61468581537591
 31
0.0
  0
LINE
  5
11CD0
  8
3
 10
125.9979251966606
 20
192.60867305089491
 30
0.0
 11
125.7514018529434
 21
192.60867305089491
 31
0.0
  0
LINE
  5
11CD1
  8
3
 10
122.34817715675111
 20
191.92321790007179
 30
0.0
 11
122.34817715675111
 21
193.23400055690911
 31
0.0
  0
LINE
  5
11CD2
  8
3
 10
124.1640320299846
 20
193.94350676565591
 30
0.0
 11
124.1159299141372
 21
193.94350676565591
 31
0.0
  0
LINE
  5
11CD3
  8
3
 10
124.0377639758854
 20
193.6969834219388
 30
0.0
 11
124.2722617906409
 21
193.70299618641971
 31
0.0
  0
LINE
  5
11CD4
  8
3
 10
124.1219426786182
 20
196.5650720793306
 30
0.0
 11
124.2181469103125
 21
196.5530465503688
 31
0.0
  0
LINE
  5
11CD5
  8
3
 10
122.77508343489529
 20
196.0058849826064
 30
0.0
 11
122.80514725729989
 21
196.03594880501089
 31
0.0
  0
LINE
  5
11CD6
  8
3
 10
123.20198971303959
 20
196.348612558018
 30
0.0
 11
123.22002800648229
 21
196.3606380869798
 31
0.0
  0
LINE
  5
11CD7
  8
3
 10
122.91938978243709
 20
196.15019133014809
 30
0.0
 11
122.94945360484159
 21
196.1742423880718
 31
0.0
  0
LINE
  5
11CD8
  8
3
 10
123.18996418407799
 20
196.34259979353709
 30
0.0
 11
123.20198971303959
 21
196.348612558018
 31
0.0
  0
LINE
  5
11CD9
  8
3
 10
123.15990036167329
 20
196.3245615000944
 30
0.0
 11
123.17192589063509
 21
196.3365870290562
 31
0.0
  0
LINE
  5
11CDA
  8
3
 10
123.14186206823069
 20
196.31854873561349
 30
0.0
 11
123.15990036167329
 21
196.3245615000944
 31
0.0
  0
LINE
  5
11CDB
  8
3
 10
123.12382377478799
 20
196.3125359711326
 30
0.0
 11
123.14186206823069
 21
196.31854873561349
 31
0.0
  0
LINE
  5
11CDC
  8
3
 10
123.11179824582609
 20
196.30051044217069
 30
0.0
 11
123.12382377478799
 21
196.3125359711326
 31
0.0
  0
LINE
  5
11CDD
  8
3
 10
123.09977271686429
 20
196.29449767768989
 30
0.0
 11
123.11179824582609
 21
196.30051044217069
 31
0.0
  0
LINE
  5
11CDE
  8
3
 10
123.08774718790249
 20
196.282472148728
 30
0.0
 11
123.09977271686429
 21
196.29449767768989
 31
0.0
  0
LINE
  5
11CDF
  8
3
 10
123.06970889445969
 20
196.27044661976629
 30
0.0
 11
123.08774718790249
 21
196.282472148728
 31
0.0
  0
LINE
  5
11CE0
  8
3
 10
123.06369612997879
 20
196.2644338552854
 30
0.0
 11
123.06970889445969
 21
196.27044661976629
 31
0.0
  0
LINE
  5
11CE1
  8
3
 10
123.05167060101699
 20
196.2524083263236
 30
0.0
 11
123.06369612997879
 21
196.2644338552854
 31
0.0
  0
LINE
  5
11CE2
  8
3
 10
123.04565783653619
 20
196.2343700328808
 30
0.0
 11
123.05167060101699
 21
196.2524083263236
 31
0.0
  0
LINE
  5
11CE3
  8
3
 10
122.97951742724619
 20
196.19829344599529
 30
0.0
 11
123.04565783653619
 21
196.2343700328808
 31
0.0
  0
LINE
  5
11CE4
  8
3
 10
122.94945360484159
 20
196.1742423880718
 30
0.0
 11
122.97951742724619
 21
196.19829344599529
 31
0.0
  0
LINE
  5
11CE5
  8
3
 10
123.17192589063509
 20
196.3365870290562
 30
0.0
 11
123.18996418407799
 21
196.34259979353709
 31
0.0
  0
LINE
  5
11CE6
  8
3
 10
122.88932596003259
 20
196.12614027222449
 30
0.0
 11
122.91938978243709
 21
196.15019133014809
 31
0.0
  0
LINE
  5
11CE7
  8
3
 10
122.85926213762799
 20
196.09607644982
 30
0.0
 11
122.88932596003259
 21
196.12614027222449
 31
0.0
  0
LINE
  5
11CE8
  8
3
 10
122.82919831522349
 20
196.06601262741549
 30
0.0
 11
122.85926213762799
 21
196.09607644982
 31
0.0
  0
LINE
  5
11CE9
  8
3
 10
122.80514725729989
 20
196.03594880501089
 30
0.0
 11
122.82919831522349
 21
196.06601262741549
 31
0.0
  0
LINE
  5
11CEA
  8
3
 10
123.6288959911838
 20
196.52298272796429
 30
0.0
 11
123.7311129873593
 21
196.541021021407
 31
0.0
  0
LINE
  5
11CEB
  8
3
 10
123.26211735784869
 20
196.3846891449034
 30
0.0
 11
123.35230882506229
 21
196.43279126075069
 31
0.0
  0
LINE
  5
11CEC
  8
3
 10
123.22002800648229
 20
196.3606380869798
 30
0.0
 11
123.23205353544419
 21
196.36665085146069
 31
0.0
  0
LINE
  5
11CED
  8
3
 10
123.23205353544419
 20
196.36665085146069
 30
0.0
 11
123.26211735784869
 21
196.3846891449034
 31
0.0
  0
LINE
  5
11CEE
  8
3
 10
123.44250029227589
 20
196.46886784763609
 30
0.0
 11
123.5387045239704
 21
196.49893167004069
 31
0.0
  0
LINE
  5
11CEF
  8
3
 10
123.35230882506229
 20
196.43279126075069
 30
0.0
 11
123.44250029227589
 21
196.46886784763609
 31
0.0
  0
LINE
  5
11CF0
  8
3
 10
123.5387045239704
 20
196.49893167004069
 30
0.0
 11
123.6288959911838
 21
196.52298272796429
 31
0.0
  0
LINE
  5
11CF1
  8
3
 10
123.8273172190538
 20
196.55905931484969
 30
0.0
 11
123.9235214507483
 21
196.5650720793306
 31
0.0
  0
LINE
  5
11CF2
  8
3
 10
123.9235214507483
 20
196.5650720793306
 30
0.0
 11
124.0257384469237
 21
196.5650720793306
 31
0.0
  0
LINE
  5
11CF3
  8
3
 10
124.0257384469237
 20
196.5650720793306
 30
0.0
 11
124.1219426786182
 21
196.5650720793306
 31
0.0
  0
LINE
  5
11CF4
  8
3
 10
123.7311129873593
 20
196.541021021407
 30
0.0
 11
123.8273172190538
 21
196.55905931484969
 31
0.0
  0
LINE
  5
11CF5
  8
3
 10
123.11781101030699
 20
193.5707153678398
 30
0.0
 11
123.34629606058139
 21
193.624830248168
 31
0.0
  0
LINE
  5
11CF6
  8
3
 10
123.23806629992509
 20
193.73306000882431
 30
0.0
 11
123.18996418407799
 21
193.7390727733052
 31
0.0
  0
LINE
  5
11CF7
  8
3
 10
122.34817715675111
 20
194.47864280445651
 30
0.0
 11
122.34216439227021
 21
194.5868725651128
 31
0.0
  0
LINE
  5
11CF8
  8
3
 10
122.75103237697181
 20
195.97582116020189
 30
0.0
 11
122.77508343489529
 21
196.0058849826064
 31
0.0
  0
LINE
  5
11CF9
  8
3
 10
122.39026650811751
 20
195.2182128356078
 30
0.0
 11
122.41431756604101
 21
195.3204298317832
 31
0.0
  0
LINE
  5
11CFA
  8
3
 10
122.51052179773551
 20
195.60904252686669
 30
0.0
 11
122.61273879391101
 21
195.78341269681289
 31
0.0
  0
LINE
  5
11CFB
  8
3
 10
122.65482814527731
 20
195.8495531061028
 30
0.0
 11
122.67286643871989
 21
195.8796169285074
 31
0.0
  0
LINE
  5
11CFC
  8
3
 10
122.63077708735359
 20
195.8194892836984
 30
0.0
 11
122.65482814527731
 21
195.8495531061028
 31
0.0
  0
LINE
  5
11CFD
  8
3
 10
122.61273879391101
 20
195.78341269681289
 30
0.0
 11
122.63077708735359
 21
195.8194892836984
 31
0.0
  0
LINE
  5
11CFE
  8
3
 10
122.43836862396461
 20
195.4226468279586
 30
0.0
 11
122.47444521085021
 21
195.51885105965309
 31
0.0
  0
LINE
  5
11CFF
  8
3
 10
122.41431756604101
 20
195.3204298317832
 30
0.0
 11
122.43836862396461
 21
195.4226468279586
 31
0.0
  0
LINE
  5
11D00
  8
3
 10
122.47444521085021
 20
195.51885105965309
 30
0.0
 11
122.51052179773551
 21
195.60904252686669
 31
0.0
  0
LINE
  5
11D01
  8
3
 10
122.69691749664371
 20
195.9156935153928
 30
0.0
 11
122.72698131904809
 21
195.94575733779729
 31
0.0
  0
LINE
  5
11D02
  8
3
 10
122.72698131904809
 20
195.94575733779729
 30
0.0
 11
122.75103237697181
 21
195.97582116020189
 31
0.0
  0
LINE
  5
11D03
  8
3
 10
122.67286643871989
 20
195.8796169285074
 30
0.0
 11
122.69691749664371
 21
195.9156935153928
 31
0.0
  0
LINE
  5
11D04
  8
3
 10
122.34817715675111
 20
194.79731932194451
 30
0.0
 11
122.35418992123211
 21
194.9055490826008
 31
0.0
  0
LINE
  5
11D05
  8
3
 10
122.36020268571291
 20
195.01377884325711
 30
0.0
 11
122.37222821467481
 21
195.1159958394324
 31
0.0
  0
LINE
  5
11D06
  8
3
 10
122.37222821467481
 20
195.1159958394324
 30
0.0
 11
122.39026650811751
 21
195.2182128356078
 31
0.0
  0
LINE
  5
11D07
  8
3
 10
122.35418992123211
 20
194.9055490826008
 30
0.0
 11
122.36020268571291
 21
195.01377884325711
 31
0.0
  0
LINE
  5
11D08
  8
3
 10
122.34216439227021
 20
194.6890895612882
 30
0.0
 11
122.34817715675111
 21
194.79731932194451
 31
0.0
  0
LINE
  5
11D09
  8
3
 10
122.34216439227021
 20
194.5868725651128
 30
0.0
 11
122.34216439227021
 21
194.6890895612882
 31
0.0
  0
LINE
  5
11D0A
  8
3
 10
122.79312172833809
 20
193.79318765363331
 30
0.0
 11
122.73900684801001
 21
193.7992004181142
 31
0.0
  0
LINE
  5
11D0B
  8
3
 10
122.65482814527731
 20
193.4143834913362
 30
0.0
 11
122.88932596003259
 21
193.5045749585498
 31
0.0
  0
LINE
  5
11D0C
  8
3
 10
122.40830480156021
 20
194.01565993942671
 30
0.0
 11
122.39627927259831
 21
194.0397109973504
 31
0.0
  0
LINE
  5
11D0D
  8
3
 10
122.38425374363651
 20
194.06376205527411
 30
0.0
 11
122.37824097915571
 21
194.08781311319771
 31
0.0
  0
LINE
  5
11D0E
  8
3
 10
122.37824097915571
 20
194.08781311319771
 30
0.0
 11
122.36621545019371
 21
194.11186417112131
 31
0.0
  0
LINE
  5
11D0F
  8
3
 10
122.39627927259831
 20
194.0397109973504
 30
0.0
 11
122.38425374363651
 21
194.06376205527411
 31
0.0
  0
LINE
  5
11D10
  8
3
 10
122.36020268571291
 20
194.1539535224876
 30
0.0
 11
122.35418992123211
 21
194.26218328314391
 31
0.0
  0
LINE
  5
11D11
  8
3
 10
122.34817715675111
 20
194.3704130438002
 30
0.0
 11
122.34817715675111
 21
194.47864280445651
 31
0.0
  0
LINE
  5
11D12
  8
3
 10
122.35418992123211
 20
194.26218328314391
 30
0.0
 11
122.34817715675111
 21
194.3704130438002
 31
0.0
  0
LINE
  5
11D13
  8
3
 10
122.36621545019371
 20
194.11186417112131
 30
0.0
 11
122.36020268571291
 21
194.1539535224876
 31
0.0
  0
LINE
  5
11D14
  8
3
 10
122.55862391358291
 20
193.8533152984424
 30
0.0
 11
122.53457285565921
 21
193.8653408274042
 31
0.0
  0
LINE
  5
11D15
  8
3
 10
122.42033033052201
 20
193.9916088815032
 30
0.0
 11
122.40830480156021
 21
194.01565993942671
 31
0.0
  0
LINE
  5
11D16
  8
3
 10
122.43235585948371
 20
193.9735705880604
 30
0.0
 11
122.42033033052201
 21
193.9916088815032
 31
0.0
  0
LINE
  5
11D17
  8
3
 10
122.44438138844561
 20
193.9495195301368
 30
0.0
 11
122.43235585948371
 21
193.9735705880604
 31
0.0
  0
LINE
  5
11D18
  8
3
 10
122.46241968188841
 20
193.93148123669411
 30
0.0
 11
122.44438138844561
 21
193.9495195301368
 31
0.0
  0
LINE
  5
11D19
  8
3
 10
122.48045797533101
 20
193.9134429432514
 30
0.0
 11
122.46241968188841
 21
193.93148123669411
 31
0.0
  0
LINE
  5
11D1A
  8
3
 10
122.49849626877381
 20
193.89540464980871
 30
0.0
 11
122.48045797533101
 21
193.9134429432514
 31
0.0
  0
LINE
  5
11D1B
  8
3
 10
122.51653456221641
 20
193.877366356366
 30
0.0
 11
122.49849626877381
 21
193.89540464980871
 31
0.0
  0
LINE
  5
11D1C
  8
3
 10
122.53457285565921
 20
193.8653408274042
 30
0.0
 11
122.51653456221641
 21
193.877366356366
 31
0.0
  0
LINE
  5
11D1D
  8
3
 10
122.58267497150641
 20
193.83527700499971
 30
0.0
 11
122.55862391358291
 21
193.8533152984424
 31
0.0
  0
LINE
  5
11D1E
  8
3
 10
122.68489196768169
 20
193.81122594707611
 30
0.0
 11
122.58267497150641
 21
193.83527700499971
 31
0.0
  0
LINE
  5
11D1F
  8
3
 10
122.73900684801001
 20
193.7992004181142
 30
0.0
 11
122.68489196768169
 21
193.81122594707611
 31
0.0
  0
LINE
  5
11D20
  8
3
 10
122.40830480156021
 20
193.27608990827551
 30
0.0
 11
122.40830480156021
 21
193.28210267275631
 31
0.0
  0
LINE
  5
11D21
  8
3
 10
122.41431756604101
 20
193.30014096619911
 30
0.0
 11
122.65482814527731
 21
193.4143834913362
 31
0.0
  0
LINE
  5
11D22
  8
3
 10
122.40830480156021
 20
193.29412820171819
 30
0.0
 11
122.41431756604101
 21
193.30014096619911
 31
0.0
  0
LINE
  5
11D23
  8
3
 10
122.40830480156021
 20
193.2881154372372
 30
0.0
 11
122.40830480156021
 21
193.29412820171819
 31
0.0
  0
LINE
  5
11D24
  8
3
 10
122.40830480156021
 20
193.28210267275631
 30
0.0
 11
122.40830480156021
 21
193.2881154372372
 31
0.0
  0
LINE
  5
11D25
  8
3
 10
122.40229203707931
 20
193.27608990827551
 30
0.0
 11
122.40830480156021
 21
193.27608990827551
 31
0.0
  0
LINE
  5
11D26
  8
3
 10
122.40229203707931
 20
193.27007714379451
 30
0.0
 11
122.40229203707931
 21
193.27608990827551
 31
0.0
  0
LINE
  5
11D27
  8
3
 10
122.40229203707931
 20
193.2640643793136
 30
0.0
 11
122.40229203707931
 21
193.27007714379451
 31
0.0
  0
LINE
  5
11D28
  8
3
 10
122.40229203707931
 20
193.25805161483271
 30
0.0
 11
122.40229203707931
 21
193.2640643793136
 31
0.0
  0
LINE
  5
11D29
  8
3
 10
122.39026650811751
 20
193.25805161483271
 30
0.0
 11
122.40229203707931
 21
193.25805161483271
 31
0.0
  0
LINE
  5
11D2A
  8
3
 10
122.38425374363651
 20
193.25805161483271
 30
0.0
 11
122.39026650811751
 21
193.25805161483271
 31
0.0
  0
LINE
  5
11D2B
  8
3
 10
122.37824097915571
 20
193.25203885035179
 30
0.0
 11
122.38425374363651
 21
193.25805161483271
 31
0.0
  0
LINE
  5
11D2C
  8
3
 10
122.37222821467481
 20
193.25203885035179
 30
0.0
 11
122.37824097915571
 21
193.25203885035179
 31
0.0
  0
LINE
  5
11D2D
  8
3
 10
122.36621545019371
 20
193.24602608587091
 30
0.0
 11
122.37222821467481
 21
193.25203885035179
 31
0.0
  0
LINE
  5
11D2E
  8
3
 10
122.36020268571291
 20
193.24602608587091
 30
0.0
 11
122.36621545019371
 21
193.24602608587091
 31
0.0
  0
LINE
  5
11D2F
  8
3
 10
122.35418992123211
 20
193.24602608587091
 30
0.0
 11
122.36020268571291
 21
193.24602608587091
 31
0.0
  0
LINE
  5
11D30
  8
3
 10
122.34817715675111
 20
193.24001332138999
 30
0.0
 11
122.35418992123211
 21
193.24602608587091
 31
0.0
  0
LINE
  5
11D31
  8
3
 10
122.34817715675111
 20
193.23400055690911
 30
0.0
 11
122.34817715675111
 21
193.24001332138999
 31
0.0
  0
LINE
  5
11D32
  8
3
 10
123.02160677861259
 20
193.76312383122871
 30
0.0
 11
122.96749189828429
 21
193.76913659570971
 31
0.0
  0
LINE
  5
11D33
  8
3
 10
122.85324937314719
 20
193.78116212467151
 30
0.0
 11
122.79312172833809
 21
193.79318765363331
 31
0.0
  0
LINE
  5
11D34
  8
3
 10
122.90736425347539
 20
193.7751493601906
 30
0.0
 11
122.85324937314719
 21
193.78116212467151
 31
0.0
  0
LINE
  5
11D35
  8
3
 10
122.96749189828429
 20
193.76913659570971
 30
0.0
 11
122.90736425347539
 21
193.7751493601906
 31
0.0
  0
LINE
  5
11D36
  8
3
 10
122.88932596003259
 20
193.5045749585498
 30
0.0
 11
123.11781101030699
 21
193.5707153678398
 31
0.0
  0
LINE
  5
11D37
  8
3
 10
123.08173442342149
 20
193.75711106674791
 30
0.0
 11
123.02160677861259
 21
193.76312383122871
 31
0.0
  0
LINE
  5
11D38
  8
3
 10
123.13584930374969
 20
193.74508553778611
 30
0.0
 11
123.08173442342149
 21
193.75711106674791
 31
0.0
  0
LINE
  5
11D39
  8
3
 10
123.18996418407799
 20
193.7390727733052
 30
0.0
 11
123.13584930374969
 21
193.74508553778611
 31
0.0
  0
LINE
  5
11D3A
  8
3
 10
123.7070619294358
 20
194.44857898205191
 30
0.0
 11
123.7070619294358
 21
194.5387704492656
 31
0.0
  0
LINE
  5
11D3B
  8
3
 10
123.3883854119477
 20
194.56883427167011
 30
0.0
 11
123.3883854119477
 21
194.442566217571
 31
0.0
  0
LINE
  5
11D3C
  8
3
 10
123.6709853425502
 20
195.36853194763049
 30
0.0
 11
123.6649725780693
 21
195.36853194763049
 31
0.0
  0
LINE
  5
11D3D
  8
3
 10
123.6048449332604
 20
195.33245536074509
 30
0.0
 11
123.5447172884512
 21
195.2542894224932
 31
0.0
  0
LINE
  5
11D3E
  8
3
 10
123.6108576977412
 20
195.3444808897068
 30
0.0
 11
123.6048449332604
 21
195.33245536074509
 31
0.0
  0
LINE
  5
11D3F
  8
3
 10
123.6168704622222
 20
195.3444808897068
 30
0.0
 11
123.6108576977412
 21
195.3444808897068
 31
0.0
  0
LINE
  5
11D40
  8
3
 10
123.6288959911838
 20
195.35049365418769
 30
0.0
 11
123.6168704622222
 21
195.3444808897068
 31
0.0
  0
LINE
  5
11D41
  8
3
 10
123.6349087556648
 20
195.35650641866869
 30
0.0
 11
123.6288959911838
 21
195.35049365418769
 31
0.0
  0
LINE
  5
11D42
  8
3
 10
123.6409215201457
 20
195.35650641866869
 30
0.0
 11
123.6349087556648
 21
195.35650641866869
 31
0.0
  0
LINE
  5
11D43
  8
3
 10
123.6469342846266
 20
195.3625191831496
 30
0.0
 11
123.6409215201457
 21
195.35650641866869
 31
0.0
  0
LINE
  5
11D44
  8
3
 10
123.6589598135884
 20
195.3625191831496
 30
0.0
 11
123.6469342846266
 21
195.3625191831496
 31
0.0
  0
LINE
  5
11D45
  8
3
 10
123.6649725780693
 20
195.36853194763049
 30
0.0
 11
123.6589598135884
 21
195.3625191831496
 31
0.0
  0
LINE
  5
11D46
  8
3
 10
123.5447172884512
 20
195.2542894224932
 30
0.0
 11
123.496615172604
 21
195.1580851907988
 31
0.0
  0
LINE
  5
11D47
  8
3
 10
123.496615172604
 20
195.1580851907988
 30
0.0
 11
123.4545258212377
 21
195.04985543014249
 31
0.0
  0
LINE
  5
11D48
  8
3
 10
123.4545258212377
 20
195.04985543014249
 30
0.0
 11
123.43047476331419
 21
194.93561290500531
 31
0.0
  0
LINE
  5
11D49
  8
3
 10
123.3943981764286
 20
194.69510232576911
 30
0.0
 11
123.3883854119477
 21
194.56883427167011
 31
0.0
  0
LINE
  5
11D4A
  8
3
 10
123.4064237053904
 20
194.8153576153872
 30
0.0
 11
123.3943981764286
 21
194.69510232576911
 31
0.0
  0
LINE
  5
11D4B
  8
3
 10
123.43047476331419
 20
194.93561290500531
 30
0.0
 11
123.4064237053904
 21
194.8153576153872
 31
0.0
  0
LINE
  5
11D4C
  8
3
 10
123.7130746939166
 20
195.16409795527969
 30
0.0
 11
123.7070619294358
 21
195.33245536074509
 31
0.0
  0
LINE
  5
11D4D
  8
3
 10
123.6769981070312
 20
195.36853194763049
 30
0.0
 11
123.6709853425502
 21
195.36853194763049
 31
0.0
  0
LINE
  5
11D4E
  8
3
 10
123.6890236359931
 20
195.3625191831496
 30
0.0
 11
123.6769981070312
 21
195.36853194763049
 31
0.0
  0
LINE
  5
11D4F
  8
3
 10
123.6950364004739
 20
195.3625191831496
 30
0.0
 11
123.6890236359931
 21
195.3625191831496
 31
0.0
  0
LINE
  5
11D50
  8
3
 10
123.6950364004739
 20
195.35650641866869
 30
0.0
 11
123.6950364004739
 21
195.3625191831496
 31
0.0
  0
LINE
  5
11D51
  8
3
 10
123.7010491649548
 20
195.3444808897068
 30
0.0
 11
123.6950364004739
 21
195.35650641866869
 31
0.0
  0
LINE
  5
11D52
  8
3
 10
123.7070619294358
 20
195.33245536074509
 30
0.0
 11
123.7010491649548
 21
195.3444808897068
 31
0.0
  0
LINE
  5
11D53
  8
3
 10
123.7130746939166
 20
194.80934485090631
 30
0.0
 11
123.7130746939166
 21
194.89953631811991
 31
0.0
  0
LINE
  5
11D54
  8
3
 10
123.7130746939166
 20
194.89953631811991
 30
0.0
 11
123.7130746939166
 21
194.9897277853334
 31
0.0
  0
LINE
  5
11D55
  8
3
 10
123.7130746939166
 20
195.07390648806609
 30
0.0
 11
123.7130746939166
 21
195.16409795527969
 31
0.0
  0
LINE
  5
11D56
  8
3
 10
123.7130746939166
 20
194.9897277853334
 30
0.0
 11
123.7130746939166
 21
195.07390648806609
 31
0.0
  0
LINE
  5
11D57
  8
3
 10
123.7070619294358
 20
194.62896191647911
 30
0.0
 11
123.7070619294358
 21
194.71915338369271
 31
0.0
  0
LINE
  5
11D58
  8
3
 10
123.7070619294358
 20
194.5387704492656
 30
0.0
 11
123.7070619294358
 21
194.62896191647911
 31
0.0
  0
LINE
  5
11D59
  8
3
 10
123.7070619294358
 20
194.71915338369271
 30
0.0
 11
123.7130746939166
 21
194.80934485090631
 31
0.0
  0
LINE
  5
11D5A
  8
3
 10
123.5747811108558
 20
193.6609068350534
 30
0.0
 11
123.8032661611301
 21
193.684957892977
 31
0.0
  0
LINE
  5
11D5B
  8
3
 10
123.4184492343522
 20
193.80521318259511
 30
0.0
 11
123.42446199883329
 21
193.684957892977
 31
0.0
  0
LINE
  5
11D5C
  8
3
 10
123.40041094090959
 20
194.08781311319771
 30
0.0
 11
123.4064237053904
 21
193.98559611702231
 31
0.0
  0
LINE
  5
11D5D
  8
3
 10
123.3883854119477
 20
194.442566217571
 30
0.0
 11
123.3883854119477
 21
194.322310927953
 31
0.0
  0
LINE
  5
11D5E
  8
3
 10
123.3883854119477
 20
194.322310927953
 30
0.0
 11
123.3943981764286
 21
194.2020556383348
 31
0.0
  0
LINE
  5
11D5F
  8
3
 10
123.3943981764286
 20
194.2020556383348
 30
0.0
 11
123.40041094090959
 21
194.08781311319771
 31
0.0
  0
LINE
  5
11D60
  8
3
 10
123.4124364698713
 20
193.88939188532771
 30
0.0
 11
123.4184492343522
 21
193.80521318259511
 31
0.0
  0
LINE
  5
11D61
  8
3
 10
123.4064237053904
 20
193.98559611702231
 30
0.0
 11
123.4124364698713
 21
193.88939188532771
 31
0.0
  0
LINE
  5
11D62
  8
3
 10
123.3823726474668
 20
193.70299618641971
 30
0.0
 11
123.33427053161959
 21
193.71502171538151
 31
0.0
  0
LINE
  5
11D63
  8
3
 10
123.33427053161959
 20
193.71502171538151
 30
0.0
 11
123.28616841577229
 21
193.7210344798624
 31
0.0
  0
LINE
  5
11D64
  8
3
 10
123.28616841577229
 20
193.7210344798624
 30
0.0
 11
123.23806629992509
 21
193.73306000882431
 31
0.0
  0
LINE
  5
11D65
  8
3
 10
123.42446199883329
 20
193.684957892977
 30
0.0
 11
123.3823726474668
 21
193.70299618641971
 31
0.0
  0
LINE
  5
11D66
  8
3
 10
123.34629606058139
 20
193.624830248168
 30
0.0
 11
123.5747811108558
 21
193.6609068350534
 31
0.0
  0
LINE
  5
11D67
  8
3
 10
123.8874448638628
 20
193.94350676565591
 30
0.0
 11
123.8453555124965
 21
193.94350676565591
 31
0.0
  0
LINE
  5
11D68
  8
3
 10
123.8453555124965
 20
193.94350676565591
 30
0.0
 11
123.8032661611301
 21
193.94350676565591
 31
0.0
  0
LINE
  5
11D69
  8
3
 10
123.9355469797101
 20
193.94350676565591
 30
0.0
 11
123.8874448638628
 21
193.94350676565591
 31
0.0
  0
LINE
  5
11D6A
  8
3
 10
124.073840562771
 20
193.94350676565591
 30
0.0
 11
124.0257384469237
 21
193.94350676565591
 31
0.0
  0
LINE
  5
11D6B
  8
3
 10
124.1159299141372
 20
193.94350676565591
 30
0.0
 11
124.073840562771
 21
193.94350676565591
 31
0.0
  0
LINE
  5
11D6C
  8
3
 10
123.9836490955573
 20
193.94350676565591
 30
0.0
 11
123.9355469797101
 21
193.94350676565591
 31
0.0
  0
LINE
  5
11D6D
  8
3
 10
124.0257384469237
 20
193.94350676565591
 30
0.0
 11
123.9836490955573
 21
193.94350676565591
 31
0.0
  0
LINE
  5
11D6E
  8
3
 10
123.7190874583975
 20
193.93148123669411
 30
0.0
 11
123.7130746939166
 21
194.01565993942671
 31
0.0
  0
LINE
  5
11D6F
  8
3
 10
123.8032661611301
 20
193.94350676565591
 30
0.0
 11
123.7190874583975
 21
193.93148123669411
 31
0.0
  0
LINE
  5
11D70
  8
3
 10
123.7070619294358
 20
194.18401734489211
 30
0.0
 11
123.7070619294358
 21
194.27420881210571
 31
0.0
  0
LINE
  5
11D71
  8
3
 10
123.7070619294358
 20
194.3583875148384
 30
0.0
 11
123.7070619294358
 21
194.44857898205191
 31
0.0
  0
LINE
  5
11D72
  8
3
 10
123.7070619294358
 20
194.27420881210571
 30
0.0
 11
123.7070619294358
 21
194.3583875148384
 31
0.0
  0
LINE
  5
11D73
  8
3
 10
123.7070619294358
 20
194.0998386421594
 30
0.0
 11
123.7070619294358
 21
194.18401734489211
 31
0.0
  0
LINE
  5
11D74
  8
3
 10
123.7130746939166
 20
194.01565993942671
 30
0.0
 11
123.7070619294358
 21
194.0998386421594
 31
0.0
  0
LINE
  5
11D75
  8
3
 10
123.8032661611301
 20
193.684957892977
 30
0.0
 11
124.0377639758854
 21
193.6969834219388
 31
0.0
  0
LINE
  5
11D76
  8
3
 10
125.0659467021204
 20
196.20430621047629
 30
0.0
 11
125.2583551655093
 21
196.02993604053
 31
0.0
  0
LINE
  5
11D77
  8
3
 10
125.0238573507539
 20
196.22835726839989
 30
0.0
 11
125.0659467021204
 21
196.20430621047629
 31
0.0
  0
LINE
  5
11D78
  8
3
 10
124.506759605396
 20
196.49291890555969
 30
0.0
 11
124.6029638370905
 21
196.4628550831552
 31
0.0
  0
LINE
  5
11D79
  8
3
 10
124.3143511420071
 20
196.541021021407
 30
0.0
 11
124.4165681381824
 21
196.51696996348329
 31
0.0
  0
LINE
  5
11D7A
  8
3
 10
124.2181469103125
 20
196.5530465503688
 30
0.0
 11
124.3143511420071
 21
196.541021021407
 31
0.0
  0
LINE
  5
11D7B
  8
3
 10
124.4165681381824
 20
196.51696996348329
 30
0.0
 11
124.506759605396
 21
196.49291890555969
 31
0.0
  0
LINE
  5
11D7C
  8
3
 10
124.6029638370905
 20
196.4628550831552
 30
0.0
 11
124.7893595359986
 21
196.3846891449034
 31
0.0
  0
LINE
  5
11D7D
  8
3
 10
125.0058190573111
 20
196.2343700328808
 30
0.0
 11
125.0238573507539
 21
196.22835726839989
 31
0.0
  0
LINE
  5
11D7E
  8
3
 10
124.9937935283494
 20
196.2463955618426
 30
0.0
 11
125.0058190573111
 21
196.2343700328808
 31
0.0
  0
LINE
  5
11D7F
  8
3
 10
124.9757552349067
 20
196.2584210908044
 30
0.0
 11
124.9937935283494
 21
196.2463955618426
 31
0.0
  0
LINE
  5
11D80
  8
3
 10
124.9577169414639
 20
196.27044661976629
 30
0.0
 11
124.9757552349067
 21
196.2584210908044
 31
0.0
  0
LINE
  5
11D81
  8
3
 10
124.9456914125022
 20
196.2764593842472
 30
0.0
 11
124.9577169414639
 21
196.27044661976629
 31
0.0
  0
LINE
  5
11D82
  8
3
 10
124.9276531190594
 20
196.288484913209
 30
0.0
 11
124.9456914125022
 21
196.2764593842472
 31
0.0
  0
LINE
  5
11D83
  8
3
 10
124.9096148256167
 20
196.30051044217069
 30
0.0
 11
124.9276531190594
 21
196.288484913209
 31
0.0
  0
LINE
  5
11D84
  8
3
 10
124.8915765321741
 20
196.3125359711326
 30
0.0
 11
124.9096148256167
 21
196.30051044217069
 31
0.0
  0
LINE
  5
11D85
  8
3
 10
124.8795510032124
 20
196.3245615000944
 30
0.0
 11
124.8915765321741
 21
196.3125359711326
 31
0.0
  0
LINE
  5
11D86
  8
3
 10
124.8615127097695
 20
196.3365870290562
 30
0.0
 11
124.8795510032124
 21
196.3245615000944
 31
0.0
  0
LINE
  5
11D87
  8
3
 10
124.8073978294413
 20
196.3726636159416
 30
0.0
 11
124.8254361228841
 21
196.3606380869798
 31
0.0
  0
LINE
  5
11D88
  8
3
 10
124.7893595359986
 20
196.3846891449034
 30
0.0
 11
124.8073978294413
 21
196.3726636159416
 31
0.0
  0
LINE
  5
11D89
  8
3
 10
124.8254361228841
 20
196.3606380869798
 30
0.0
 11
124.8434744163268
 21
196.348612558018
 31
0.0
  0
LINE
  5
11D8A
  8
3
 10
124.8434744163268
 20
196.348612558018
 30
0.0
 11
124.8615127097695
 21
196.3365870290562
 31
0.0
  0
LINE
  5
11D8B
  8
3
 10
124.777334007037
 20
193.69097065745791
 30
0.0
 11
125.0479084086776
 21
193.678945128496
 31
0.0
  0
LINE
  5
11D8C
  8
3
 10
125.7032997370962
 20
193.84128976948051
 30
0.0
 11
124.6630914818996
 21
193.8533152984424
 31
0.0
  0
LINE
  5
11D8D
  8
3
 10
124.4285936671444
 20
195.29036600937869
 30
0.0
 11
124.4225809026634
 21
193.9735705880604
 31
0.0
  0
LINE
  5
11D8E
  8
3
 10
124.645053188457
 20
194.51471939134191
 30
0.0
 11
124.6510659529378
 21
194.61693638751731
 31
0.0
  0
LINE
  5
11D8F
  8
3
 10
124.6029638370905
 20
195.07390648806609
 30
0.0
 11
124.5668872502052
 21
195.1580851907988
 31
0.0
  0
LINE
  5
11D90
  8
3
 10
124.5668872502052
 20
195.1580851907988
 30
0.0
 11
124.4646702540298
 21
195.3023915383404
 31
0.0
  0
LINE
  5
11D91
  8
3
 10
124.4285936671444
 20
195.2963787738596
 30
0.0
 11
124.4285936671444
 21
195.29036600937869
 31
0.0
  0
LINE
  5
11D92
  8
3
 10
124.4346064316252
 20
195.2963787738596
 30
0.0
 11
124.4285936671444
 21
195.2963787738596
 31
0.0
  0
LINE
  5
11D93
  8
3
 10
124.4346064316252
 20
195.3023915383404
 30
0.0
 11
124.4346064316252
 21
195.2963787738596
 31
0.0
  0
LINE
  5
11D94
  8
3
 10
124.4406191961061
 20
195.3023915383404
 30
0.0
 11
124.4346064316252
 21
195.3023915383404
 31
0.0
  0
LINE
  5
11D95
  8
3
 10
124.446631960587
 20
195.3023915383404
 30
0.0
 11
124.4406191961061
 21
195.3023915383404
 31
0.0
  0
LINE
  5
11D96
  8
3
 10
124.452644725068
 20
195.3023915383404
 30
0.0
 11
124.446631960587
 21
195.3023915383404
 31
0.0
  0
LINE
  5
11D97
  8
3
 10
124.4586574895489
 20
195.3023915383404
 30
0.0
 11
124.452644725068
 21
195.3023915383404
 31
0.0
  0
LINE
  5
11D98
  8
3
 10
124.4646702540298
 20
195.3023915383404
 30
0.0
 11
124.4586574895489
 21
195.3023915383404
 31
0.0
  0
LINE
  5
11D99
  8
3
 10
124.6270148950142
 20
194.9897277853334
 30
0.0
 11
124.6029638370905
 21
195.07390648806609
 31
0.0
  0
LINE
  5
11D9A
  8
3
 10
124.6510659529378
 20
194.80333208642531
 30
0.0
 11
124.6390404239759
 21
194.89953631811991
 31
0.0
  0
LINE
  5
11D9B
  8
3
 10
124.6510659529378
 20
194.7131406192118
 30
0.0
 11
124.6510659529378
 21
194.80333208642531
 31
0.0
  0
LINE
  5
11D9C
  8
3
 10
124.6510659529378
 20
194.61693638751731
 30
0.0
 11
124.6510659529378
 21
194.7131406192118
 31
0.0
  0
LINE
  5
11D9D
  8
3
 10
124.6390404239759
 20
194.89953631811991
 30
0.0
 11
124.6270148950142
 21
194.9897277853334
 31
0.0
  0
LINE
  5
11D9E
  8
3
 10
124.5247978988387
 20
193.6969834219388
 30
0.0
 11
124.777334007037
 21
193.69097065745791
 31
0.0
  0
LINE
  5
11D9F
  8
3
 10
124.2061213813508
 20
193.94350676565591
 30
0.0
 11
124.1640320299846
 21
193.94350676565591
 31
0.0
  0
LINE
  5
11DA0
  8
3
 10
124.2542234971981
 20
193.9495195301368
 30
0.0
 11
124.2061213813508
 21
193.94350676565591
 31
0.0
  0
LINE
  5
11DA1
  8
3
 10
124.2963128485645
 20
193.9495195301368
 30
0.0
 11
124.2542234971981
 21
193.9495195301368
 31
0.0
  0
LINE
  5
11DA2
  8
3
 10
124.3384021999306
 20
193.95553229461771
 30
0.0
 11
124.2963128485645
 21
193.9495195301368
 31
0.0
  0
LINE
  5
11DA3
  8
3
 10
124.380491551297
 20
193.96755782357951
 30
0.0
 11
124.3384021999306
 21
193.95553229461771
 31
0.0
  0
LINE
  5
11DA4
  8
3
 10
124.4225809026634
 20
193.9735705880604
 30
0.0
 11
124.380491551297
 21
193.96755782357951
 31
0.0
  0
LINE
  5
11DA5
  8
3
 10
124.2722617906409
 20
193.70299618641971
 30
0.0
 11
124.5247978988387
 21
193.6969834219388
 31
0.0
  0
LINE
  5
11DA6
  8
3
 10
124.6390404239759
 20
194.322310927953
 30
0.0
 11
124.6390404239759
 21
194.41851515964751
 31
0.0
  0
LINE
  5
11DA7
  8
3
 10
124.6390404239759
 20
194.41851515964751
 30
0.0
 11
124.645053188457
 21
194.51471939134191
 31
0.0
  0
LINE
  5
11DA8
  8
3
 10
124.6630914818996
 20
193.8533152984424
 30
0.0
 11
124.645053188457
 21
193.94350676565591
 31
0.0
  0
LINE
  5
11DA9
  8
3
 10
124.6330276594951
 20
194.03369823286951
 30
0.0
 11
124.6330276594951
 21
194.129902464564
 31
0.0
  0
LINE
  5
11DAA
  8
3
 10
124.6330276594951
 20
194.129902464564
 30
0.0
 11
124.6330276594951
 21
194.22610669625851
 31
0.0
  0
LINE
  5
11DAB
  8
3
 10
124.645053188457
 20
193.94350676565591
 30
0.0
 11
124.6330276594951
 21
194.03369823286951
 31
0.0
  0
LINE
  5
11DAC
  8
3
 10
124.6330276594951
 20
194.22610669625851
 30
0.0
 11
124.6390404239759
 21
194.322310927953
 31
0.0
  0
LINE
  5
11DAD
  8
3
 10
125.6972869726153
 20
194.953651198448
 30
0.0
 11
125.7032997370962
 21
193.84128976948051
 31
0.0
  0
LINE
  5
11DAE
  8
3
 10
125.4868402157836
 20
195.6992339940802
 30
0.0
 11
125.4988657447454
 21
195.68119570063749
 31
0.0
  0
LINE
  5
11DAF
  8
3
 10
125.4688019223409
 20
195.73531058096569
 30
0.0
 11
125.4748146868218
 21
195.71727228752289
 31
0.0
  0
LINE
  5
11DB0
  8
3
 10
125.4447508644173
 20
195.78341269681289
 30
0.0
 11
125.4688019223409
 21
195.73531058096569
 31
0.0
  0
LINE
  5
11DB1
  8
3
 10
125.4267125709745
 20
195.8014509902556
 30
0.0
 11
125.4447508644173
 21
195.78341269681289
 31
0.0
  0
LINE
  5
11DB2
  8
3
 10
125.4146870420128
 20
195.82550204817929
 30
0.0
 11
125.4267125709745
 21
195.8014509902556
 31
0.0
  0
LINE
  5
11DB3
  8
3
 10
125.4026615130509
 20
195.84354034162189
 30
0.0
 11
125.4146870420128
 21
195.82550204817929
 31
0.0
  0
LINE
  5
11DB4
  8
3
 10
125.3906359840891
 20
195.86157863506469
 30
0.0
 11
125.4026615130509
 21
195.84354034162189
 31
0.0
  0
LINE
  5
11DB5
  8
3
 10
125.3786104551273
 20
195.8796169285074
 30
0.0
 11
125.3906359840891
 21
195.86157863506469
 31
0.0
  0
LINE
  5
11DB6
  8
3
 10
125.4748146868218
 20
195.71727228752289
 30
0.0
 11
125.4868402157836
 21
195.6992339940802
 31
0.0
  0
LINE
  5
11DB7
  8
3
 10
125.3485466327229
 20
195.90968075091189
 30
0.0
 11
125.3605721616847
 21
195.8916424574692
 31
0.0
  0
LINE
  5
11DB8
  8
3
 10
125.336521103761
 20
195.9277190443546
 30
0.0
 11
125.3485466327229
 21
195.90968075091189
 31
0.0
  0
LINE
  5
11DB9
  8
3
 10
125.3184828103183
 20
195.94575733779729
 30
0.0
 11
125.336521103761
 21
195.9277190443546
 31
0.0
  0
LINE
  5
11DBA
  8
3
 10
125.3064572813565
 20
195.96379563124009
 30
0.0
 11
125.3184828103183
 21
195.94575733779729
 31
0.0
  0
LINE
  5
11DBB
  8
3
 10
125.2824062234328
 20
195.9938594536446
 30
0.0
 11
125.2944317523947
 21
195.97582116020189
 31
0.0
  0
LINE
  5
11DBC
  8
3
 10
125.2703806944711
 20
196.01189774708729
 30
0.0
 11
125.2824062234328
 21
195.9938594536446
 31
0.0
  0
LINE
  5
11DBD
  8
3
 10
125.2583551655093
 20
196.02993604053
 30
0.0
 11
125.2703806944711
 21
196.01189774708729
 31
0.0
  0
LINE
  5
11DBE
  8
3
 10
125.2944317523947
 20
195.97582116020189
 30
0.0
 11
125.3064572813565
 21
195.96379563124009
 31
0.0
  0
LINE
  5
11DBF
  8
3
 10
125.3605721616847
 20
195.8916424574692
 30
0.0
 11
125.3786104551273
 21
195.8796169285074
 31
0.0
  0
LINE
  5
11DC0
  8
3
 10
125.655197621249
 20
195.2843532448978
 30
0.0
 11
125.66121038573
 21
195.2482766580124
 31
0.0
  0
LINE
  5
11DC1
  8
3
 10
125.6491848567681
 20
195.31441706730229
 30
0.0
 11
125.655197621249
 21
195.2843532448978
 31
0.0
  0
LINE
  5
11DC2
  8
3
 10
125.6431720922871
 20
195.3444808897068
 30
0.0
 11
125.6491848567681
 21
195.31441706730229
 31
0.0
  0
LINE
  5
11DC3
  8
3
 10
125.6371593278063
 20
195.3745447121114
 30
0.0
 11
125.6431720922871
 21
195.3444808897068
 31
0.0
  0
LINE
  5
11DC4
  8
3
 10
125.6311465633255
 20
195.40460853451589
 30
0.0
 11
125.6371593278063
 21
195.3745447121114
 31
0.0
  0
LINE
  5
11DC5
  8
3
 10
125.6251337988444
 20
195.4346723569204
 30
0.0
 11
125.6311465633255
 21
195.40460853451589
 31
0.0
  0
LINE
  5
11DC6
  8
3
 10
125.6010827409208
 20
195.4707489438058
 30
0.0
 11
125.6251337988444
 21
195.4346723569204
 31
0.0
  0
LINE
  5
11DC7
  8
3
 10
125.589057211959
 20
195.4887872372486
 30
0.0
 11
125.6010827409208
 21
195.4707489438058
 31
0.0
  0
LINE
  5
11DC8
  8
3
 10
125.5770316829973
 20
195.50682553069129
 30
0.0
 11
125.589057211959
 21
195.4887872372486
 31
0.0
  0
LINE
  5
11DC9
  8
3
 10
125.5710189185163
 20
195.524863824134
 30
0.0
 11
125.5770316829973
 21
195.50682553069129
 31
0.0
  0
LINE
  5
11DCA
  8
3
 10
125.5589933895545
 20
195.54290211757669
 30
0.0
 11
125.5710189185163
 21
195.524863824134
 31
0.0
  0
LINE
  5
11DCB
  8
3
 10
125.5529806250736
 20
195.56695317550029
 30
0.0
 11
125.5589933895545
 21
195.54290211757669
 31
0.0
  0
LINE
  5
11DCC
  8
3
 10
125.5469678605927
 20
195.584991468943
 30
0.0
 11
125.5529806250736
 21
195.56695317550029
 31
0.0
  0
LINE
  5
11DCD
  8
3
 10
125.5289295671499
 20
195.62106805582849
 30
0.0
 11
125.5349423316309
 21
195.60302976238569
 31
0.0
  0
LINE
  5
11DCE
  8
3
 10
125.5169040381882
 20
195.6391063492712
 30
0.0
 11
125.5289295671499
 21
195.62106805582849
 31
0.0
  0
LINE
  5
11DCF
  8
3
 10
125.5108912737072
 20
195.6631574071948
 30
0.0
 11
125.5169040381882
 21
195.6391063492712
 31
0.0
  0
LINE
  5
11DD0
  8
3
 10
125.4988657447454
 20
195.68119570063749
 30
0.0
 11
125.5108912737072
 21
195.6631574071948
 31
0.0
  0
LINE
  5
11DD1
  8
3
 10
125.5349423316309
 20
195.60302976238569
 30
0.0
 11
125.5469678605927
 21
195.584991468943
 31
0.0
  0
LINE
  5
11DD2
  8
3
 10
125.66121038573
 20
195.2482766580124
 30
0.0
 11
125.6672231502108
 21
195.2182128356078
 31
0.0
  0
LINE
  5
11DD3
  8
3
 10
125.6972869726153
 20
194.953651198448
 30
0.0
 11
125.6972869726153
 21
194.953651198448
 31
0.0
  0
LINE
  5
11DD4
  8
3
 10
125.6912742081343
 20
195.0438426656616
 30
0.0
 11
125.6912742081343
 21
195.01377884325711
 31
0.0
  0
LINE
  5
11DD5
  8
3
 10
125.6852614436535
 20
195.07390648806609
 30
0.0
 11
125.6912742081343
 21
195.0438426656616
 31
0.0
  0
LINE
  5
11DD6
  8
3
 10
125.6792486791726
 20
195.09795754598969
 30
0.0
 11
125.6852614436535
 21
195.07390648806609
 31
0.0
  0
LINE
  5
11DD7
  8
3
 10
125.6792486791726
 20
195.12802136839429
 30
0.0
 11
125.6792486791726
 21
195.09795754598969
 31
0.0
  0
LINE
  5
11DD8
  8
3
 10
125.6732359146917
 20
195.1580851907988
 30
0.0
 11
125.6792486791726
 21
195.12802136839429
 31
0.0
  0
LINE
  5
11DD9
  8
3
 10
125.6672231502108
 20
195.18814901320329
 30
0.0
 11
125.6732359146917
 21
195.1580851907988
 31
0.0
  0
LINE
  5
11DDA
  8
3
 10
125.6672231502108
 20
195.2182128356078
 30
0.0
 11
125.6672231502108
 21
195.18814901320329
 31
0.0
  0
LINE
  5
11DDB
  8
3
 10
125.6912742081343
 20
195.01377884325711
 30
0.0
 11
125.6972869726153
 21
194.953651198448
 31
0.0
  0
LINE
  5
11DDC
  8
3
 10
125.336521103761
 20
193.6729323640152
 30
0.0
 11
125.4868402157836
 21
193.6699259817747
 31
0.0
  0
LINE
  5
11DDD
  8
3
 10
125.0479084086776
 20
193.678945128496
 30
0.0
 11
125.336521103761
 21
193.6729323640152
 31
0.0
  0
LINE
  5
11DDE
  8
3
 10
124.1399809720609
 20
189.8247630962359
 30
0.0
 11
124.0978916206946
 21
189.8247630962359
 31
0.0
  0
LINE
  5
11DDF
  8
3
 10
124.073840562771
 20
189.4279206404961
 30
0.0
 11
124.13396820758
 21
189.4459589339389
 31
0.0
  0
LINE
  5
11DE0
  8
3
 10
124.1219426786182
 20
192.43430288094871
 30
0.0
 11
124.1700447944654
 21
192.43430288094871
 31
0.0
  0
LINE
  5
11DE1
  8
3
 10
124.3083383775263
 20
192.59063475745231
 30
0.0
 11
124.1099171496565
 21
192.59063475745231
 31
0.0
  0
LINE
  5
11DE2
  8
3
 10
123.25610459336779
 20
189.9991332661821
 30
0.0
 11
123.26211735784869
 21
189.89090350552581
 31
0.0
  0
LINE
  5
11DE3
  8
3
 10
122.36621545019371
 20
189.98109497273941
 30
0.0
 11
122.34216439227021
 21
190.05926091099121
 31
0.0
  0
LINE
  5
11DE4
  8
3
 10
123.6228832267031
 20
189.81875033175501
 30
0.0
 11
123.6168704622222
 21
191.19567339788219
 31
0.0
  0
LINE
  5
11DE5
  8
3
 10
123.21401524200149
 20
192.47639223231511
 30
0.0
 11
123.1779386551159
 21
192.46436670335319
 31
0.0
  0
LINE
  5
11DE6
  8
3
 10
123.15388759719229
 20
192.22385612411711
 30
0.0
 11
123.22002800648229
 21
192.25993271100251
 31
0.0
  0
LINE
  5
11DE7
  8
3
 10
122.47444521085021
 20
191.4722605640039
 30
0.0
 11
122.49248350429281
 21
191.50232438640839
 31
0.0
  0
LINE
  5
11DE8
  8
3
 10
122.72698131904809
 20
191.8630902552627
 30
0.0
 11
122.78109619937629
 21
191.92321790007179
 31
0.0
  0
LINE
  5
11DE9
  8
3
 10
122.76907067041439
 20
192.27195823996431
 30
0.0
 11
122.73299408352911
 21
192.24790718204071
 31
0.0
  0
LINE
  5
11DEA
  8
3
 10
122.41431756604101
 20
191.98935830936171
 30
0.0
 11
122.34817715675111
 21
191.92321790007179
 31
0.0
  0
LINE
  5
11DEB
  8
3
 10
122.45039415292661
 20
192.01942213176631
 30
0.0
 11
122.41431756604101
 21
191.98935830936171
 31
0.0
  0
LINE
  5
11DEC
  8
3
 10
122.48647073981191
 20
192.04948595417079
 30
0.0
 11
122.45039415292661
 21
192.01942213176631
 31
0.0
  0
LINE
  5
11DED
  8
3
 10
122.63077708735359
 20
191.72479667220199
 30
0.0
 11
122.67887920320079
 21
191.79694984597279
 31
0.0
  0
LINE
  5
11DEE
  8
3
 10
122.67887920320079
 20
191.79694984597279
 30
0.0
 11
122.72698131904809
 21
191.8630902552627
 31
0.0
  0
LINE
  5
11DEF
  8
3
 10
122.58868773598741
 20
191.6646690273929
 30
0.0
 11
122.63077708735359
 21
191.72479667220199
 31
0.0
  0
LINE
  5
11DF0
  8
3
 10
122.56463667806371
 20
191.6346052049883
 30
0.0
 11
122.58868773598741
 21
191.6646690273929
 31
0.0
  0
LINE
  5
11DF1
  8
3
 10
122.54659838462101
 20
191.5985286181029
 30
0.0
 11
122.56463667806371
 21
191.6346052049883
 31
0.0
  0
LINE
  5
11DF2
  8
3
 10
122.52856009117841
 20
191.56846479569839
 30
0.0
 11
122.54659838462101
 21
191.5985286181029
 31
0.0
  0
LINE
  5
11DF3
  8
3
 10
122.51052179773551
 20
191.5384009732939
 30
0.0
 11
122.52856009117841
 21
191.56846479569839
 31
0.0
  0
LINE
  5
11DF4
  8
3
 10
122.49248350429281
 20
191.50232438640839
 30
0.0
 11
122.51052179773551
 21
191.5384009732939
 31
0.0
  0
LINE
  5
11DF5
  8
3
 10
122.55261114910191
 20
192.10961359897991
 30
0.0
 11
122.51653456221641
 21
192.07954977657539
 31
0.0
  0
LINE
  5
11DF6
  8
3
 10
122.58868773598741
 20
192.13967742138439
 30
0.0
 11
122.55261114910191
 21
192.10961359897991
 31
0.0
  0
LINE
  5
11DF7
  8
3
 10
122.61875155839191
 20
192.16372847930799
 30
0.0
 11
122.58868773598741
 21
192.13967742138439
 31
0.0
  0
LINE
  5
11DF8
  8
3
 10
122.65482814527731
 20
192.19379230171251
 30
0.0
 11
122.61875155839191
 21
192.16372847930799
 31
0.0
  0
LINE
  5
11DF9
  8
3
 10
122.69090473216271
 20
192.21784335963611
 30
0.0
 11
122.65482814527731
 21
192.19379230171251
 31
0.0
  0
LINE
  5
11DFA
  8
3
 10
122.73299408352911
 20
192.24790718204071
 30
0.0
 11
122.69090473216271
 21
192.21784335963611
 31
0.0
  0
LINE
  5
11DFB
  8
3
 10
122.51653456221641
 20
192.07954977657539
 30
0.0
 11
122.48647073981191
 21
192.04948595417079
 31
0.0
  0
LINE
  5
11DFC
  8
3
 10
123.14186206823069
 20
192.45234117439151
 30
0.0
 11
123.10578548134519
 21
192.44031564542959
 31
0.0
  0
LINE
  5
11DFD
  8
3
 10
123.1779386551159
 20
192.46436670335319
 30
0.0
 11
123.14186206823069
 21
192.45234117439151
 31
0.0
  0
LINE
  5
11DFE
  8
3
 10
123.00356848516979
 20
192.39822629406331
 30
0.0
 11
122.94945360484159
 21
192.36214970717791
 31
0.0
  0
LINE
  5
11DFF
  8
3
 10
123.03964507205529
 20
192.41025182302519
 30
0.0
 11
123.00356848516979
 21
192.39822629406331
 31
0.0
  0
LINE
  5
11E00
  8
3
 10
123.06970889445969
 20
192.42227735198691
 30
0.0
 11
123.03964507205529
 21
192.41025182302519
 31
0.0
  0
LINE
  5
11E01
  8
3
 10
123.10578548134519
 20
192.44031564542959
 30
0.0
 11
123.06970889445969
 21
192.42227735198691
 31
0.0
  0
LINE
  5
11E02
  8
3
 10
122.81116002178079
 20
192.29600929788791
 30
0.0
 11
122.76907067041439
 21
192.27195823996431
 31
0.0
  0
LINE
  5
11E03
  8
3
 10
122.85324937314719
 20
192.32006035581151
 30
0.0
 11
122.81116002178079
 21
192.29600929788791
 31
0.0
  0
LINE
  5
11E04
  8
3
 10
122.90135148899439
 20
192.34411141373519
 30
0.0
 11
122.85324937314719
 21
192.32006035581151
 31
0.0
  0
LINE
  5
11E05
  8
3
 10
122.94945360484159
 20
192.36214970717791
 30
0.0
 11
122.90135148899439
 21
192.34411141373519
 31
0.0
  0
LINE
  5
11E06
  8
3
 10
122.78109619937629
 20
191.92321790007179
 30
0.0
 11
122.83521107970449
 21
191.9833455448809
 31
0.0
  0
LINE
  5
11E07
  8
3
 10
122.83521107970449
 20
191.9833455448809
 30
0.0
 11
122.89533872451349
 21
192.03746042520899
 31
0.0
  0
LINE
  5
11E08
  8
3
 10
123.08173442342149
 20
192.18176677275071
 30
0.0
 11
123.15388759719229
 21
192.22385612411711
 31
0.0
  0
LINE
  5
11E09
  8
3
 10
122.95546636932259
 20
192.09157530553711
 30
0.0
 11
123.02160677861259
 21
192.13366465690351
 31
0.0
  0
LINE
  5
11E0A
  8
3
 10
123.02160677861259
 20
192.13366465690351
 30
0.0
 11
123.08173442342149
 21
192.18176677275071
 31
0.0
  0
LINE
  5
11E0B
  8
3
 10
122.89533872451349
 20
192.03746042520899
 30
0.0
 11
122.95546636932259
 21
192.09157530553711
 31
0.0
  0
LINE
  5
11E0C
  8
3
 10
122.40229203707931
 20
191.29789039405759
 30
0.0
 11
122.41431756604101
 21
191.3339669809431
 31
0.0
  0
LINE
  5
11E0D
  8
3
 10
122.38425374363651
 20
191.26181380717219
 30
0.0
 11
122.40229203707931
 21
191.29789039405759
 31
0.0
  0
LINE
  5
11E0E
  8
3
 10
122.37222821467481
 20
191.22573722028679
 30
0.0
 11
122.38425374363651
 21
191.26181380717219
 31
0.0
  0
LINE
  5
11E0F
  8
3
 10
122.36621545019371
 20
191.1836478689205
 30
0.0
 11
122.37222821467481
 21
191.22573722028679
 31
0.0
  0
LINE
  5
11E10
  8
3
 10
122.34216439227021
 20
191.0273159924169
 30
0.0
 11
122.36621545019371
 21
191.1836478689205
 31
0.0
  0
LINE
  5
11E11
  8
3
 10
122.33013886330841
 20
190.94915005416519
 30
0.0
 11
122.34216439227021
 21
191.0273159924169
 31
0.0
  0
LINE
  5
11E12
  8
3
 10
122.42634309500291
 20
191.3700435678285
 30
0.0
 11
122.44438138844561
 21
191.4061201547139
 31
0.0
  0
LINE
  5
11E13
  8
3
 10
122.45640691740741
 20
191.4361839771185
 30
0.0
 11
122.47444521085021
 21
191.4722605640039
 31
0.0
  0
LINE
  5
11E14
  8
3
 10
122.44438138844561
 20
191.4061201547139
 30
0.0
 11
122.45640691740741
 21
191.4361839771185
 31
0.0
  0
LINE
  5
11E15
  8
3
 10
122.41431756604101
 20
191.3339669809431
 30
0.0
 11
122.42634309500291
 21
191.3700435678285
 31
0.0
  0
LINE
  5
11E16
  8
3
 10
122.31811333434661
 20
190.87098411591339
 30
0.0
 11
122.33013886330841
 21
190.94915005416519
 31
0.0
  0
LINE
  5
11E17
  8
3
 10
122.34216439227021
 20
190.05926091099121
 30
0.0
 11
122.31811333434661
 21
190.1314140847621
 31
0.0
  0
LINE
  5
11E18
  8
3
 10
123.5206662305277
 20
192.38018800062059
 30
0.0
 11
123.6830108715121
 21
192.42227735198691
 31
0.0
  0
LINE
  5
11E19
  8
3
 10
123.7792151032065
 20
192.57860922849051
 30
0.0
 11
123.6589598135884
 21
192.57860922849051
 31
0.0
  0
LINE
  5
11E1A
  8
3
 10
123.36433435402409
 20
192.52449434816231
 30
0.0
 11
123.3222450026577
 21
192.51246881920051
 31
0.0
  0
LINE
  5
11E1B
  8
3
 10
123.29218118025319
 20
192.29600929788791
 30
0.0
 11
123.36433435402409
 21
192.32607312029251
 31
0.0
  0
LINE
  5
11E1C
  8
3
 10
123.3222450026577
 20
192.51246881920051
 30
0.0
 11
123.28616841577229
 21
192.50044329023871
 31
0.0
  0
LINE
  5
11E1D
  8
3
 10
123.2500918288868
 20
192.48841776127691
 30
0.0
 11
123.21401524200149
 21
192.47639223231511
 31
0.0
  0
LINE
  5
11E1E
  8
3
 10
123.28616841577229
 20
192.50044329023871
 30
0.0
 11
123.2500918288868
 21
192.48841776127691
 31
0.0
  0
LINE
  5
11E1F
  8
3
 10
123.22002800648229
 20
192.25993271100251
 30
0.0
 11
123.29218118025319
 21
192.29600929788791
 31
0.0
  0
LINE
  5
11E20
  8
3
 10
123.44250029227589
 20
192.35613694269699
 30
0.0
 11
123.5206662305277
 21
192.38018800062059
 31
0.0
  0
LINE
  5
11E21
  8
3
 10
123.36433435402409
 20
192.32607312029251
 30
0.0
 11
123.44250029227589
 21
192.35613694269699
 31
0.0
  0
LINE
  5
11E22
  8
3
 10
123.6589598135884
 20
192.57860922849051
 30
0.0
 11
123.5206662305277
 21
192.56658369952859
 31
0.0
  0
LINE
  5
11E23
  8
3
 10
123.4785768791612
 20
192.56057093504771
 30
0.0
 11
123.44250029227589
 21
192.54854540608591
 31
0.0
  0
LINE
  5
11E24
  8
3
 10
123.5206662305277
 20
192.56658369952859
 30
0.0
 11
123.4785768791612
 21
192.56057093504771
 31
0.0
  0
LINE
  5
11E25
  8
3
 10
123.40041094090959
 20
192.53651987712419
 30
0.0
 11
123.36433435402409
 21
192.52449434816231
 31
0.0
  0
LINE
  5
11E26
  8
3
 10
123.44250029227589
 20
192.54854540608591
 30
0.0
 11
123.40041094090959
 21
192.53651987712419
 31
0.0
  0
LINE
  5
11E27
  8
3
 10
123.9295342152293
 20
192.58462199297139
 30
0.0
 11
123.7792151032065
 21
192.57860922849051
 31
0.0
  0
LINE
  5
11E28
  8
3
 10
123.8453555124965
 20
192.44031564542959
 30
0.0
 11
123.8994703928246
 21
192.44031564542959
 31
0.0
  0
LINE
  5
11E29
  8
3
 10
123.7912406321684
 20
192.43430288094871
 30
0.0
 11
123.8453555124965
 21
192.44031564542959
 31
0.0
  0
LINE
  5
11E2A
  8
3
 10
123.8994703928246
 20
192.44031564542959
 30
0.0
 11
123.9595980376337
 21
192.44031564542959
 31
0.0
  0
LINE
  5
11E2B
  8
3
 10
124.06782779829
 20
192.44031564542959
 30
0.0
 11
124.1219426786182
 21
192.43430288094871
 31
0.0
  0
LINE
  5
11E2C
  8
3
 10
123.9595980376337
 20
192.44031564542959
 30
0.0
 11
124.0137129179618
 21
192.44031564542959
 31
0.0
  0
LINE
  5
11E2D
  8
3
 10
124.1099171496565
 20
192.59063475745231
 30
0.0
 11
123.9295342152293
 21
192.58462199297139
 31
0.0
  0
LINE
  5
11E2E
  8
3
 10
124.0137129179618
 20
192.44031564542959
 30
0.0
 11
124.06782779829
 21
192.44031564542959
 31
0.0
  0
LINE
  5
11E2F
  8
3
 10
123.7371257518402
 20
192.43430288094871
 30
0.0
 11
123.7912406321684
 21
192.43430288094871
 31
0.0
  0
LINE
  5
11E30
  8
3
 10
123.6830108715121
 20
192.42227735198691
 30
0.0
 11
123.7371257518402
 21
192.43430288094871
 31
0.0
  0
LINE
  5
11E31
  8
3
 10
123.29218118025319
 20
190.76876711973799
 30
0.0
 11
123.28616841577229
 21
190.65452459460079
 31
0.0
  0
LINE
  5
11E32
  8
3
 10
123.34629606058139
 20
190.9311117607225
 30
0.0
 11
123.32825776713869
 21
190.91307346727979
 31
0.0
  0
LINE
  5
11E33
  8
3
 10
123.3102194736958
 20
190.8769968803943
 30
0.0
 11
123.29218118025319
 21
190.76876711973799
 31
0.0
  0
LINE
  5
11E34
  8
3
 10
123.32825776713869
 20
190.91307346727979
 30
0.0
 11
123.3102194736958
 21
190.8769968803943
 31
0.0
  0
LINE
  5
11E35
  8
3
 10
123.6168704622222
 20
191.19567339788219
 30
0.0
 11
123.5988321687795
 21
191.19567339788219
 31
0.0
  0
LINE
  5
11E36
  8
3
 10
123.556742817413
 20
191.1776351044395
 30
0.0
 11
123.5326917594894
 21
191.1595968109969
 31
0.0
  0
LINE
  5
11E37
  8
3
 10
123.5747811108558
 20
191.18966063340139
 30
0.0
 11
123.556742817413
 21
191.1776351044395
 31
0.0
  0
LINE
  5
11E38
  8
3
 10
123.5988321687795
 20
191.19567339788219
 30
0.0
 11
123.5747811108558
 21
191.18966063340139
 31
0.0
  0
LINE
  5
11E39
  8
3
 10
123.4665513501995
 20
191.08744363722599
 30
0.0
 11
123.44250029227589
 21
191.06339257930239
 31
0.0
  0
LINE
  5
11E3A
  8
3
 10
123.4906024081231
 20
191.1175074596305
 30
0.0
 11
123.4665513501995
 21
191.08744363722599
 31
0.0
  0
LINE
  5
11E3B
  8
3
 10
123.50864070156589
 20
191.13554575307319
 30
0.0
 11
123.4906024081231
 21
191.1175074596305
 31
0.0
  0
LINE
  5
11E3C
  8
3
 10
123.5326917594894
 20
191.1595968109969
 30
0.0
 11
123.50864070156589
 21
191.13554575307319
 31
0.0
  0
LINE
  5
11E3D
  8
3
 10
123.35832158954319
 20
190.9551628186461
 30
0.0
 11
123.34629606058139
 21
190.9311117607225
 31
0.0
  0
LINE
  5
11E3E
  8
3
 10
123.37635988298599
 20
190.98522664105059
 30
0.0
 11
123.35832158954319
 21
190.9551628186461
 31
0.0
  0
LINE
  5
11E3F
  8
3
 10
123.40041094090959
 20
191.00927769897419
 30
0.0
 11
123.37635988298599
 21
190.98522664105059
 31
0.0
  0
LINE
  5
11E40
  8
3
 10
123.4184492343522
 20
191.0393415213787
 30
0.0
 11
123.40041094090959
 21
191.00927769897419
 31
0.0
  0
LINE
  5
11E41
  8
3
 10
123.44250029227589
 20
191.06339257930239
 30
0.0
 11
123.4184492343522
 21
191.0393415213787
 31
0.0
  0
LINE
  5
11E42
  8
3
 10
123.25610459336779
 20
190.1073630268385
 30
0.0
 11
123.25610459336779
 21
189.9991332661821
 31
0.0
  0
LINE
  5
11E43
  8
3
 10
123.26211735784869
 20
190.32382254815101
 30
0.0
 11
123.26211735784869
 21
190.2155927874947
 31
0.0
  0
LINE
  5
11E44
  8
3
 10
123.26211735784869
 20
190.2155927874947
 30
0.0
 11
123.25610459336779
 21
190.1073630268385
 31
0.0
  0
LINE
  5
11E45
  8
3
 10
123.26813012232969
 20
190.4320523088073
 30
0.0
 11
123.26211735784869
 21
190.32382254815101
 31
0.0
  0
LINE
  5
11E46
  8
3
 10
123.27414288681059
 20
190.5462948339445
 30
0.0
 11
123.26813012232969
 21
190.4320523088073
 31
0.0
  0
LINE
  5
11E47
  8
3
 10
123.28616841577229
 20
190.65452459460079
 30
0.0
 11
123.27414288681059
 21
190.5462948339445
 31
0.0
  0
LINE
  5
11E48
  8
3
 10
123.02761954309339
 20
189.65039292628961
 30
0.0
 11
123.27414288681059
 21
189.6564056907705
 31
0.0
  0
ARC
  5
11E49
  8
3
 10
123.1424861284714
 20
189.62852963006151
 30
0.0
 40
0.1345755430122404
 50
11.954837379828771
 51
84.968359139189019
  0
LINE
  5
11E4A
  8
3
 10
122.79913449281899
 20
189.78868650935041
 30
0.0
 11
122.74501961249101
 21
189.79469927383141
 31
0.0
  0
LINE
  5
11E4B
  8
3
 10
122.73299408352911
 20
189.64438016180881
 30
0.0
 11
122.78710896385719
 21
189.64438016180881
 31
0.0
  0
LINE
  5
11E4C
  8
3
 10
122.48647073981191
 20
189.85482691864041
 30
0.0
 11
122.39627927259831
 21
189.90292903448761
 31
0.0
  0
LINE
  5
11E4D
  8
3
 10
122.39627927259831
 20
189.90292903448761
 30
0.0
 11
122.36621545019371
 21
189.98109497273941
 31
0.0
  0
LINE
  5
11E4E
  8
3
 10
122.53457285565921
 20
189.8367886251977
 30
0.0
 11
122.48647073981191
 21
189.85482691864041
 31
0.0
  0
LINE
  5
11E4F
  8
3
 10
122.58868773598741
 20
189.81875033175501
 30
0.0
 11
122.53457285565921
 21
189.8367886251977
 31
0.0
  0
LINE
  5
11E50
  8
3
 10
122.63678985183449
 20
189.80672480279321
 30
0.0
 11
122.58868773598741
 21
189.81875033175501
 31
0.0
  0
LINE
  5
11E51
  8
3
 10
122.69090473216271
 20
189.80071203831221
 30
0.0
 11
122.63678985183449
 21
189.80672480279321
 31
0.0
  0
LINE
  5
11E52
  8
3
 10
122.74501961249101
 20
189.79469927383141
 30
0.0
 11
122.69090473216271
 21
189.80071203831221
 31
0.0
  0
LINE
  5
11E53
  8
3
 10
122.68489196768169
 20
189.64438016180881
 30
0.0
 11
122.73299408352911
 21
189.64438016180881
 31
0.0
  0
LINE
  5
11E54
  8
3
 10
122.64280261631551
 20
189.64438016180881
 30
0.0
 11
122.68489196768169
 21
189.64438016180881
 31
0.0
  0
LINE
  5
11E55
  8
3
 10
122.60672602943001
 20
189.64438016180881
 30
0.0
 11
122.64280261631551
 21
189.64438016180881
 31
0.0
  0
LINE
  5
11E56
  8
3
 10
122.57064944254461
 20
189.64438016180881
 30
0.0
 11
122.60672602943001
 21
189.64438016180881
 31
0.0
  0
LINE
  5
11E57
  8
3
 10
122.53457285565921
 20
189.64438016180881
 30
0.0
 11
122.57064944254461
 21
189.64438016180881
 31
0.0
  0
LINE
  5
11E58
  8
3
 10
122.49849626877381
 20
189.64438016180881
 30
0.0
 11
122.53457285565921
 21
189.64438016180881
 31
0.0
  0
LINE
  5
11E59
  8
3
 10
122.46241968188841
 20
189.64438016180881
 30
0.0
 11
122.49849626877381
 21
189.64438016180881
 31
0.0
  0
LINE
  5
11E5A
  8
3
 10
122.41431756604101
 20
189.63836739732781
 30
0.0
 11
122.46241968188841
 21
189.64438016180881
 31
0.0
  0
LINE
  5
11E5B
  8
3
 10
122.36020268571291
 20
189.6323546328469
 30
0.0
 11
122.41431756604101
 21
189.63836739732781
 31
0.0
  0
LINE
  5
11E5C
  8
3
 10
123.15428919290601
 20
189.76258657485391
 30
0.0
 11
123.08173442342149
 21
189.7706482159077
 31
0.0
  0
LINE
  5
11E5D
  8
3
 10
122.85926213762799
 20
189.7826737448695
 30
0.0
 11
122.79913449281899
 21
189.78868650935041
 31
0.0
  0
LINE
  5
11E5E
  8
3
 10
122.91337701795609
 20
189.7826737448695
 30
0.0
 11
122.85926213762799
 21
189.7826737448695
 31
0.0
  0
LINE
  5
11E5F
  8
3
 10
122.96749189828429
 20
189.7766609803887
 30
0.0
 11
122.91337701795609
 21
189.7826737448695
 31
0.0
  0
LINE
  5
11E60
  8
3
 10
123.02761954309339
 20
189.7766609803887
 30
0.0
 11
122.96749189828429
 21
189.7766609803887
 31
0.0
  0
LINE
  5
11E61
  8
3
 10
122.93141531139889
 20
189.64438016180881
 30
0.0
 11
123.02761954309339
 21
189.65039292628961
 31
0.0
  0
LINE
  5
11E62
  8
3
 10
122.85324937314719
 20
189.64438016180881
 30
0.0
 11
122.93141531139889
 21
189.64438016180881
 31
0.0
  0
LINE
  5
11E63
  8
3
 10
122.78710896385719
 20
189.64438016180881
 30
0.0
 11
122.85324937314719
 21
189.64438016180881
 31
0.0
  0
LINE
  5
11E64
  8
3
 10
123.08173442342149
 20
189.7706482159077
 30
0.0
 11
123.02761954309339
 21
189.7766609803887
 31
0.0
  0
LINE
  5
11E65
  8
3
 10
123.58680663981769
 20
189.12126965197001
 30
0.0
 11
123.6830108715121
 21
189.2294994126263
 31
0.0
  0
LINE
  5
11E66
  8
3
 10
123.6709853425502
 20
189.8127375672741
 30
0.0
 11
123.6649725780693
 21
189.8127375672741
 31
0.0
  0
LINE
  5
11E67
  8
3
 10
123.30420670921509
 20
189.34374193776341
 30
0.0
 11
123.33427053161959
 21
189.12126965197001
 31
0.0
  0
LINE
  5
11E68
  8
3
 10
123.28015565129139
 20
189.56621422355701
 30
0.0
 11
123.29218118025319
 21
189.4579844629007
 31
0.0
  0
LINE
  5
11E69
  8
3
 10
123.29218118025319
 20
189.4579844629007
 30
0.0
 11
123.30420670921509
 21
189.34374193776341
 31
0.0
  0
LINE
  5
11E6A
  8
3
 10
123.26211735784869
 20
189.89090350552581
 30
0.0
 11
123.26211735784869
 21
189.7826737448695
 31
0.0
  0
LINE
  5
11E6B
  8
3
 10
123.26211735784869
 20
189.7826737448695
 30
0.0
 11
123.27414288681059
 21
189.67444398421321
 31
0.0
  0
LINE
  5
11E6C
  8
3
 10
123.27414288681059
 20
189.6564056907705
 30
0.0
 11
123.27414288681059
 21
189.67444398421321
 31
0.0
  0
LINE
  5
11E6D
  8
3
 10
123.27414288681059
 20
189.67444398421321
 30
0.0
 11
123.28015565129139
 21
189.56621422355701
 31
0.0
  0
LINE
  5
11E6E
  8
3
 10
123.6288959911838
 20
189.81875033175501
 30
0.0
 11
123.6228832267031
 21
189.81875033175501
 31
0.0
  0
LINE
  5
11E6F
  8
3
 10
123.6349087556648
 20
189.81875033175501
 30
0.0
 11
123.6288959911838
 21
189.81875033175501
 31
0.0
  0
LINE
  5
11E70
  8
3
 10
123.6409215201457
 20
189.81875033175501
 30
0.0
 11
123.6349087556648
 21
189.81875033175501
 31
0.0
  0
LINE
  5
11E71
  8
3
 10
123.6469342846266
 20
189.81875033175501
 30
0.0
 11
123.6409215201457
 21
189.81875033175501
 31
0.0
  0
LINE
  5
11E72
  8
3
 10
123.6469342846266
 20
189.8127375672741
 30
0.0
 11
123.6469342846266
 21
189.81875033175501
 31
0.0
  0
LINE
  5
11E73
  8
3
 10
123.6529470491075
 20
189.8127375672741
 30
0.0
 11
123.6469342846266
 21
189.8127375672741
 31
0.0
  0
LINE
  5
11E74
  8
3
 10
123.6589598135884
 20
189.8127375672741
 30
0.0
 11
123.6529470491075
 21
189.8127375672741
 31
0.0
  0
LINE
  5
11E75
  8
3
 10
123.6649725780693
 20
189.8127375672741
 30
0.0
 11
123.6589598135884
 21
189.8127375672741
 31
0.0
  0
LINE
  5
11E76
  8
3
 10
123.33427053161959
 20
189.11525688748901
 30
0.0
 11
123.34629606058139
 21
189.11525688748901
 31
0.0
  0
LINE
  5
11E77
  8
3
 10
123.33427053161959
 20
189.12126965197001
 30
0.0
 11
123.33427053161959
 21
189.11525688748901
 31
0.0
  0
LINE
  5
11E78
  8
3
 10
123.5507300529322
 20
189.11525688748901
 30
0.0
 11
123.58680663981769
 21
189.12126965197001
 31
0.0
  0
LINE
  5
11E79
  8
3
 10
123.5326917594894
 20
189.10924412300821
 30
0.0
 11
123.5507300529322
 21
189.11525688748901
 31
0.0
  0
LINE
  5
11E7A
  8
3
 10
123.4665513501995
 20
189.1032313585273
 30
0.0
 11
123.4906024081231
 21
189.1032313585273
 31
0.0
  0
LINE
  5
11E7B
  8
3
 10
123.44851305675679
 20
189.1032313585273
 30
0.0
 11
123.4665513501995
 21
189.1032313585273
 31
0.0
  0
LINE
  5
11E7C
  8
3
 10
123.4906024081231
 20
189.1032313585273
 30
0.0
 11
123.5146534660467
 21
189.10924412300821
 31
0.0
  0
LINE
  5
11E7D
  8
3
 10
123.5146534660467
 20
189.10924412300821
 30
0.0
 11
123.5326917594894
 21
189.10924412300821
 31
0.0
  0
LINE
  5
11E7E
  8
3
 10
123.4064237053904
 20
189.1032313585273
 30
0.0
 11
123.42446199883329
 21
189.1032313585273
 31
0.0
  0
LINE
  5
11E7F
  8
3
 10
123.3883854119477
 20
189.1032313585273
 30
0.0
 11
123.4064237053904
 21
189.1032313585273
 31
0.0
  0
LINE
  5
11E80
  8
3
 10
123.35832158954319
 20
189.10924412300821
 30
0.0
 11
123.37034711850499
 21
189.10924412300821
 31
0.0
  0
LINE
  5
11E81
  8
3
 10
123.34629606058139
 20
189.11525688748901
 30
0.0
 11
123.35832158954319
 21
189.10924412300821
 31
0.0
  0
LINE
  5
11E82
  8
3
 10
123.37034711850499
 20
189.10924412300821
 30
0.0
 11
123.3883854119477
 21
189.1032313585273
 31
0.0
  0
LINE
  5
11E83
  8
3
 10
123.42446199883329
 20
189.1032313585273
 30
0.0
 11
123.44851305675679
 21
189.1032313585273
 31
0.0
  0
LINE
  5
11E84
  8
3
 10
123.8694065704201
 20
189.81875033175501
 30
0.0
 11
123.8333299835348
 21
189.81875033175501
 31
0.0
  0
LINE
  5
11E85
  8
3
 10
123.8333299835348
 20
189.3317164088017
 30
0.0
 11
123.8934576283438
 21
189.36178023120621
 31
0.0
  0
LINE
  5
11E86
  8
3
 10
123.8333299835348
 20
189.81875033175501
 30
0.0
 11
123.7972533966493
 21
189.8127375672741
 31
0.0
  0
LINE
  5
11E87
  8
3
 10
123.7792151032065
 20
189.3016525863971
 30
0.0
 11
123.8333299835348
 21
189.3317164088017
 31
0.0
  0
LINE
  5
11E88
  8
3
 10
123.941559744191
 20
189.81875033175501
 30
0.0
 11
123.9054831573057
 21
189.81875033175501
 31
0.0
  0
LINE
  5
11E89
  8
3
 10
123.8934576283438
 20
189.36178023120621
 30
0.0
 11
123.9475725086719
 21
189.38583128912981
 31
0.0
  0
LINE
  5
11E8A
  8
3
 10
123.9054831573057
 20
189.81875033175501
 30
0.0
 11
123.8694065704201
 21
189.81875033175501
 31
0.0
  0
LINE
  5
11E8B
  8
3
 10
124.0978916206946
 20
189.8247630962359
 30
0.0
 11
124.0558022693281
 21
189.81875033175501
 31
0.0
  0
LINE
  5
11E8C
  8
3
 10
123.9776363310765
 20
189.81875033175501
 30
0.0
 11
123.941559744191
 21
189.81875033175501
 31
0.0
  0
LINE
  5
11E8D
  8
3
 10
124.0137129179618
 20
189.81875033175501
 30
0.0
 11
123.9776363310765
 21
189.81875033175501
 31
0.0
  0
LINE
  5
11E8E
  8
3
 10
123.9475725086719
 20
189.38583128912981
 30
0.0
 11
124.0137129179618
 21
189.40988234705341
 31
0.0
  0
LINE
  5
11E8F
  8
3
 10
124.0558022693281
 20
189.81875033175501
 30
0.0
 11
124.0137129179618
 21
189.81875033175501
 31
0.0
  0
LINE
  5
11E90
  8
3
 10
124.0137129179618
 20
189.40988234705341
 30
0.0
 11
124.073840562771
 21
189.4279206404961
 31
0.0
  0
LINE
  5
11E91
  8
3
 10
123.7311129873593
 20
189.2655759995117
 30
0.0
 11
123.7792151032065
 21
189.3016525863971
 31
0.0
  0
LINE
  5
11E92
  8
3
 10
123.7972533966493
 20
189.8127375672741
 30
0.0
 11
123.7611768097639
 21
189.8127375672741
 31
0.0
  0
LINE
  5
11E93
  8
3
 10
123.6769981070312
 20
189.8127375672741
 30
0.0
 11
123.6709853425502
 21
189.8127375672741
 31
0.0
  0
LINE
  5
11E94
  8
3
 10
123.6830108715121
 20
189.8127375672741
 30
0.0
 11
123.6769981070312
 21
189.8127375672741
 31
0.0
  0
LINE
  5
11E95
  8
3
 10
123.6890236359931
 20
189.80672480279321
 30
0.0
 11
123.6830108715121
 21
189.8127375672741
 31
0.0
  0
LINE
  5
11E96
  8
3
 10
123.7611768097639
 20
189.8127375672741
 30
0.0
 11
123.6890236359931
 21
189.80672480279321
 31
0.0
  0
LINE
  5
11E97
  8
3
 10
123.6830108715121
 20
189.2294994126263
 30
0.0
 11
123.7311129873593
 21
189.2655759995117
 31
0.0
  0
LINE
  5
11E98
  8
3
 10
124.6029638370905
 20
189.9089417989685
 30
0.0
 11
124.6029638370905
 21
190.0051460306631
 31
0.0
  0
LINE
  5
11E99
  8
3
 10
124.3504277288925
 20
191.1535840465159
 30
0.0
 11
124.3504277288925
 21
189.83077586071681
 31
0.0
  0
LINE
  5
11E9A
  8
3
 10
125.6191210343637
 20
190.88300964487519
 30
0.0
 11
125.6191210343637
 21
189.72855886454141
 31
0.0
  0
LINE
  5
11E9B
  8
3
 10
125.2523424010284
 20
192.60266028641411
 30
0.0
 11
125.0058190573111
 21
192.59664752193319
 31
0.0
  0
LINE
  5
11E9C
  8
3
 10
124.9937935283494
 20
192.10360083449899
 30
0.0
 11
125.0599339376393
 21
192.04347318968991
 31
0.0
  0
LINE
  5
11E9D
  8
3
 10
124.759295713594
 20
192.59664752193319
 30
0.0
 11
124.5308106633197
 21
192.59063475745231
 31
0.0
  0
LINE
  5
11E9E
  8
3
 10
124.5608744857242
 20
192.34411141373519
 30
0.0
 11
124.5849255436478
 21
192.33208588477339
 31
0.0
  0
LINE
  5
11E9F
  8
3
 10
124.5428361922816
 20
192.35613694269699
 30
0.0
 11
124.5608744857242
 21
192.34411141373519
 31
0.0
  0
LINE
  5
11EA0
  8
3
 10
124.4346064316252
 20
192.38620076510151
 30
0.0
 11
124.5428361922816
 21
192.35613694269699
 31
0.0
  0
LINE
  5
11EA1
  8
3
 10
124.5308106633197
 20
192.59063475745231
 30
0.0
 11
124.3083383775263
 21
192.59063475745231
 31
0.0
  0
LINE
  5
11EA2
  8
3
 10
124.386504315778
 20
192.39822629406331
 30
0.0
 11
124.4346064316252
 21
192.38620076510151
 31
0.0
  0
LINE
  5
11EA3
  8
3
 10
124.3323894354499
 20
192.41025182302519
 30
0.0
 11
124.386504315778
 21
192.39822629406331
 31
0.0
  0
LINE
  5
11EA4
  8
3
 10
124.2782745551217
 20
192.41626458750599
 30
0.0
 11
124.3323894354499
 21
192.41025182302519
 31
0.0
  0
LINE
  5
11EA5
  8
3
 10
124.2241596747935
 20
192.42829011646779
 30
0.0
 11
124.2782745551217
 21
192.41626458750599
 31
0.0
  0
LINE
  5
11EA6
  8
3
 10
124.1700447944654
 20
192.43430288094871
 30
0.0
 11
124.2241596747935
 21
192.42829011646779
 31
0.0
  0
LINE
  5
11EA7
  8
3
 10
124.7292318911895
 20
192.25993271100251
 30
0.0
 11
124.7532829491132
 21
192.24790718204071
 31
0.0
  0
LINE
  5
11EA8
  8
3
 10
124.5849255436478
 20
192.33208588477339
 30
0.0
 11
124.6089766015715
 21
192.32006035581151
 31
0.0
  0
LINE
  5
11EA9
  8
3
 10
124.7051808332659
 20
192.27195823996431
 30
0.0
 11
124.7292318911895
 21
192.25993271100251
 31
0.0
  0
LINE
  5
11EAA
  8
3
 10
124.6811297753423
 20
192.28398376892599
 30
0.0
 11
124.7051808332659
 21
192.27195823996431
 31
0.0
  0
LINE
  5
11EAB
  8
3
 10
124.6570787174187
 20
192.29600929788791
 30
0.0
 11
124.6811297753423
 21
192.28398376892599
 31
0.0
  0
LINE
  5
11EAC
  8
3
 10
125.0058190573111
 20
192.59664752193319
 30
0.0
 11
124.759295713594
 21
192.59664752193319
 31
0.0
  0
LINE
  5
11EAD
  8
3
 10
124.6089766015715
 20
192.32006035581151
 30
0.0
 11
124.6330276594951
 21
192.30803482684971
 31
0.0
  0
LINE
  5
11EAE
  8
3
 10
124.6330276594951
 20
192.30803482684971
 30
0.0
 11
124.6570787174187
 21
192.29600929788791
 31
0.0
  0
LINE
  5
11EAF
  8
3
 10
124.8013850649605
 20
192.22385612411711
 30
0.0
 11
124.8254361228841
 21
192.21183059515531
 31
0.0
  0
LINE
  5
11EB0
  8
3
 10
124.777334007037
 20
192.23588165307891
 30
0.0
 11
124.8013850649605
 21
192.22385612411711
 31
0.0
  0
LINE
  5
11EB1
  8
3
 10
124.7532829491132
 20
192.24790718204071
 30
0.0
 11
124.777334007037
 21
192.23588165307891
 31
0.0
  0
LINE
  5
11EB2
  8
3
 10
124.8494871808077
 20
192.19980506619351
 30
0.0
 11
124.8735382387312
 21
192.18777953723159
 31
0.0
  0
LINE
  5
11EB3
  8
3
 10
124.8254361228841
 20
192.21183059515531
 30
0.0
 11
124.8494871808077
 21
192.19980506619351
 31
0.0
  0
LINE
  5
11EB4
  8
3
 10
124.9216403545786
 20
192.15771571482711
 30
0.0
 11
124.9937935283494
 21
192.10360083449899
 31
0.0
  0
LINE
  5
11EB5
  8
3
 10
124.8735382387312
 20
192.18777953723159
 30
0.0
 11
124.9216403545786
 21
192.15771571482711
 31
0.0
  0
LINE
  5
11EB6
  8
3
 10
124.5849255436478
 20
190.79281817766159
 30
0.0
 11
124.5608744857242
 21
190.8769968803943
 31
0.0
  0
LINE
  5
11EB7
  8
3
 10
124.3504277288925
 20
191.16560957547779
 30
0.0
 11
124.3504277288925
 21
191.1535840465159
 31
0.0
  0
LINE
  5
11EB8
  8
3
 10
124.3504277288925
 20
191.1716223399587
 30
0.0
 11
124.3504277288925
 21
191.16560957547779
 31
0.0
  0
LINE
  5
11EB9
  8
3
 10
124.3564404933735
 20
191.1716223399587
 30
0.0
 11
124.3504277288925
 21
191.1716223399587
 31
0.0
  0
LINE
  5
11EBA
  8
3
 10
124.3564404933735
 20
191.1776351044395
 30
0.0
 11
124.3564404933735
 21
191.1716223399587
 31
0.0
  0
LINE
  5
11EBB
  8
3
 10
124.3624532578543
 20
191.1776351044395
 30
0.0
 11
124.3564404933735
 21
191.1776351044395
 31
0.0
  0
LINE
  5
11EBC
  8
3
 10
124.3624532578543
 20
191.1836478689205
 30
0.0
 11
124.3624532578543
 21
191.1776351044395
 31
0.0
  0
LINE
  5
11EBD
  8
3
 10
124.3684660223352
 20
191.1836478689205
 30
0.0
 11
124.3624532578543
 21
191.1836478689205
 31
0.0
  0
LINE
  5
11EBE
  8
3
 10
124.3744787868163
 20
191.1836478689205
 30
0.0
 11
124.3684660223352
 21
191.1836478689205
 31
0.0
  0
LINE
  5
11EBF
  8
3
 10
124.380491551297
 20
191.1836478689205
 30
0.0
 11
124.3744787868163
 21
191.1836478689205
 31
0.0
  0
LINE
  5
11EC0
  8
3
 10
124.386504315778
 20
191.1836478689205
 30
0.0
 11
124.380491551297
 21
191.1836478689205
 31
0.0
  0
LINE
  5
11EC1
  8
3
 10
124.4947340764343
 20
191.04535428585959
 30
0.0
 11
124.386504315778
 21
191.1836478689205
 31
0.0
  0
LINE
  5
11EC2
  8
3
 10
124.5308106633197
 20
190.9611755831269
 30
0.0
 11
124.4947340764343
 21
191.04535428585959
 31
0.0
  0
LINE
  5
11EC3
  8
3
 10
124.5608744857242
 20
190.8769968803943
 30
0.0
 11
124.5308106633197
 21
190.9611755831269
 31
0.0
  0
LINE
  5
11EC4
  8
3
 10
124.5969510726097
 20
190.70262671044799
 30
0.0
 11
124.5849255436478
 21
190.79281817766159
 31
0.0
  0
LINE
  5
11EC5
  8
3
 10
124.6029638370905
 20
190.1073630268385
 30
0.0
 11
124.6089766015715
 21
190.20958002301381
 31
0.0
  0
LINE
  5
11EC6
  8
3
 10
124.6089766015715
 20
190.60642247875359
 30
0.0
 11
124.5969510726097
 21
190.70262671044799
 31
0.0
  0
LINE
  5
11EC7
  8
3
 10
124.6029638370905
 20
190.0051460306631
 30
0.0
 11
124.6029638370905
 21
190.1073630268385
 31
0.0
  0
LINE
  5
11EC8
  8
3
 10
124.6089766015715
 20
190.20958002301381
 30
0.0
 11
124.6089766015715
 21
190.31179701918921
 31
0.0
  0
LINE
  5
11EC9
  8
3
 10
124.6089766015715
 20
190.31179701918921
 30
0.0
 11
124.6089766015715
 21
190.41401401536459
 31
0.0
  0
LINE
  5
11ECA
  8
3
 10
124.6089766015715
 20
190.41401401536459
 30
0.0
 11
124.6089766015715
 21
190.5102182470591
 31
0.0
  0
LINE
  5
11ECB
  8
3
 10
124.6089766015715
 20
190.5102182470591
 30
0.0
 11
124.6089766015715
 21
190.60642247875359
 31
0.0
  0
LINE
  5
11ECC
  8
3
 10
125.4206998064937
 20
191.56846479569839
 30
0.0
 11
125.456776393379
 21
191.49029885744659
 31
0.0
  0
LINE
  5
11ECD
  8
3
 10
125.5048785092264
 20
192.60266028641411
 30
0.0
 11
125.2523424010284
 21
192.60266028641411
 31
0.0
  0
LINE
  5
11ECE
  8
3
 10
125.2884189879137
 20
191.78492431701099
 30
0.0
 11
125.336521103761
 21
191.7127711432401
 31
0.0
  0
LINE
  5
11ECF
  8
3
 10
125.2343041075856
 20
191.8510647263009
 30
0.0
 11
125.2884189879137
 21
191.78492431701099
 31
0.0
  0
LINE
  5
11ED0
  8
3
 10
125.1801892272575
 20
191.91720513559079
 30
0.0
 11
125.2343041075856
 21
191.8510647263009
 31
0.0
  0
LINE
  5
11ED1
  8
3
 10
125.1200615824484
 20
191.9833455448809
 30
0.0
 11
125.1801892272575
 21
191.91720513559079
 31
0.0
  0
LINE
  5
11ED2
  8
3
 10
125.0599339376393
 20
192.04347318968991
 30
0.0
 11
125.1200615824484
 21
191.9833455448809
 31
0.0
  0
LINE
  5
11ED3
  8
3
 10
125.3786104551273
 20
191.6406179694693
 30
0.0
 11
125.4206998064937
 21
191.56846479569839
 31
0.0
  0
LINE
  5
11ED4
  8
3
 10
125.336521103761
 20
191.7127711432401
 30
0.0
 11
125.3786104551273
 21
191.6406179694693
 31
0.0
  0
LINE
  5
11ED5
  8
3
 10
125.7514018529434
 20
192.60867305089491
 30
0.0
 11
125.5048785092264
 21
192.60266028641411
 31
0.0
  0
LINE
  5
11ED6
  8
3
 10
125.4868402157836
 20
191.41213291919479
 30
0.0
 11
125.5169040381882
 21
191.3279542164621
 31
0.0
  0
LINE
  5
11ED7
  8
3
 10
125.456776393379
 20
191.49029885744659
 30
0.0
 11
125.4868402157836
 21
191.41213291919479
 31
0.0
  0
LINE
  5
11ED8
  8
3
 10
125.6010827409208
 20
190.9431372896843
 30
0.0
 11
125.6010827409208
 21
190.9371245252033
 31
0.0
  0
LINE
  5
11ED9
  8
3
 10
125.6070955054017
 20
190.9792138765697
 30
0.0
 11
125.6010827409208
 21
190.97320111208879
 31
0.0
  0
LINE
  5
11EDA
  8
3
 10
125.5650061540355
 20
191.1595968109969
 30
0.0
 11
125.6070955054017
 21
190.9792138765697
 31
0.0
  0
LINE
  5
11EDB
  8
3
 10
125.6010827409208
 20
190.9551628186461
 30
0.0
 11
125.6010827409208
 21
190.9431372896843
 31
0.0
  0
LINE
  5
11EDC
  8
3
 10
125.6010827409208
 20
190.9611755831269
 30
0.0
 11
125.6010827409208
 21
190.9551628186461
 31
0.0
  0
LINE
  5
11EDD
  8
3
 10
125.6010827409208
 20
190.9671883476079
 30
0.0
 11
125.6010827409208
 21
190.9611755831269
 31
0.0
  0
LINE
  5
11EDE
  8
3
 10
125.6010827409208
 20
190.97320111208879
 30
0.0
 11
125.6010827409208
 21
190.9671883476079
 31
0.0
  0
LINE
  5
11EDF
  8
3
 10
125.5409550961118
 20
191.2437755137295
 30
0.0
 11
125.5650061540355
 21
191.1595968109969
 31
0.0
  0
LINE
  5
11EE0
  8
3
 10
125.5169040381882
 20
191.3279542164621
 30
0.0
 11
125.5409550961118
 21
191.2437755137295
 31
0.0
  0
LINE
  5
11EE1
  8
3
 10
125.6010827409208
 20
190.93111176072239
 30
0.0
 11
125.6070955054017
 21
190.9250989962415
 31
0.0
  0
LINE
  5
11EE2
  8
3
 10
125.6010827409208
 20
190.9371245252033
 30
0.0
 11
125.6010827409208
 21
190.93111176072239
 31
0.0
  0
LINE
  5
11EE3
  8
3
 10
125.6070955054017
 20
190.91307346727979
 30
0.0
 11
125.6131082698826
 21
190.91307346727979
 31
0.0
  0
LINE
  5
11EE4
  8
3
 10
125.6070955054017
 20
190.9190862317607
 30
0.0
 11
125.6070955054017
 21
190.91307346727979
 31
0.0
  0
LINE
  5
11EE5
  8
3
 10
125.6070955054017
 20
190.9250989962415
 30
0.0
 11
125.6070955054017
 21
190.9190862317607
 31
0.0
  0
LINE
  5
11EE6
  8
3
 10
125.6131082698826
 20
190.91307346727979
 30
0.0
 11
125.6131082698826
 21
190.90706070279879
 31
0.0
  0
LINE
  5
11EE7
  8
3
 10
125.6191210343637
 20
190.88300964487519
 30
0.0
 11
125.6191210343637
 21
190.88300964487519
 31
0.0
  0
LINE
  5
11EE8
  8
3
 10
125.6131082698826
 20
190.89503517383699
 30
0.0
 11
125.6191210343637
 21
190.88300964487519
 31
0.0
  0
LINE
  5
11EE9
  8
3
 10
125.6131082698826
 20
190.9010479383179
 30
0.0
 11
125.6131082698826
 21
190.89503517383699
 31
0.0
  0
LINE
  5
11EEA
  8
3
 10
125.6131082698826
 20
190.90706070279879
 30
0.0
 11
125.6131082698826
 21
190.9010479383179
 31
0.0
  0
LINE
  5
11EEB
  8
3
 10
125.0599339376393
 20
189.7165333355795
 30
0.0
 11
124.9937935283494
 21
189.7165333355795
 31
0.0
  0
LINE
  5
11EEC
  8
3
 10
125.0058190573111
 20
189.34975470224441
 30
0.0
 11
125.0539211731584
 21
189.31367811535901
 31
0.0
  0
LINE
  5
11EED
  8
3
 10
124.5308106633197
 20
189.4820355208243
 30
0.0
 11
124.6630914818996
 21
189.4579844629007
 31
0.0
  0
LINE
  5
11EEE
  8
3
 10
124.1880830879081
 20
189.8247630962359
 30
0.0
 11
124.1399809720609
 21
189.8247630962359
 31
0.0
  0
LINE
  5
11EEF
  8
3
 10
124.2361852037554
 20
189.83077586071681
 30
0.0
 11
124.1880830879081
 21
189.8247630962359
 31
0.0
  0
LINE
  5
11EF0
  8
3
 10
124.2903000840836
 20
189.83077586071681
 30
0.0
 11
124.2361852037554
 21
189.83077586071681
 31
0.0
  0
LINE
  5
11EF1
  8
3
 10
124.3504277288925
 20
189.83077586071681
 30
0.0
 11
124.2903000840836
 21
189.83077586071681
 31
0.0
  0
LINE
  5
11EF2
  8
3
 10
124.4646702540298
 20
189.4820355208243
 30
0.0
 11
124.5308106633197
 21
189.4820355208243
 31
0.0
  0
LINE
  5
11EF3
  8
3
 10
124.39852984474
 20
189.4820355208243
 30
0.0
 11
124.4646702540298
 21
189.4820355208243
 31
0.0
  0
LINE
  5
11EF4
  8
3
 10
124.3323894354499
 20
189.4760227563433
 30
0.0
 11
124.39852984474
 21
189.4820355208243
 31
0.0
  0
LINE
  5
11EF5
  8
3
 10
124.2662490261599
 20
189.4700099918625
 30
0.0
 11
124.3323894354499
 21
189.4760227563433
 31
0.0
  0
LINE
  5
11EF6
  8
3
 10
124.2001086168699
 20
189.4579844629007
 30
0.0
 11
124.2662490261599
 21
189.4700099918625
 31
0.0
  0
LINE
  5
11EF7
  8
3
 10
124.13396820758
 20
189.4459589339389
 30
0.0
 11
124.2001086168699
 21
189.4579844629007
 31
0.0
  0
LINE
  5
11EF8
  8
3
 10
124.6089766015715
 20
189.80672480279321
 30
0.0
 11
124.6029638370905
 21
189.9089417989685
 31
0.0
  0
LINE
  5
11EF9
  8
3
 10
124.9937935283494
 20
189.36178023120621
 30
0.0
 11
124.9937935283494
 21
189.3557674667253
 31
0.0
  0
LINE
  5
11EFA
  8
3
 10
124.9877807638685
 20
189.36178023120621
 30
0.0
 11
124.9937935283494
 21
189.36178023120621
 31
0.0
  0
LINE
  5
11EFB
  8
3
 10
124.9817679993876
 20
189.3677929956871
 30
0.0
 11
124.9877807638685
 21
189.36178023120621
 31
0.0
  0
LINE
  5
11EFC
  8
3
 10
124.9757552349067
 20
189.3677929956871
 30
0.0
 11
124.9817679993876
 21
189.3677929956871
 31
0.0
  0
LINE
  5
11EFD
  8
3
 10
124.9697424704259
 20
189.3677929956871
 30
0.0
 11
124.9757552349067
 21
189.3677929956871
 31
0.0
  0
LINE
  5
11EFE
  8
3
 10
124.9637297059448
 20
189.3677929956871
 30
0.0
 11
124.9697424704259
 21
189.3677929956871
 31
0.0
  0
LINE
  5
11EFF
  8
3
 10
124.9577169414639
 20
189.3677929956871
 30
0.0
 11
124.9637297059448
 21
189.3677929956871
 31
0.0
  0
LINE
  5
11F00
  8
3
 10
124.951704176983
 20
189.37380576016801
 30
0.0
 11
124.9577169414639
 21
189.3677929956871
 31
0.0
  0
LINE
  5
11F01
  8
3
 10
124.9456914125022
 20
189.37380576016801
 30
0.0
 11
124.951704176983
 21
189.37380576016801
 31
0.0
  0
LINE
  5
11F02
  8
3
 10
124.9396786480212
 20
189.37380576016801
 30
0.0
 11
124.9456914125022
 21
189.37380576016801
 31
0.0
  0
LINE
  5
11F03
  8
3
 10
124.9336658835404
 20
189.37380576016801
 30
0.0
 11
124.9396786480212
 21
189.37380576016801
 31
0.0
  0
LINE
  5
11F04
  8
3
 10
124.9276531190594
 20
189.37380576016801
 30
0.0
 11
124.9336658835404
 21
189.37380576016801
 31
0.0
  0
LINE
  5
11F05
  8
3
 10
124.9216403545786
 20
189.37380576016801
 30
0.0
 11
124.9276531190594
 21
189.37380576016801
 31
0.0
  0
LINE
  5
11F06
  8
3
 10
124.8915765321741
 20
189.3918440536107
 30
0.0
 11
124.9216403545786
 21
189.37380576016801
 31
0.0
  0
LINE
  5
11F07
  8
3
 10
124.8675254742504
 20
189.4038695825725
 30
0.0
 11
124.8795510032124
 21
189.39785681809161
 31
0.0
  0
LINE
  5
11F08
  8
3
 10
124.8795510032124
 20
189.39785681809161
 30
0.0
 11
124.8915765321741
 21
189.3918440536107
 31
0.0
  0
LINE
  5
11F09
  8
3
 10
124.8675254742504
 20
189.7225461000605
 30
0.0
 11
124.8073978294413
 21
189.7165333355795
 31
0.0
  0
LINE
  5
11F0A
  8
3
 10
124.8013850649605
 20
189.42190787601521
 30
0.0
 11
124.8194233584031
 21
189.4158951115343
 31
0.0
  0
LINE
  5
11F0B
  8
3
 10
124.8073978294413
 20
189.7165333355795
 30
0.0
 11
124.7412574201513
 21
189.7165333355795
 31
0.0
  0
LINE
  5
11F0C
  8
3
 10
124.7833467715177
 20
189.42190787601521
 30
0.0
 11
124.8013850649605
 21
189.42190787601521
 31
0.0
  0
LINE
  5
11F0D
  8
3
 10
124.7713212425559
 20
189.4279206404961
 30
0.0
 11
124.7833467715177
 21
189.42190787601521
 31
0.0
  0
LINE
  5
11F0E
  8
3
 10
124.7532829491132
 20
189.43393340497701
 30
0.0
 11
124.7713212425559
 21
189.4279206404961
 31
0.0
  0
LINE
  5
11F0F
  8
3
 10
124.7352446556706
 20
189.43393340497701
 30
0.0
 11
124.7532829491132
 21
189.43393340497701
 31
0.0
  0
LINE
  5
11F10
  8
3
 10
124.7172063622276
 20
189.43994616945801
 30
0.0
 11
124.7352446556706
 21
189.43393340497701
 31
0.0
  0
LINE
  5
11F11
  8
3
 10
124.699168068785
 20
189.4459589339389
 30
0.0
 11
124.7172063622276
 21
189.43994616945801
 31
0.0
  0
LINE
  5
11F12
  8
3
 10
124.6811297753423
 20
189.45197169841981
 30
0.0
 11
124.699168068785
 21
189.4459589339389
 31
0.0
  0
LINE
  5
11F13
  8
3
 10
124.6630914818996
 20
189.4579844629007
 30
0.0
 11
124.6811297753423
 21
189.45197169841981
 31
0.0
  0
LINE
  5
11F14
  8
3
 10
124.8494871808077
 20
189.40988234705341
 30
0.0
 11
124.8675254742504
 21
189.4038695825725
 31
0.0
  0
LINE
  5
11F15
  8
3
 10
124.8374616518458
 20
189.4158951115343
 30
0.0
 11
124.8494871808077
 21
189.40988234705341
 31
0.0
  0
LINE
  5
11F16
  8
3
 10
124.8194233584031
 20
189.4158951115343
 30
0.0
 11
124.8374616518458
 21
189.4158951115343
 31
0.0
  0
LINE
  5
11F17
  8
3
 10
124.9937935283494
 20
189.7165333355795
 30
0.0
 11
124.9336658835404
 21
189.7165333355795
 31
0.0
  0
LINE
  5
11F18
  8
3
 10
124.9336658835404
 20
189.7165333355795
 30
0.0
 11
124.8675254742504
 21
189.7225461000605
 31
0.0
  0
LINE
  5
11F19
  8
3
 10
124.9937935283494
 20
189.3557674667253
 30
0.0
 11
125.0058190573111
 21
189.34975470224441
 31
0.0
  0
LINE
  5
11F1A
  8
3
 10
124.6210021305332
 20
189.70450780661781
 30
0.0
 11
124.6089766015715
 21
189.80672480279321
 31
0.0
  0
LINE
  5
11F1B
  8
3
 10
124.7412574201513
 20
189.7165333355795
 30
0.0
 11
124.6210021305332
 21
189.70450780661781
 31
0.0
  0
LINE
  5
11F1C
  8
3
 10
125.5529806250736
 20
189.7225461000605
 30
0.0
 11
125.4928529802646
 21
189.7165333355795
 31
0.0
  0
LINE
  5
11F1D
  8
3
 10
125.1561381693338
 20
189.23551217710721
 30
0.0
 11
125.2102530496619
 21
189.19342282574081
 31
0.0
  0
LINE
  5
11F1E
  8
3
 10
125.0539211731584
 20
189.31367811535901
 30
0.0
 11
125.1080360534865
 21
189.2776015284735
 31
0.0
  0
LINE
  5
11F1F
  8
3
 10
125.1200615824484
 20
189.7165333355795
 30
0.0
 11
125.0599339376393
 21
189.7165333355795
 31
0.0
  0
LINE
  5
11F20
  8
3
 10
125.1801892272575
 20
189.7105205710987
 30
0.0
 11
125.1200615824484
 21
189.7165333355795
 31
0.0
  0
LINE
  5
11F21
  8
3
 10
125.2463296365474
 20
189.7105205710987
 30
0.0
 11
125.1801892272575
 21
189.7105205710987
 31
0.0
  0
LINE
  5
11F22
  8
3
 10
125.3064572813565
 20
189.7105205710987
 30
0.0
 11
125.2463296365474
 21
189.7105205710987
 31
0.0
  0
LINE
  5
11F23
  8
3
 10
125.3665849261655
 20
189.7105205710987
 30
0.0
 11
125.3064572813565
 21
189.7105205710987
 31
0.0
  0
LINE
  5
11F24
  8
3
 10
125.4327253354555
 20
189.7165333355795
 30
0.0
 11
125.3665849261655
 21
189.7105205710987
 31
0.0
  0
LINE
  5
11F25
  8
3
 10
125.4928529802646
 20
189.7165333355795
 30
0.0
 11
125.4327253354555
 21
189.7165333355795
 31
0.0
  0
LINE
  5
11F26
  8
3
 10
125.1080360534865
 20
189.2776015284735
 30
0.0
 11
125.1561381693338
 21
189.23551217710721
 31
0.0
  0
LINE
  5
11F27
  8
3
 10
125.3846232196083
 20
188.99500159787101
 30
0.0
 11
125.4267125709745
 21
188.94088671754281
 31
0.0
  0
LINE
  5
11F28
  8
3
 10
125.3425338682419
 20
189.0491164781991
 30
0.0
 11
125.3846232196083
 21
188.99500159787101
 31
0.0
  0
LINE
  5
11F29
  8
3
 10
125.3004445168755
 20
189.09721859404641
 30
0.0
 11
125.3425338682419
 21
189.0491164781991
 31
0.0
  0
LINE
  5
11F2A
  8
3
 10
125.2102530496619
 20
189.19342282574081
 30
0.0
 11
125.2583551655093
 21
189.14532070989361
 31
0.0
  0
LINE
  5
11F2B
  8
3
 10
125.2583551655093
 20
189.14532070989361
 30
0.0
 11
125.3004445168755
 21
189.09721859404641
 31
0.0
  0
LINE
  5
11F2C
  8
3
 10
125.6191210343637
 20
189.72855886454141
 30
0.0
 11
125.5529806250736
 21
189.7225461000605
 31
0.0
  0
LINE
  5
11F2D
  8
3
 10
126.2264102469349
 20
192.60867305089491
 30
0.0
 11
125.9979251966606
 21
192.60867305089491
 31
0.0
  0
LINE
  5
11F2E
  8
3
 10
122.30608780538491
 20
190.2155927874947
 30
0.0
 11
122.29406227642301
 21
190.2937587257465
 31
0.0
  0
LINE
  5
11F2F
  8
3
 10
122.29406227642301
 20
189.4459589339389
 30
0.0
 11
122.30007504090391
 21
189.48804828530521
 31
0.0
  0
LINE
  5
11F30
  8
3
 10
122.30007504090391
 20
189.21146111918361
 30
0.0
 11
122.29406227642301
 21
189.25956323503081
 31
0.0
  0
LINE
  5
11F31
  8
3
 10
122.29406227642301
 20
190.6244607721963
 30
0.0
 11
122.30007504090391
 21
190.70262671044799
 31
0.0
  0
LINE
  5
11F32
  8
3
 10
122.29406227642301
 20
190.37793742847921
 30
0.0
 11
122.28804951194191
 21
190.4561033667309
 31
0.0
  0
LINE
  5
11F33
  8
3
 10
122.29406227642301
 20
190.2937587257465
 30
0.0
 11
122.29406227642301
 21
190.37793742847921
 31
0.0
  0
LINE
  5
11F34
  8
3
 10
122.28804951194191
 20
190.4561033667309
 30
0.0
 11
122.28804951194191
 21
190.54028206946359
 31
0.0
  0
LINE
  5
11F35
  8
3
 10
122.28804951194191
 20
190.54028206946359
 30
0.0
 11
122.29406227642301
 21
190.6244607721963
 31
0.0
  0
LINE
  5
11F36
  8
3
 10
122.29406227642301
 20
189.25956323503081
 30
0.0
 11
122.29406227642301
 21
189.30766535087801
 31
0.0
  0
LINE
  5
11F37
  8
3
 10
122.29406227642301
 20
189.39785681809161
 30
0.0
 11
122.29406227642301
 21
189.4459589339389
 31
0.0
  0
LINE
  5
11F38
  8
3
 10
122.29406227642301
 20
189.34975470224441
 30
0.0
 11
122.29406227642301
 21
189.39785681809161
 31
0.0
  0
LINE
  5
11F39
  8
3
 10
122.29406227642301
 20
189.30766535087801
 30
0.0
 11
122.29406227642301
 21
189.34975470224441
 31
0.0
  0
LINE
  5
11F3A
  8
3
 10
122.30007504090391
 20
190.70262671044799
 30
0.0
 11
122.30608780538491
 21
190.7868054131807
 31
0.0
  0
LINE
  5
11F3B
  8
3
 10
122.30007504090391
 20
189.48804828530521
 30
0.0
 11
122.30007504090391
 21
189.53615040115241
 31
0.0
  0
LINE
  5
11F3C
  8
3
 10
122.30007504090391
 20
189.53615040115241
 30
0.0
 11
122.30007504090391
 21
189.62634186836601
 31
0.0
  0
LINE
  5
11F3D
  8
3
 10
122.30007504090391
 20
189.16335900333641
 30
0.0
 11
122.30007504090391
 21
189.21146111918361
 31
0.0
  0
LINE
  5
11F3E
  8
3
 10
122.31210056986561
 20
189.0250654202755
 30
0.0
 11
122.30608780538491
 21
189.0731675361227
 31
0.0
  0
LINE
  5
11F3F
  8
3
 10
122.30608780538491
 20
189.12126965197001
 30
0.0
 11
122.30007504090391
 21
189.16335900333641
 31
0.0
  0
LINE
  5
11F40
  8
3
 10
122.30608780538491
 20
189.0731675361227
 30
0.0
 11
122.30608780538491
 21
189.12126965197001
 31
0.0
  0
LINE
  5
11F41
  8
3
 10
122.30608780538491
 20
190.7868054131807
 30
0.0
 11
122.31811333434661
 21
190.87098411591339
 31
0.0
  0
LINE
  5
11F42
  8
3
 10
122.31811333434661
 20
190.1314140847621
 30
0.0
 11
122.30608780538491
 21
190.2155927874947
 31
0.0
  0
LINE
  5
11F43
  8
3
 10
122.30007504090391
 20
189.62634186836601
 30
0.0
 11
122.36020268571291
 21
189.6323546328469
 31
0.0
  0
LINE
  5
11F44
  8
3
 10
122.32412609882751
 20
188.9769633044283
 30
0.0
 11
122.31210056986561
 21
189.0250654202755
 31
0.0
  0
LINE
  5
11F45
  8
3
 10
124.5428361922816
 20
186.87850850059229
 30
0.0
 11
124.5368234278006
 21
186.9927510257296
 31
0.0
  0
LINE
  5
11F46
  8
3
 10
124.3023256130453
 20
187.59402747382001
 30
0.0
 11
124.3203639064879
 21
186.0487470022274
 31
0.0
  0
LINE
  5
11F47
  8
3
 10
125.589057211959
 20
186.9807254967678
 30
0.0
 11
125.589057211959
 21
186.93262338092049
 31
0.0
  0
LINE
  5
11F48
  8
3
 10
124.0978916206946
 20
187.76238487928541
 30
0.0
 11
124.1459937365417
 21
187.73833382136181
 31
0.0
  0
LINE
  5
11F49
  8
3
 10
124.13396820758
 20
188.26745709568149
 30
0.0
 11
124.1039043851754
 21
188.23739327327689
 31
0.0
  0
LINE
  5
11F4A
  8
3
 10
123.15388759719229
 20
187.87061463994181
 30
0.0
 11
123.23205353544419
 21
187.88865293338449
 31
0.0
  0
LINE
  5
11F4B
  8
3
 10
123.22002800648229
 20
188.09909969021609
 30
0.0
 11
123.14787483271149
 21
188.11713798365881
 31
0.0
  0
LINE
  5
11F4C
  8
3
 10
122.60672602943001
 20
188.43581450114681
 30
0.0
 11
122.57064944254461
 21
188.47790385251309
 31
0.0
  0
LINE
  5
11F4D
  8
3
 10
122.43836862396461
 20
188.67031231590209
 30
0.0
 11
122.40830480156021
 21
188.7184144317493
 31
0.0
  0
LINE
  5
11F4E
  8
3
 10
122.40830480156021
 20
188.7184144317493
 30
0.0
 11
122.38425374363651
 21
188.77252931207749
 31
0.0
  0
LINE
  5
11F4F
  8
3
 10
122.34817715675111
 20
188.88075907273381
 30
0.0
 11
122.33013886330841
 21
188.92886118858101
 31
0.0
  0
LINE
  5
11F50
  8
3
 10
122.38425374363651
 20
188.77252931207749
 30
0.0
 11
122.34817715675111
 21
188.88075907273381
 31
0.0
  0
LINE
  5
11F51
  8
3
 10
122.52856009117841
 20
188.51999320387949
 30
0.0
 11
122.49849626877381
 21
188.56809531972669
 31
0.0
  0
LINE
  5
11F52
  8
3
 10
122.57064944254461
 20
188.47790385251309
 30
0.0
 11
122.52856009117841
 21
188.51999320387949
 31
0.0
  0
LINE
  5
11F53
  8
3
 10
122.46241968188841
 20
188.61619743557389
 30
0.0
 11
122.43836862396461
 21
188.67031231590209
 31
0.0
  0
LINE
  5
11F54
  8
3
 10
122.49849626877381
 20
188.56809531972669
 30
0.0
 11
122.46241968188841
 21
188.61619743557389
 31
0.0
  0
LINE
  5
11F55
  8
3
 10
122.73299408352911
 20
187.66618064759101
 30
0.0
 11
122.79913449281899
 21
187.70826999895729
 31
0.0
  0
LINE
  5
11F56
  8
3
 10
122.78710896385719
 20
188.27948262464321
 30
0.0
 11
122.73900684801001
 21
188.31555921152869
 31
0.0
  0
LINE
  5
11F57
  8
3
 10
122.73900684801001
 20
188.31555921152869
 30
0.0
 11
122.69090473216271
 21
188.35163579841409
 31
0.0
  0
LINE
  5
11F58
  8
3
 10
122.64881538079641
 20
188.39372514978049
 30
0.0
 11
122.60672602943001
 21
188.43581450114681
 31
0.0
  0
LINE
  5
11F59
  8
3
 10
122.69090473216271
 20
188.35163579841409
 30
0.0
 11
122.64881538079641
 21
188.39372514978049
 31
0.0
  0
LINE
  5
11F5A
  8
3
 10
122.36621545019371
 20
187.215223311523
 30
0.0
 11
122.37222821467481
 21
187.22123607600389
 31
0.0
  0
LINE
  5
11F5B
  8
3
 10
122.39026650811751
 20
187.2573126628894
 30
0.0
 11
122.39026650811751
 21
187.26332542737029
 31
0.0
  0
LINE
  5
11F5C
  8
3
 10
122.39026650811751
 20
187.26332542737029
 30
0.0
 11
122.39627927259831
 21
187.27535095633209
 31
0.0
  0
LINE
  5
11F5D
  8
3
 10
122.39026650811751
 20
187.25129989840849
 30
0.0
 11
122.39026650811751
 21
187.2573126628894
 31
0.0
  0
LINE
  5
11F5E
  8
3
 10
122.38425374363651
 20
187.25129989840849
 30
0.0
 11
122.39026650811751
 21
187.25129989840849
 31
0.0
  0
LINE
  5
11F5F
  8
3
 10
122.38425374363651
 20
187.2452871339276
 30
0.0
 11
122.38425374363651
 21
187.25129989840849
 31
0.0
  0
LINE
  5
11F60
  8
3
 10
122.38425374363651
 20
187.23927436944669
 30
0.0
 11
122.38425374363651
 21
187.2452871339276
 31
0.0
  0
LINE
  5
11F61
  8
3
 10
122.37824097915571
 20
187.2332616049658
 30
0.0
 11
122.38425374363651
 21
187.23927436944669
 31
0.0
  0
LINE
  5
11F62
  8
3
 10
122.37824097915571
 20
187.2272488404848
 30
0.0
 11
122.37824097915571
 21
187.2332616049658
 31
0.0
  0
LINE
  5
11F63
  8
3
 10
122.37222821467481
 20
187.22123607600389
 30
0.0
 11
122.37824097915571
 21
187.2272488404848
 31
0.0
  0
LINE
  5
11F64
  8
3
 10
122.36621545019371
 20
187.2092105470422
 30
0.0
 11
122.36621545019371
 21
187.215223311523
 31
0.0
  0
LINE
  5
11F65
  8
3
 10
122.36020268571291
 20
187.2031977825612
 30
0.0
 11
122.36621545019371
 21
187.2092105470422
 31
0.0
  0
LINE
  5
11F66
  8
3
 10
122.36020268571291
 20
187.19718501808029
 30
0.0
 11
122.36020268571291
 21
187.2031977825612
 31
0.0
  0
LINE
  5
11F67
  8
3
 10
122.35418992123211
 20
187.1911722535994
 30
0.0
 11
122.36020268571291
 21
187.19718501808029
 31
0.0
  0
LINE
  5
11F68
  8
3
 10
122.35418992123211
 20
187.1791467246376
 30
0.0
 11
122.35418992123211
 21
187.1911722535994
 31
0.0
  0
LINE
  5
11F69
  8
3
 10
122.31811333434661
 20
187.04686590605769
 30
0.0
 11
122.35418992123211
 21
187.1791467246376
 31
0.0
  0
LINE
  5
11F6A
  8
3
 10
122.43235585948371
 20
187.34149136562209
 30
0.0
 11
122.47444521085021
 21
187.40763177491201
 31
0.0
  0
LINE
  5
11F6B
  8
3
 10
122.47444521085021
 20
187.40763177491201
 30
0.0
 11
122.51653456221641
 21
187.46775941972101
 31
0.0
  0
LINE
  5
11F6C
  8
3
 10
122.39627927259831
 20
187.27535095633209
 30
0.0
 11
122.43235585948371
 21
187.34149136562209
 31
0.0
  0
LINE
  5
11F6D
  8
3
 10
122.61875155839191
 20
187.57598918037729
 30
0.0
 11
122.67286643871989
 21
187.62409129622461
 31
0.0
  0
LINE
  5
11F6E
  8
3
 10
122.56463667806371
 20
187.52187430004921
 30
0.0
 11
122.61875155839191
 21
187.57598918037729
 31
0.0
  0
LINE
  5
11F6F
  8
3
 10
122.51653456221641
 20
187.46775941972101
 30
0.0
 11
122.56463667806371
 21
187.52187430004921
 31
0.0
  0
LINE
  5
11F70
  8
3
 10
122.67286643871989
 20
187.62409129622461
 30
0.0
 11
122.73299408352911
 21
187.66618064759101
 31
0.0
  0
LINE
  5
11F71
  8
3
 10
122.79913449281899
 20
187.70826999895729
 30
0.0
 11
122.85926213762799
 21
187.75035935032361
 31
0.0
  0
LINE
  5
11F72
  8
3
 10
123.07572165894069
 20
187.84656358201809
 30
0.0
 11
123.15388759719229
 21
187.87061463994181
 31
0.0
  0
LINE
  5
11F73
  8
3
 10
123.14787483271149
 20
188.11713798365881
 30
0.0
 11
123.07572165894069
 21
188.13517627710149
 31
0.0
  0
LINE
  5
11F74
  8
3
 10
122.93141531139889
 20
187.78643593720901
 30
0.0
 11
123.00356848516979
 21
187.81649975961361
 31
0.0
  0
LINE
  5
11F75
  8
3
 10
122.85926213762799
 20
187.75035935032361
 30
0.0
 11
122.93141531139889
 21
187.78643593720901
 31
0.0
  0
LINE
  5
11F76
  8
3
 10
122.83521107970449
 20
188.24941880223869
 30
0.0
 11
122.78710896385719
 21
188.27948262464321
 31
0.0
  0
LINE
  5
11F77
  8
3
 10
122.88932596003259
 20
188.21935497983421
 30
0.0
 11
122.83521107970449
 21
188.24941880223869
 31
0.0
  0
LINE
  5
11F78
  8
3
 10
122.94344084036069
 20
188.18929115742969
 30
0.0
 11
122.88932596003259
 21
188.21935497983421
 31
0.0
  0
LINE
  5
11F79
  8
3
 10
123.00356848516979
 20
187.81649975961361
 30
0.0
 11
123.07572165894069
 21
187.84656358201809
 31
0.0
  0
LINE
  5
11F7A
  8
3
 10
123.07572165894069
 20
188.13517627710149
 30
0.0
 11
122.94344084036069
 21
188.18929115742969
 31
0.0
  0
LINE
  5
11F7B
  8
3
 10
123.6709853425502
 20
188.09909969021609
 30
0.0
 11
123.5928194042986
 21
188.08707416125429
 31
0.0
  0
LINE
  5
11F7C
  8
3
 10
123.6409215201457
 20
187.90669122682721
 30
0.0
 11
123.7010491649548
 21
187.89466569786529
 31
0.0
  0
LINE
  5
11F7D
  8
3
 10
123.37034711850499
 20
188.08106139677341
 30
0.0
 11
123.29218118025319
 21
188.09308692573521
 31
0.0
  0
LINE
  5
11F7E
  8
3
 10
123.23205353544419
 20
187.88865293338449
 30
0.0
 11
123.40041094090959
 21
187.91871675578889
 31
0.0
  0
LINE
  5
11F7F
  8
3
 10
123.29218118025319
 20
188.09308692573521
 30
0.0
 11
123.22002800648229
 21
188.09909969021609
 31
0.0
  0
LINE
  5
11F80
  8
3
 10
123.5206662305277
 20
187.91871675578889
 30
0.0
 11
123.5807938753366
 21
187.91270399130809
 31
0.0
  0
LINE
  5
11F81
  8
3
 10
123.5928194042986
 20
188.08707416125429
 30
0.0
 11
123.5206662305277
 21
188.08106139677341
 31
0.0
  0
LINE
  5
11F82
  8
3
 10
123.5807938753366
 20
187.91270399130809
 30
0.0
 11
123.6409215201457
 21
187.90669122682721
 31
0.0
  0
LINE
  5
11F83
  8
3
 10
123.4605385857185
 20
187.91871675578889
 30
0.0
 11
123.5206662305277
 21
187.91871675578889
 31
0.0
  0
LINE
  5
11F84
  8
3
 10
123.5206662305277
 20
188.08106139677341
 30
0.0
 11
123.44250029227589
 21
188.08106139677341
 31
0.0
  0
LINE
  5
11F85
  8
3
 10
123.40041094090959
 20
187.91871675578889
 30
0.0
 11
123.4605385857185
 21
187.91871675578889
 31
0.0
  0
LINE
  5
11F86
  8
3
 10
123.44250029227589
 20
188.08106139677341
 30
0.0
 11
123.37034711850499
 21
188.08106139677341
 31
0.0
  0
LINE
  5
11F87
  8
3
 10
123.7611768097639
 20
187.88264016890349
 30
0.0
 11
123.8213044545728
 21
187.87061463994181
 31
0.0
  0
LINE
  5
11F88
  8
3
 10
123.8152916900919
 20
188.12916351262061
 30
0.0
 11
123.7431385163211
 21
188.11112521917789
 31
0.0
  0
LINE
  5
11F89
  8
3
 10
123.8213044545728
 20
187.87061463994181
 30
0.0
 11
123.881432099382
 21
187.85257634649901
 31
0.0
  0
LINE
  5
11F8A
  8
3
 10
123.8874448638628
 20
188.14720180606341
 30
0.0
 11
123.8152916900919
 21
188.12916351262061
 31
0.0
  0
LINE
  5
11F8B
  8
3
 10
123.881432099382
 20
187.85257634649901
 30
0.0
 11
123.9355469797101
 21
187.83453805305629
 31
0.0
  0
LINE
  5
11F8C
  8
3
 10
123.9595980376337
 20
188.17726562846781
 30
0.0
 11
123.8874448638628
 21
188.14720180606341
 31
0.0
  0
LINE
  5
11F8D
  8
3
 10
124.0437767403664
 20
187.79244870169001
 30
0.0
 11
124.0978916206946
 21
187.76238487928541
 31
0.0
  0
LINE
  5
11F8E
  8
3
 10
124.1039043851754
 20
188.23739327327689
 30
0.0
 11
124.0317512114045
 21
188.20732945087241
 31
0.0
  0
LINE
  5
11F8F
  8
3
 10
123.9355469797101
 20
187.83453805305629
 30
0.0
 11
123.9896618600383
 21
187.81048699513269
 31
0.0
  0
LINE
  5
11F90
  8
3
 10
123.9896618600383
 20
187.81048699513269
 30
0.0
 11
124.0437767403664
 21
187.79244870169001
 31
0.0
  0
LINE
  5
11F91
  8
3
 10
124.0317512114045
 20
188.20732945087241
 30
0.0
 11
123.9595980376337
 21
188.17726562846781
 31
0.0
  0
LINE
  5
11F92
  8
3
 10
123.7010491649548
 20
187.89466569786529
 30
0.0
 11
123.7611768097639
 21
187.88264016890349
 31
0.0
  0
LINE
  5
11F93
  8
3
 10
123.7431385163211
 20
188.11112521917789
 30
0.0
 11
123.6709853425502
 21
188.09909969021609
 31
0.0
  0
LINE
  5
11F94
  8
3
 10
125.6070955054017
 20
187.84055081753721
 30
0.0
 11
124.5608744857242
 21
187.84055081753721
 31
0.0
  0
LINE
  5
11F95
  8
3
 10
125.011831821792
 20
187.70225723447629
 30
0.0
 11
125.0599339376393
 21
187.69023170551449
 31
0.0
  0
LINE
  5
11F96
  8
3
 10
124.5608744857242
 20
187.82251252409449
 30
0.0
 11
124.6029638370905
 21
187.79846146617081
 31
0.0
  0
LINE
  5
11F97
  8
3
 10
124.1459937365417
 20
187.73833382136181
 30
0.0
 11
124.194095852389
 21
187.70826999895729
 31
0.0
  0
LINE
  5
11F98
  8
3
 10
124.5187851343578
 20
187.56396365141561
 30
0.0
 11
124.5488489567624
 21
187.78042317272809
 31
0.0
  0
LINE
  5
11F99
  8
3
 10
124.5368234278006
 20
187.89466569786529
 30
0.0
 11
124.5368234278006
 21
187.94276781371249
 31
0.0
  0
LINE
  5
11F9A
  8
3
 10
124.5368234278006
 20
187.98485716507889
 30
0.0
 11
124.5368234278006
 21
188.02694651644521
 31
0.0
  0
LINE
  5
11F9B
  8
3
 10
124.5368234278006
 20
187.94276781371249
 30
0.0
 11
124.5368234278006
 21
187.98485716507889
 31
0.0
  0
LINE
  5
11F9C
  8
3
 10
124.5428361922816
 20
187.84055081753721
 30
0.0
 11
124.5368234278006
 21
187.89466569786529
 31
0.0
  0
LINE
  5
11F9D
  8
3
 10
124.5488489567624
 20
187.78042317272809
 30
0.0
 11
124.5428361922816
 21
187.84055081753721
 31
0.0
  0
LINE
  5
11F9E
  8
3
 10
124.5548617212433
 20
187.83453805305629
 30
0.0
 11
124.5608744857242
 21
187.82251252409449
 31
0.0
  0
LINE
  5
11F9F
  8
3
 10
124.5548617212433
 20
187.84055081753721
 30
0.0
 11
124.5548617212433
 21
187.83453805305629
 31
0.0
  0
LINE
  5
11FA0
  8
3
 10
124.5608744857242
 20
187.84055081753721
 30
0.0
 11
124.5548617212433
 21
187.84055081753721
 31
0.0
  0
LINE
  5
11FA1
  8
3
 10
124.1459937365417
 20
188.27948262464321
 30
0.0
 11
124.13396820758
 21
188.26745709568149
 31
0.0
  0
LINE
  5
11FA2
  8
3
 10
124.1640320299846
 20
188.28549538912421
 30
0.0
 11
124.1459937365417
 21
188.27948262464321
 31
0.0
  0
LINE
  5
11FA3
  8
3
 10
124.1820703234273
 20
188.29752091808601
 30
0.0
 11
124.1640320299846
 21
188.28549538912421
 31
0.0
  0
LINE
  5
11FA4
  8
3
 10
124.194095852389
 20
188.30954644704781
 30
0.0
 11
124.1820703234273
 21
188.29752091808601
 31
0.0
  0
LINE
  5
11FA5
  8
3
 10
124.2121341458318
 20
188.32157197600961
 30
0.0
 11
124.194095852389
 21
188.30954644704781
 31
0.0
  0
LINE
  5
11FA6
  8
3
 10
124.2301724392746
 20
188.33359750497141
 30
0.0
 11
124.2121341458318
 21
188.32157197600961
 31
0.0
  0
LINE
  5
11FA7
  8
3
 10
124.2421979682363
 20
188.34562303393329
 30
0.0
 11
124.2301724392746
 21
188.33359750497141
 31
0.0
  0
LINE
  5
11FA8
  8
3
 10
124.260236261679
 20
188.35764856289501
 30
0.0
 11
124.2421979682363
 21
188.34562303393329
 31
0.0
  0
LINE
  5
11FA9
  8
3
 10
124.2722617906409
 20
188.36967409185681
 30
0.0
 11
124.260236261679
 21
188.35764856289501
 31
0.0
  0
LINE
  5
11FAA
  8
3
 10
124.5428361922816
 20
188.28549538912421
 30
0.0
 11
124.5368234278006
 21
188.31555921152869
 31
0.0
  0
LINE
  5
11FAB
  8
3
 10
124.5428361922816
 20
188.25543156671961
 30
0.0
 11
124.5428361922816
 21
188.28549538912421
 31
0.0
  0
LINE
  5
11FAC
  8
3
 10
124.5428361922816
 20
188.22536774431509
 30
0.0
 11
124.5428361922816
 21
188.25543156671961
 31
0.0
  0
LINE
  5
11FAD
  8
3
 10
124.5428361922816
 20
188.19530392191061
 30
0.0
 11
124.5428361922816
 21
188.22536774431509
 31
0.0
  0
LINE
  5
11FAE
  8
3
 10
124.5428361922816
 20
188.16524009950609
 30
0.0
 11
124.5428361922816
 21
188.19530392191061
 31
0.0
  0
LINE
  5
11FAF
  8
3
 10
124.5428361922816
 20
188.12916351262061
 30
0.0
 11
124.5428361922816
 21
188.16524009950609
 31
0.0
  0
LINE
  5
11FB0
  8
3
 10
124.5428361922816
 20
188.09909969021609
 30
0.0
 11
124.5428361922816
 21
188.12916351262061
 31
0.0
  0
LINE
  5
11FB1
  8
3
 10
124.5368234278006
 20
188.06302310333069
 30
0.0
 11
124.5428361922816
 21
188.09909969021609
 31
0.0
  0
LINE
  5
11FB2
  8
3
 10
124.5368234278006
 20
188.02694651644521
 30
0.0
 11
124.5368234278006
 21
188.06302310333069
 31
0.0
  0
LINE
  5
11FB3
  8
3
 10
124.3023256130453
 20
188.38771238529949
 30
0.0
 11
124.2903000840836
 21
188.38169962081869
 31
0.0
  0
LINE
  5
11FB4
  8
3
 10
124.3143511420071
 20
188.39973791426141
 30
0.0
 11
124.3023256130453
 21
188.38771238529949
 31
0.0
  0
LINE
  5
11FB5
  8
3
 10
124.326376670969
 20
188.41176344322321
 30
0.0
 11
124.3143511420071
 21
188.39973791426141
 31
0.0
  0
LINE
  5
11FB6
  8
3
 10
124.3444149644116
 20
188.42378897218501
 30
0.0
 11
124.326376670969
 21
188.41176344322321
 31
0.0
  0
LINE
  5
11FB7
  8
3
 10
124.3684660223352
 20
188.43581450114681
 30
0.0
 11
124.3444149644116
 21
188.42378897218501
 31
0.0
  0
LINE
  5
11FB8
  8
3
 10
124.380491551297
 20
188.43581450114681
 30
0.0
 11
124.3684660223352
 21
188.43581450114681
 31
0.0
  0
LINE
  5
11FB9
  8
3
 10
124.3925170802589
 20
188.44182726562769
 30
0.0
 11
124.380491551297
 21
188.43581450114681
 31
0.0
  0
LINE
  5
11FBA
  8
3
 10
124.4105553737016
 20
188.44182726562769
 30
0.0
 11
124.3925170802589
 21
188.44182726562769
 31
0.0
  0
LINE
  5
11FBB
  8
3
 10
124.4225809026634
 20
188.44182726562769
 30
0.0
 11
124.4105553737016
 21
188.44182726562769
 31
0.0
  0
LINE
  5
11FBC
  8
3
 10
124.4346064316252
 20
188.43581450114681
 30
0.0
 11
124.4225809026634
 21
188.44182726562769
 31
0.0
  0
LINE
  5
11FBD
  8
3
 10
124.446631960587
 20
188.43581450114681
 30
0.0
 11
124.4346064316252
 21
188.43581450114681
 31
0.0
  0
LINE
  5
11FBE
  8
3
 10
124.4586574895489
 20
188.42980173666589
 30
0.0
 11
124.446631960587
 21
188.43581450114681
 31
0.0
  0
LINE
  5
11FBF
  8
3
 10
124.4706830185107
 20
188.42980173666589
 30
0.0
 11
124.4586574895489
 21
188.42980173666589
 31
0.0
  0
LINE
  5
11FC0
  8
3
 10
124.4827085474725
 20
188.42378897218501
 30
0.0
 11
124.4706830185107
 21
188.42980173666589
 31
0.0
  0
LINE
  5
11FC1
  8
3
 10
124.4947340764343
 20
188.41777620770409
 30
0.0
 11
124.4827085474725
 21
188.42378897218501
 31
0.0
  0
LINE
  5
11FC2
  8
3
 10
124.506759605396
 20
188.41176344322321
 30
0.0
 11
124.4947340764343
 21
188.41777620770409
 31
0.0
  0
LINE
  5
11FC3
  8
3
 10
124.512772369877
 20
188.39973791426141
 30
0.0
 11
124.506759605396
 21
188.41176344322321
 31
0.0
  0
LINE
  5
11FC4
  8
3
 10
124.5187851343578
 20
188.39372514978049
 30
0.0
 11
124.512772369877
 21
188.39973791426141
 31
0.0
  0
LINE
  5
11FC5
  8
3
 10
124.5308106633197
 20
188.38169962081869
 30
0.0
 11
124.5187851343578
 21
188.39372514978049
 31
0.0
  0
LINE
  5
11FC6
  8
3
 10
124.2903000840836
 20
188.38169962081869
 30
0.0
 11
124.2722617906409
 21
188.36967409185681
 31
0.0
  0
LINE
  5
11FC7
  8
3
 10
124.5368234278006
 20
188.31555921152869
 30
0.0
 11
124.5308106633197
 21
188.38169962081869
 31
0.0
  0
LINE
  5
11FC8
  8
3
 10
124.5368234278006
 20
186.9927510257296
 30
0.0
 11
124.5308106633197
 21
187.10699355086669
 31
0.0
  0
LINE
  5
11FC9
  8
3
 10
124.5308106633197
 20
187.10699355086669
 30
0.0
 11
124.5247978988387
 21
187.22123607600389
 31
0.0
  0
LINE
  5
11FCA
  8
3
 10
124.5187851343578
 20
187.33547860114109
 30
0.0
 11
124.5187851343578
 21
187.4497211262784
 31
0.0
  0
LINE
  5
11FCB
  8
3
 10
124.5247978988387
 20
187.22123607600389
 30
0.0
 11
124.5187851343578
 21
187.33547860114109
 31
0.0
  0
LINE
  5
11FCC
  8
3
 10
124.2963128485645
 20
187.60004023830101
 30
0.0
 11
124.3023256130453
 21
187.59402747382001
 31
0.0
  0
LINE
  5
11FCD
  8
3
 10
124.2963128485645
 20
187.60605300278189
 30
0.0
 11
124.2963128485645
 21
187.60004023830101
 31
0.0
  0
LINE
  5
11FCE
  8
3
 10
124.2963128485645
 20
187.61206576726281
 30
0.0
 11
124.2963128485645
 21
187.60605300278189
 31
0.0
  0
LINE
  5
11FCF
  8
3
 10
124.2903000840836
 20
187.61807853174361
 30
0.0
 11
124.2963128485645
 21
187.61206576726281
 31
0.0
  0
LINE
  5
11FD0
  8
3
 10
124.2903000840836
 20
187.62409129622461
 30
0.0
 11
124.2903000840836
 21
187.61807853174361
 31
0.0
  0
LINE
  5
11FD1
  8
3
 10
124.2903000840836
 20
187.63010406070549
 30
0.0
 11
124.2903000840836
 21
187.62409129622461
 31
0.0
  0
LINE
  5
11FD2
  8
3
 10
124.2842873196027
 20
187.63010406070549
 30
0.0
 11
124.2903000840836
 21
187.63010406070549
 31
0.0
  0
LINE
  5
11FD3
  8
3
 10
124.5187851343578
 20
187.4497211262784
 30
0.0
 11
124.5187851343578
 21
187.56396365141561
 31
0.0
  0
LINE
  5
11FD4
  8
3
 10
124.194095852389
 20
187.70826999895729
 30
0.0
 11
124.2842873196027
 21
187.63611682518641
 31
0.0
  0
LINE
  5
11FD5
  8
3
 10
124.2842873196027
 20
187.63611682518641
 30
0.0
 11
124.2842873196027
 21
187.63010406070549
 31
0.0
  0
LINE
  5
11FD6
  8
3
 10
124.9036020611358
 20
187.71428276343809
 30
0.0
 11
124.9577169414639
 21
187.70826999895729
 31
0.0
  0
LINE
  5
11FD7
  8
3
 10
124.6029638370905
 20
187.79846146617081
 30
0.0
 11
124.6510659529378
 21
187.77441040824721
 31
0.0
  0
LINE
  5
11FD8
  8
3
 10
124.8013850649605
 20
187.73232105688089
 30
0.0
 11
124.8554999452885
 21
187.72029552791909
 31
0.0
  0
LINE
  5
11FD9
  8
3
 10
124.7532829491132
 20
187.74434658584269
 30
0.0
 11
124.8013850649605
 21
187.73232105688089
 31
0.0
  0
LINE
  5
11FDA
  8
3
 10
124.699168068785
 20
187.75637211480449
 30
0.0
 11
124.7532829491132
 21
187.74434658584269
 31
0.0
  0
LINE
  5
11FDB
  8
3
 10
124.6510659529378
 20
187.77441040824721
 30
0.0
 11
124.699168068785
 21
187.75637211480449
 31
0.0
  0
LINE
  5
11FDC
  8
3
 10
124.8554999452885
 20
187.72029552791909
 30
0.0
 11
124.9036020611358
 21
187.71428276343809
 31
0.0
  0
LINE
  5
11FDD
  8
3
 10
124.9577169414639
 20
187.70826999895729
 30
0.0
 11
125.011831821792
 21
187.70225723447629
 31
0.0
  0
LINE
  5
11FDE
  8
3
 10
125.6070955054017
 20
188.49594214595581
 30
0.0
 11
125.6070955054017
 21
188.45986555907041
 31
0.0
  0
LINE
  5
11FDF
  8
3
 10
125.4928529802646
 20
188.82664419240561
 30
0.0
 11
125.522916802669
 21
188.76651654759661
 31
0.0
  0
LINE
  5
11FE0
  8
3
 10
125.4627891578601
 20
188.88677183721461
 30
0.0
 11
125.4928529802646
 21
188.82664419240561
 31
0.0
  0
LINE
  5
11FE1
  8
3
 10
125.5529806250736
 20
188.70037613830661
 30
0.0
 11
125.5710189185163
 21
188.63423572901669
 31
0.0
  0
LINE
  5
11FE2
  8
3
 10
125.522916802669
 20
188.76651654759661
 30
0.0
 11
125.5529806250736
 21
188.70037613830661
 31
0.0
  0
LINE
  5
11FE3
  8
3
 10
125.5710189185163
 20
188.63423572901669
 30
0.0
 11
125.6070955054017
 21
188.49594214595581
 31
0.0
  0
LINE
  5
11FE4
  8
3
 10
125.3605721616847
 20
187.60605300278189
 30
0.0
 11
125.5650061540355
 21
187.37756795250741
 31
0.0
  0
LINE
  5
11FE5
  8
3
 10
125.2162658141429
 20
187.66618064759101
 30
0.0
 11
125.2643679299901
 21
187.64814235414821
 31
0.0
  0
LINE
  5
11FE6
  8
3
 10
125.1621509338148
 20
187.67820617655269
 30
0.0
 11
125.2162658141429
 21
187.66618064759101
 31
0.0
  0
LINE
  5
11FE7
  8
3
 10
125.1140488179675
 20
187.68421894103369
 30
0.0
 11
125.1621509338148
 21
187.67820617655269
 31
0.0
  0
LINE
  5
11FE8
  8
3
 10
125.0599339376393
 20
187.69023170551449
 30
0.0
 11
125.1140488179675
 21
187.68421894103369
 31
0.0
  0
LINE
  5
11FE9
  8
3
 10
125.2643679299901
 20
187.64814235414821
 30
0.0
 11
125.3605721616847
 21
187.60605300278189
 31
0.0
  0
LINE
  5
11FEA
  8
3
 10
125.6070955054017
 20
187.96681887163621
 30
0.0
 11
125.6070955054017
 21
187.92472952026981
 31
0.0
  0
LINE
  5
11FEB
  8
3
 10
125.6070955054017
 20
188.00890822300249
 30
0.0
 11
125.6070955054017
 21
187.96681887163621
 31
0.0
  0
LINE
  5
11FEC
  8
3
 10
125.6070955054017
 20
188.04498480988801
 30
0.0
 11
125.6070955054017
 21
188.00890822300249
 31
0.0
  0
LINE
  5
11FED
  8
3
 10
125.6070955054017
 20
187.92472952026981
 30
0.0
 11
125.6070955054017
 21
187.84055081753721
 31
0.0
  0
LINE
  5
11FEE
  8
3
 10
125.6070955054017
 20
188.12916351262061
 30
0.0
 11
125.6070955054017
 21
188.08707416125429
 31
0.0
  0
LINE
  5
11FEF
  8
3
 10
125.6070955054017
 20
188.17125286398701
 30
0.0
 11
125.6070955054017
 21
188.12916351262061
 31
0.0
  0
LINE
  5
11FF0
  8
3
 10
125.6070955054017
 20
188.20732945087241
 30
0.0
 11
125.6070955054017
 21
188.17125286398701
 31
0.0
  0
LINE
  5
11FF1
  8
3
 10
125.6070955054017
 20
188.24941880223869
 30
0.0
 11
125.6070955054017
 21
188.20732945087241
 31
0.0
  0
LINE
  5
11FF2
  8
3
 10
125.6070955054017
 20
188.29150815360509
 30
0.0
 11
125.6070955054017
 21
188.24941880223869
 31
0.0
  0
LINE
  5
11FF3
  8
3
 10
125.6070955054017
 20
188.33359750497141
 30
0.0
 11
125.6070955054017
 21
188.29150815360509
 31
0.0
  0
LINE
  5
11FF4
  8
3
 10
125.6070955054017
 20
188.37568685633781
 30
0.0
 11
125.6070955054017
 21
188.33359750497141
 31
0.0
  0
LINE
  5
11FF5
  8
3
 10
125.6070955054017
 20
188.08707416125429
 30
0.0
 11
125.6070955054017
 21
188.04498480988801
 31
0.0
  0
LINE
  5
11FF6
  8
3
 10
125.6070955054017
 20
188.45986555907041
 30
0.0
 11
125.6070955054017
 21
188.41777620770409
 31
0.0
  0
LINE
  5
11FF7
  8
3
 10
125.6070955054017
 20
188.41777620770409
 30
0.0
 11
125.6070955054017
 21
188.37568685633781
 31
0.0
  0
LINE
  5
11FF8
  8
3
 10
125.589057211959
 20
187.03484037709589
 30
0.0
 11
125.589057211959
 21
186.9807254967678
 31
0.0
  0
LINE
  5
11FF9
  8
3
 10
125.589057211959
 20
187.08294249294309
 30
0.0
 11
125.589057211959
 21
187.03484037709589
 31
0.0
  0
LINE
  5
11FFA
  8
3
 10
125.5830444474781
 20
187.13104460879029
 30
0.0
 11
125.589057211959
 21
187.08294249294309
 31
0.0
  0
LINE
  5
11FFB
  8
3
 10
125.5830444474781
 20
187.2332616049658
 30
0.0
 11
125.5830444474781
 21
187.18515948911849
 31
0.0
  0
LINE
  5
11FFC
  8
3
 10
125.5770316829973
 20
187.281363720813
 30
0.0
 11
125.5830444474781
 21
187.2332616049658
 31
0.0
  0
LINE
  5
11FFD
  8
3
 10
125.5830444474781
 20
187.18515948911849
 30
0.0
 11
125.5830444474781
 21
187.13104460879029
 31
0.0
  0
LINE
  5
11FFE
  8
3
 10
125.5650061540355
 20
187.37756795250741
 30
0.0
 11
125.5710189185163
 21
187.32946583666021
 31
0.0
  0
LINE
  5
11FFF
  8
3
 10
125.5710189185163
 20
187.32946583666021
 30
0.0
 11
125.5770316829973
 21
187.281363720813
 31
0.0
  0
LINE
  5
12000
  8
3
 10
124.2421979682363
 20
184.80410475468011
 30
0.0
 11
124.073840562771
 21
184.78005369675651
 31
0.0
  0
LINE
  5
12001
  8
3
 10
123.23205353544419
 20
184.76802816779471
 30
0.0
 11
123.06369612997879
 21
184.76201540331371
 31
0.0
  0
LINE
  5
12002
  8
3
 10
122.32412609882751
 20
185.76614707162491
 30
0.0
 11
122.33013886330841
 21
185.7721598361058
 31
0.0
  0
LINE
  5
12003
  8
3
 10
122.33013886330841
 20
185.7721598361058
 30
0.0
 11
122.34216439227021
 21
185.77817260058669
 31
0.0
  0
LINE
  5
12004
  8
3
 10
122.34817715675111
 20
186.09083635359369
 30
0.0
 11
122.33013886330841
 21
186.1629895273646
 31
0.0
  0
LINE
  5
12005
  8
3
 10
122.36020268571291
 20
186.072798060151
 30
0.0
 11
122.34817715675111
 21
186.09083635359369
 31
0.0
  0
LINE
  5
12006
  8
3
 10
122.36621545019371
 20
186.06077253118929
 30
0.0
 11
122.36020268571291
 21
186.072798060151
 31
0.0
  0
LINE
  5
12007
  8
3
 10
122.37222821467481
 20
186.0487470022274
 30
0.0
 11
122.36621545019371
 21
186.06077253118929
 31
0.0
  0
LINE
  5
12008
  8
3
 10
122.37824097915571
 20
186.0367214732656
 30
0.0
 11
122.37222821467481
 21
186.0487470022274
 31
0.0
  0
LINE
  5
12009
  8
3
 10
122.38425374363651
 20
186.0246959443038
 30
0.0
 11
122.37824097915571
 21
186.0367214732656
 31
0.0
  0
LINE
  5
1200A
  8
3
 10
122.39026650811751
 20
186.012670415342
 30
0.0
 11
122.38425374363651
 21
186.0246959443038
 31
0.0
  0
LINE
  5
1200B
  8
3
 10
122.39627927259831
 20
185.99463212189929
 30
0.0
 11
122.39026650811751
 21
186.012670415342
 31
0.0
  0
LINE
  5
1200C
  8
3
 10
122.40229203707931
 20
185.98260659293749
 30
0.0
 11
122.39627927259831
 21
185.99463212189929
 31
0.0
  0
LINE
  5
1200D
  8
3
 10
122.40830480156021
 20
185.97058106397569
 30
0.0
 11
122.40229203707931
 21
185.98260659293749
 31
0.0
  0
LINE
  5
1200E
  8
3
 10
122.41431756604101
 20
185.95855553501389
 30
0.0
 11
122.40830480156021
 21
185.97058106397569
 31
0.0
  0
LINE
  5
1200F
  8
3
 10
122.42634309500291
 20
185.946530006052
 30
0.0
 11
122.41431756604101
 21
185.95855553501389
 31
0.0
  0
LINE
  5
12010
  8
3
 10
122.43235585948371
 20
185.92849171260929
 30
0.0
 11
122.42634309500291
 21
185.946530006052
 31
0.0
  0
LINE
  5
12011
  8
3
 10
122.43836862396461
 20
185.91646618364749
 30
0.0
 11
122.43235585948371
 21
185.92849171260929
 31
0.0
  0
LINE
  5
12012
  8
3
 10
122.44438138844561
 20
185.90444065468569
 30
0.0
 11
122.43836862396461
 21
185.91646618364749
 31
0.0
  0
LINE
  5
12013
  8
3
 10
122.45640691740741
 20
185.89241512572389
 30
0.0
 11
122.44438138844561
 21
185.90444065468569
 31
0.0
  0
LINE
  5
12014
  8
3
 10
122.45039415292661
 20
185.886402361243
 30
0.0
 11
122.45640691740741
 21
185.89241512572389
 31
0.0
  0
LINE
  5
12015
  8
3
 10
122.45039415292661
 20
185.88038959676209
 30
0.0
 11
122.45039415292661
 21
185.886402361243
 31
0.0
  0
LINE
  5
12016
  8
3
 10
122.45039415292661
 20
185.8743768322812
 30
0.0
 11
122.45039415292661
 21
185.88038959676209
 31
0.0
  0
LINE
  5
12017
  8
3
 10
122.45039415292661
 20
185.86836406780029
 30
0.0
 11
122.45039415292661
 21
185.8743768322812
 31
0.0
  0
LINE
  5
12018
  8
3
 10
122.45039415292661
 20
185.8623513033194
 30
0.0
 11
122.45039415292661
 21
185.86836406780029
 31
0.0
  0
LINE
  5
12019
  8
3
 10
122.45039415292661
 20
185.85633853883849
 30
0.0
 11
122.45039415292661
 21
185.8623513033194
 31
0.0
  0
LINE
  5
1201A
  8
3
 10
122.45039415292661
 20
185.8503257743576
 30
0.0
 11
122.45039415292661
 21
185.85633853883849
 31
0.0
  0
LINE
  5
1201B
  8
3
 10
122.45039415292661
 20
185.8443130098766
 30
0.0
 11
122.45039415292661
 21
185.8503257743576
 31
0.0
  0
LINE
  5
1201C
  8
3
 10
122.45039415292661
 20
185.83830024539569
 30
0.0
 11
122.45039415292661
 21
185.8443130098766
 31
0.0
  0
LINE
  5
1201D
  8
3
 10
122.44438138844561
 20
185.83228748091491
 30
0.0
 11
122.45039415292661
 21
185.83830024539569
 31
0.0
  0
LINE
  5
1201E
  8
3
 10
122.44438138844561
 20
185.82627471643389
 30
0.0
 11
122.44438138844561
 21
185.83228748091491
 31
0.0
  0
LINE
  5
1201F
  8
3
 10
122.43836862396461
 20
185.82627471643389
 30
0.0
 11
122.44438138844561
 21
185.82627471643389
 31
0.0
  0
LINE
  5
12020
  8
3
 10
122.43836862396461
 20
185.820261951953
 30
0.0
 11
122.43836862396461
 21
185.82627471643389
 31
0.0
  0
LINE
  5
12021
  8
3
 10
122.43836862396461
 20
185.81424918747209
 30
0.0
 11
122.43836862396461
 21
185.820261951953
 31
0.0
  0
LINE
  5
12022
  8
3
 10
122.40830480156021
 20
185.8082364229912
 30
0.0
 11
122.43836862396461
 21
185.81424918747209
 31
0.0
  0
LINE
  5
12023
  8
3
 10
122.39627927259831
 20
185.80222365851029
 30
0.0
 11
122.40830480156021
 21
185.8082364229912
 31
0.0
  0
LINE
  5
12024
  8
3
 10
122.38425374363651
 20
185.7962108940294
 30
0.0
 11
122.39627927259831
 21
185.80222365851029
 31
0.0
  0
LINE
  5
12025
  8
3
 10
122.37222821467481
 20
185.7962108940294
 30
0.0
 11
122.38425374363651
 21
185.7962108940294
 31
0.0
  0
LINE
  5
12026
  8
3
 10
122.36020268571291
 20
185.79019812954849
 30
0.0
 11
122.37222821467481
 21
185.7962108940294
 31
0.0
  0
LINE
  5
12027
  8
3
 10
122.35418992123211
 20
185.7841853650676
 30
0.0
 11
122.36020268571291
 21
185.79019812954849
 31
0.0
  0
LINE
  5
12028
  8
3
 10
122.34216439227021
 20
185.77817260058669
 30
0.0
 11
122.35418992123211
 21
185.7841853650676
 31
0.0
  0
LINE
  5
12029
  8
3
 10
122.89533872451349
 20
184.74998987435191
 30
0.0
 11
122.73299408352911
 21
184.7319515809092
 31
0.0
  0
LINE
  5
1202A
  8
3
 10
122.73299408352911
 20
184.7319515809092
 30
0.0
 11
122.57666220702551
 21
184.6958749940238
 31
0.0
  0
LINE
  5
1202B
  8
3
 10
123.06369612997879
 20
184.76201540331371
 30
0.0
 11
122.89533872451349
 21
184.74998987435191
 31
0.0
  0
POLYLINE
  5
1202C
  8
3
 66
     1
 10
0.0
 20
0.0
 30
0.0
 70
     1
  0
VERTEX
  5
1202D
  8
3
 10
123.58680663981769
 20
186.84243191370689
 30
0.0
  0
VERTEX
  5
1202E
  8
3
 10
123.58680663981769
 20
186.0006448863802
 30
0.0
  0
VERTEX
  5
1202F
  8
3
 10
123.5747811108558
 20
185.99463212189929
 30
0.0
  0
VERTEX
  5
12030
  8
3
 10
123.562755581894
 20
185.98861935741829
 30
0.0
  0
VERTEX
  5
12031
  8
3
 10
123.556742817413
 20
185.98861935741829
 30
0.0
  0
VERTEX
  5
12032
  8
3
 10
123.5447172884512
 20
185.98861935741829
 30
0.0
  0
VERTEX
  5
12033
  8
3
 10
123.5387045239704
 20
185.99463212189929
 30
0.0
  0
VERTEX
  5
12034
  8
3
 10
123.5266789950086
 20
186.0006448863802
 30
0.0
  0
VERTEX
  5
12035
  8
3
 10
123.5146534660467
 20
186.00665765086109
 30
0.0
  0
VERTEX
  5
12036
  8
3
 10
123.5026279370849
 20
186.01868317982289
 30
0.0
  0
VERTEX
  5
12037
  8
3
 10
123.496615172604
 20
186.03070870878469
 30
0.0
  0
VERTEX
  5
12038
  8
3
 10
123.4845896436421
 20
186.0427342377466
 30
0.0
  0
VERTEX
  5
12039
  8
3
 10
123.4725641146804
 20
186.05475976670829
 30
0.0
  0
VERTEX
  5
1203A
  8
3
 10
123.4605385857185
 20
186.0667852956702
 30
0.0
  0
VERTEX
  5
1203B
  8
3
 10
123.4545258212377
 20
186.07881082463189
 30
0.0
  0
VERTEX
  5
1203C
  8
3
 10
123.44250029227589
 20
186.0908363535938
 30
0.0
  0
VERTEX
  5
1203D
  8
3
 10
123.42446199883329
 20
186.10887464703649
 30
0.0
  0
VERTEX
  5
1203E
  8
3
 10
123.40041094090959
 20
186.144951233922
 30
0.0
  0
VERTEX
  5
1203F
  8
3
 10
123.37635988298599
 20
186.18704058528829
 30
0.0
  0
VERTEX
  5
12040
  8
3
 10
123.35832158954319
 20
186.22311717217369
 30
0.0
  0
VERTEX
  5
12041
  8
3
 10
123.34629606058139
 20
186.25919375905909
 30
0.0
  0
VERTEX
  5
12042
  8
3
 10
123.33427053161959
 20
186.3012831104254
 30
0.0
  0
VERTEX
  5
12043
  8
3
 10
123.3222450026577
 20
186.33735969731089
 30
0.0
  0
VERTEX
  5
12044
  8
3
 10
123.3102194736958
 20
186.37944904867729
 30
0.0
  0
VERTEX
  5
12045
  8
3
 10
123.30420670921509
 20
186.4215384000436
 30
0.0
  0
VERTEX
  5
12046
  8
3
 10
123.29819394473419
 20
186.46362775140989
 30
0.0
  0
VERTEX
  5
12047
  8
3
 10
123.29819394473419
 20
186.5057171027762
 30
0.0
  0
VERTEX
  5
12048
  8
3
 10
123.29819394473419
 20
186.54780645414249
 30
0.0
  0
VERTEX
  5
12049
  8
3
 10
123.29819394473419
 20
186.58989580550889
 30
0.0
  0
VERTEX
  5
1204A
  8
3
 10
123.30420670921509
 20
186.62597239239429
 30
0.0
  0
VERTEX
  5
1204B
  8
3
 10
123.3102194736958
 20
186.66806174376069
 30
0.0
  0
VERTEX
  5
1204C
  8
3
 10
123.32825776713869
 20
186.74622768201249
 30
0.0
  0
VERTEX
  5
1204D
  8
3
 10
123.33427053161959
 20
186.7642659754552
 30
0.0
  0
VERTEX
  5
1204E
  8
3
 10
123.3402832961004
 20
186.77629150441689
 30
0.0
  0
VERTEX
  5
1204F
  8
3
 10
123.34629606058139
 20
186.7943297978596
 30
0.0
  0
VERTEX
  5
12050
  8
3
 10
123.35832158954319
 20
186.80635532682149
 30
0.0
  0
VERTEX
  5
12051
  8
3
 10
123.36433435402409
 20
186.81838085578329
 30
0.0
  0
VERTEX
  5
12052
  8
3
 10
123.37635988298599
 20
186.83040638474509
 30
0.0
  0
VERTEX
  5
12053
  8
3
 10
123.3883854119477
 20
186.84243191370689
 30
0.0
  0
VERTEX
  5
12054
  8
3
 10
123.40041094090959
 20
186.8484446781878
 30
0.0
  0
VERTEX
  5
12055
  8
3
 10
123.4124364698713
 20
186.8604702071496
 30
0.0
  0
VERTEX
  5
12056
  8
3
 10
123.42446199883329
 20
186.86648297163049
 30
0.0
  0
VERTEX
  5
12057
  8
3
 10
123.43648752779499
 20
186.87249573611149
 30
0.0
  0
VERTEX
  5
12058
  8
3
 10
123.44851305675679
 20
186.87850850059229
 30
0.0
  0
VERTEX
  5
12059
  8
3
 10
123.4605385857185
 20
186.8845212650732
 30
0.0
  0
VERTEX
  5
1205A
  8
3
 10
123.4785768791612
 20
186.8905340295542
 30
0.0
  0
VERTEX
  5
1205B
  8
3
 10
123.50864070156589
 20
186.89654679403509
 30
0.0
  0
VERTEX
  5
1205C
  8
3
 10
123.5807938753366
 20
186.85445744266869
 30
0.0
  0
VERTEX
  5
1205D
  8
3
 10
123.5807938753366
 20
186.8484446781878
 30
0.0
  0
VERTEX
  5
1205E
  8
3
 10
123.58680663981769
 20
186.84243191370689
 30
0.0
  0
SEQEND
  5
1205F
  8
3
  0
LINE
  5
12060
  8
3
 10
123.7431385163211
 20
184.76802816779471
 30
0.0
 11
123.5687683463749
 21
184.76802816779471
 31
0.0
  0
LINE
  5
12061
  8
3
 10
123.40041094090959
 20
184.76802816779471
 30
0.0
 11
123.23205353544419
 21
184.76802816779471
 31
0.0
  0
LINE
  5
12062
  8
3
 10
123.5687683463749
 20
184.76802816779471
 30
0.0
 11
123.40041094090959
 21
184.76802816779471
 31
0.0
  0
LINE
  5
12063
  8
3
 10
123.9114959217866
 20
184.76802816779471
 30
0.0
 11
123.7431385163211
 21
184.76802816779471
 31
0.0
  0
LINE
  5
12064
  8
3
 10
124.073840562771
 20
184.78005369675651
 30
0.0
 11
123.9114959217866
 21
184.76802816779471
 31
0.0
  0
LINE
  5
12065
  8
3
 10
125.083984995563
 20
185.2610748552288
 30
0.0
 11
125.0058190573111
 21
185.188921681458
 31
0.0
  0
LINE
  5
12066
  8
3
 10
124.4165681381824
 20
186.13893846944109
 30
0.0
 11
124.4646702540298
 21
186.2291299366546
 31
0.0
  0
LINE
  5
12067
  8
3
 10
124.5007468409151
 20
186.33134693283
 30
0.0
 11
124.5247978988387
 21
186.43356392900529
 31
0.0
  0
LINE
  5
12068
  8
3
 10
124.4646702540298
 20
186.2291299366546
 30
0.0
 11
124.5007468409151
 21
186.33134693283
 31
0.0
  0
LINE
  5
12069
  8
3
 10
124.5368234278006
 20
186.54179368966169
 30
0.0
 11
124.5428361922816
 21
186.65002345031789
 31
0.0
  0
LINE
  5
1206A
  8
3
 10
124.5428361922816
 20
186.76426597545509
 30
0.0
 11
124.5428361922816
 21
186.87850850059229
 31
0.0
  0
LINE
  5
1206B
  8
3
 10
124.5428361922816
 20
186.65002345031789
 30
0.0
 11
124.5428361922816
 21
186.76426597545509
 31
0.0
  0
LINE
  5
1206C
  8
3
 10
124.5247978988387
 20
186.43356392900529
 30
0.0
 11
124.5368234278006
 21
186.54179368966169
 31
0.0
  0
LINE
  5
1206D
  8
3
 10
124.3624532578543
 20
186.0427342377466
 30
0.0
 11
124.4165681381824
 21
186.13893846944109
 31
0.0
  0
LINE
  5
1206E
  8
3
 10
124.3504277288925
 20
186.0487470022274
 30
0.0
 11
124.3624532578543
 21
186.0427342377466
 31
0.0
  0
LINE
  5
1206F
  8
3
 10
124.3444149644116
 20
186.0487470022274
 30
0.0
 11
124.3504277288925
 21
186.0487470022274
 31
0.0
  0
LINE
  5
12070
  8
3
 10
124.3384021999306
 20
186.0487470022274
 30
0.0
 11
124.3444149644116
 21
186.0487470022274
 31
0.0
  0
LINE
  5
12071
  8
3
 10
124.3323894354499
 20
186.0487470022274
 30
0.0
 11
124.3384021999306
 21
186.0487470022274
 31
0.0
  0
LINE
  5
12072
  8
3
 10
124.326376670969
 20
186.0487470022274
 30
0.0
 11
124.3323894354499
 21
186.0487470022274
 31
0.0
  0
LINE
  5
12073
  8
3
 10
124.3203639064879
 20
186.0487470022274
 30
0.0
 11
124.326376670969
 21
186.0487470022274
 31
0.0
  0
LINE
  5
12074
  8
3
 10
124.699168068785
 20
184.96644939566451
 30
0.0
 11
124.5548617212433
 21
184.8942962218936
 31
0.0
  0
LINE
  5
12075
  8
3
 10
124.39852984474
 20
184.8401813415654
 30
0.0
 11
124.2421979682363
 21
184.80410475468011
 31
0.0
  0
LINE
  5
12076
  8
3
 10
124.5548617212433
 20
184.8942962218936
 30
0.0
 11
124.39852984474
 21
184.8401813415654
 31
0.0
  0
LINE
  5
12077
  8
3
 10
125.0058190573111
 20
185.188921681458
 30
0.0
 11
124.8434744163268
 21
185.062653627359
 31
0.0
  0
LINE
  5
12078
  8
3
 10
124.8434744163268
 20
185.062653627359
 30
0.0
 11
124.699168068785
 21
184.96644939566451
 31
0.0
  0
LINE
  5
12079
  8
3
 10
125.2824062234328
 20
185.50759819894591
 30
0.0
 11
125.2222785786238
 21
185.4174067317324
 31
0.0
  0
LINE
  5
1207A
  8
3
 10
125.5169040381882
 20
186.00665765086109
 30
0.0
 11
125.4808274513027
 21
185.8984278902048
 31
0.0
  0
LINE
  5
1207B
  8
3
 10
125.3966487485701
 20
185.693993897854
 30
0.0
 11
125.3425338682419
 21
185.59778966615951
 31
0.0
  0
LINE
  5
1207C
  8
3
 10
125.3425338682419
 20
185.59778966615951
 30
0.0
 11
125.2824062234328
 21
185.50759819894591
 31
0.0
  0
LINE
  5
1207D
  8
3
 10
125.4808274513027
 20
185.8984278902048
 30
0.0
 11
125.4387380999364
 21
185.7962108940294
 31
0.0
  0
LINE
  5
1207E
  8
3
 10
125.4387380999364
 20
185.7962108940294
 30
0.0
 11
125.3966487485701
 21
185.693993897854
 31
0.0
  0
LINE
  5
1207F
  8
3
 10
125.5710189185163
 20
186.2291299366546
 30
0.0
 11
125.5469678605927
 21
186.1148874115174
 31
0.0
  0
LINE
  5
12080
  8
3
 10
125.6010827409208
 20
186.46362775140989
 30
0.0
 11
125.589057211959
 21
186.3433724617918
 31
0.0
  0
LINE
  5
12081
  8
3
 10
125.589057211959
 20
186.3433724617918
 30
0.0
 11
125.5710189185163
 21
186.2291299366546
 31
0.0
  0
LINE
  5
12082
  8
3
 10
125.5950699764399
 20
186.68008727272249
 30
0.0
 11
125.6070955054017
 21
186.577870276547
 31
0.0
  0
LINE
  5
12083
  8
3
 10
125.589057211959
 20
186.72818938856969
 30
0.0
 11
125.5950699764399
 21
186.68008727272249
 31
0.0
  0
LINE
  5
12084
  8
3
 10
125.589057211959
 20
186.8845212650732
 30
0.0
 11
125.589057211959
 21
186.83040638474509
 31
0.0
  0
LINE
  5
12085
  8
3
 10
125.589057211959
 20
186.83040638474509
 30
0.0
 11
125.589057211959
 21
186.78230426889789
 31
0.0
  0
LINE
  5
12086
  8
3
 10
125.589057211959
 20
186.78230426889789
 30
0.0
 11
125.589057211959
 21
186.72818938856969
 31
0.0
  0
LINE
  5
12087
  8
3
 10
125.6070955054017
 20
186.577870276547
 30
0.0
 11
125.6010827409208
 21
186.46362775140989
 31
0.0
  0
LINE
  5
12088
  8
3
 10
125.589057211959
 20
186.93262338092049
 30
0.0
 11
125.589057211959
 21
186.8845212650732
 31
0.0
  0
LINE
  5
12089
  8
3
 10
125.5469678605927
 20
186.1148874115174
 30
0.0
 11
125.5169040381882
 21
186.00665765086109
 31
0.0
  0
CIRCLE
  5
1208A
  8
3
 10
125.37149808518051
 20
184.783223761606
 30
0.0
 40
0.241100623305389
  0
LINE
  5
1208B
  8
3
 10
125.1561381693338
 20
185.33924079348071
 30
0.0
 11
125.083984995563
 21
185.2610748552288
 31
0.0
  0
LINE
  5
1208C
  8
3
 10
125.2222785786238
 20
185.4174067317324
 30
0.0
 11
125.1561381693338
 21
185.33924079348071
 31
0.0
  0
LINE
  5
1208D
  8
3
 10
122.28804951194191
 20
186.9145850874778
 30
0.0
 11
122.30007504090391
 21
186.9807254967678
 31
0.0
  0
LINE
  5
1208E
  8
3
 10
122.29406227642301
 20
185.73608324922029
 30
0.0
 11
122.30007504090391
 21
185.7481087781822
 31
0.0
  0
LINE
  5
1208F
  8
3
 10
122.30007504090391
 20
186.30729587490629
 30
0.0
 11
122.28804951194191
 21
186.37343628419629
 31
0.0
  0
LINE
  5
12090
  8
3
 10
122.28203674746111
 20
185.4174067317324
 30
0.0
 11
122.28203674746111
 21
185.7180449557776
 31
0.0
  0
LINE
  5
12091
  8
3
 10
122.28203674746111
 20
186.8484446781878
 30
0.0
 11
122.28804951194191
 21
186.9145850874778
 31
0.0
  0
LINE
  5
12092
  8
3
 10
122.28804951194191
 20
186.37343628419629
 30
0.0
 11
122.28203674746111
 21
186.4455894579672
 31
0.0
  0
LINE
  5
12093
  8
3
 10
122.27602398298021
 20
186.51172986725709
 30
0.0
 11
122.27001121849931
 21
186.577870276547
 31
0.0
  0
LINE
  5
12094
  8
3
 10
122.27001121849931
 20
186.64401068583709
 30
0.0
 11
122.27001121849931
 21
186.71616385960789
 31
0.0
  0
LINE
  5
12095
  8
3
 10
122.27001121849931
 20
186.577870276547
 30
0.0
 11
122.27001121849931
 21
186.64401068583709
 31
0.0
  0
LINE
  5
12096
  8
3
 10
122.27602398298021
 20
186.78230426889789
 30
0.0
 11
122.28203674746111
 21
186.8484446781878
 31
0.0
  0
LINE
  5
12097
  8
3
 10
122.27001121849931
 20
186.71616385960789
 30
0.0
 11
122.27602398298021
 21
186.78230426889789
 31
0.0
  0
LINE
  5
12098
  8
3
 10
122.28203674746111
 20
186.4455894579672
 30
0.0
 11
122.27602398298021
 21
186.51172986725709
 31
0.0
  0
LINE
  5
12099
  8
3
 10
122.28203674746111
 20
185.73007048473951
 30
0.0
 11
122.29406227642301
 21
185.73608324922029
 31
0.0
  0
LINE
  5
1209A
  8
3
 10
122.28203674746111
 20
185.7180449557776
 30
0.0
 11
122.28203674746111
 21
185.73007048473951
 31
0.0
  0
LINE
  5
1209B
  8
3
 10
122.28203674746111
 20
184.56359417544391
 30
0.0
 11
122.28203674746111
 21
185.4174067317324
 31
0.0
  0
LINE
  5
1209C
  8
3
 10
122.31210056986561
 20
186.2351427011354
 30
0.0
 11
122.30007504090391
 21
186.30729587490629
 31
0.0
  0
LINE
  5
1209D
  8
3
 10
122.30608780538491
 20
185.75412154266311
 30
0.0
 11
122.31210056986561
 21
185.760134307144
 31
0.0
  0
LINE
  5
1209E
  8
3
 10
122.30007504090391
 20
185.7481087781822
 30
0.0
 11
122.30608780538491
 21
185.75412154266311
 31
0.0
  0
LINE
  5
1209F
  8
3
 10
122.57666220702551
 20
184.6958749940238
 30
0.0
 11
122.28203674746111
 21
184.56359417544391
 31
0.0
  0
LINE
  5
120A0
  8
3
 10
122.30007504090391
 20
186.9807254967678
 30
0.0
 11
122.31811333434661
 21
187.04686590605769
 31
0.0
  0
LINE
  5
120A1
  8
3
 10
122.33013886330841
 20
186.1629895273646
 30
0.0
 11
122.31210056986561
 21
186.2351427011354
 31
0.0
  0
LINE
  5
120A2
  8
3
 10
122.31210056986561
 20
185.760134307144
 30
0.0
 11
122.32412609882751
 21
185.76614707162491
 31
0.0
  0
LINE
  5
120A3
  8
3
 10
122.33013886330841
 20
188.92886118858101
 30
0.0
 11
122.32412609882751
 21
188.9769633044283
 31
0.0
  0
LINE
  5
120A4
  8
3
 10
125.4267125709745
 20
188.94088671754281
 30
0.0
 11
125.4627891578601
 21
188.88677183721461
 31
0.0
  0
LINE
  5
120A5
  8
3
 10
125.4868402157836
 20
193.6699259817747
 30
0.0
 11
126.6839548154278
 21
193.68938043503621
 31
0.0
  0
LINE
  5
120A6
  8
3
 10
126.4795208230771
 20
192.61468581537591
 30
0.0
 11
126.2264102469349
 21
192.60867305089491
 31
0.0
  0
ARC
  5
120A7
  8
0
 10
262.96116368710852
 20
115.59626344498891
 30
0.0
 40
1.5
 50
270.0
 51
1.978521948726262
1001
GENIUS_GENODEF_13
1002
{
1000
HIER
1070
     0
1002
}
1002
{
1000
MANEDIT
1070
     0
1002
}
1002
{
1000
NOSEL
1070
     0
1002
}
1002
{
1000
BEHIND
1070
     0
1002
}
1002
{
1000
REACTOR
1002
}
1001
GENIUS_GENOBJ-N-FIL_13
1002
{
1000
OWNER
1000
GEN
1002
}
  0
LINE
  5
120A8
  8
0
 10
265.05634213119578
 20
100.096263444988
 30
0.0
 11
264.63478573428438
 21
110.59626344498879
 31
0.0
  0
ARC
  5
120A9
  8
0
 10
254.93378883838329
 20
115.59626344498901
 30
0.0
 40
1.5
 50
180.0
 51
270.0
1001
GENIUS_GENODEF_13
1002
{
1000
HIER
1070
     0
1002
}
1002
{
1000
MANEDIT
1070
     0
1002
}
1002
{
1000
NOSEL
1070
     0
1002
}
1002
{
1000
BEHIND
1070
     0
1002
}
1002
{
1000
REACTOR
1002
}
1001
GENIUS_GENOBJ-N-FIL_13
1002
{
1000
OWNER
1000
GEN
1002
}
  0
LINE
  5
120AD
  8
0
 10
262.96116368710852
 20
114.09626344498891
 30
0.0
 11
254.93378883838329
 21
114.09626344498891
 31
0.0
  0
LINE
  5
120AE
  8
0
 10
264.63478573428438
 20
110.59626344498879
 30
0.0
 11
253.43378883838329
 21
110.59626344498879
 31
0.0
  0
POINT
  5
120AF
  8
0
 10
118.0337624685603
 20
176.49859092474509
 30
0.0
  0
ARC
  5
120B0
  8
0
 10
119.45780513660451
 20
222.11400748196129
 30
0.0
 40
1.424357952738375
 50
92.071825254423857
 51
180.3198420682215
  0
LINE
  5
120B1
  8
1
 10
113.0337624685603
 20
190.53743432080651
 30
0.0
 11
122.28804951194191
 21
190.53743432080651
 31
0.0
  0
ARC
  5
120B2
  8
0
 10
122.09020938197961
 20
107.9804606461192
 30
0.0
 40
3.5
 50
119.600795809834
 51
176.02191183657411
1001
GENIUS_GENODEF_13
1002
{
1000
HIER
1070
     0
1002
}
1002
{
1000
MANEDIT
1070
     0
1002
}
1002
{
1000
NOSEL
1070
     0
1002
}
1002
{
1000
BEHIND
1070
     0
1002
}
1002
{
1000
REACTOR
1002
}
1001
GENIUS_GENOBJ-N-FIL_13
1002
{
1000
OWNER
1000
GEN
1002
}
  0
LINE
  5
120B3
  8
0
 10
118.0334693767595
 20
100.09626344498879
 30
0.0
 11
118.5986420911056
 21
108.2232730290378
 31
0.0
  0
ARC
  5
120B4
  8
0
 10
119.4065186319342
 20
158.91048365154089
 30
0.0
 40
1.3730493463833799
 50
180.0208839575071
 51
269.99134958172311
  0
LINE
  5
120B5
  8
1
 10
134.7334693767599
 20
166.82897516566231
 30
0.0
 11
134.73346937676021
 21
181.24589347595119
 31
0.0
  0
ARC
  5
120BC
  8
0
 10
241.0906546527622
 20
115.59626344498901
 30
0.0
 40
1.5
 50
270.0
 51
0.0
1001
GENIUS_GENODEF_13
1002
{
1000
HIER
1070
     0
1002
}
1002
{
1000
MANEDIT
1070
     0
1002
}
1002
{
1000
NOSEL
1070
     0
1002
}
1002
{
1000
BEHIND
1070
     0
1002
}
1002
{
1000
REACTOR
1002
}
1001
GENIUS_GENOBJ-N-FIL_13
1002
{
1000
OWNER
1000
GEN
1002
}
  0
ARC
  5
120BF
  8
0
 10
233.6592832958994
 20
115.59626344498901
 30
0.0
 40
1.5
 50
180.0
 51
270.0
1001
GENIUS_GENODEF_13
1002
{
1000
HIER
1070
     0
1002
}
1002
{
1000
MANEDIT
1070
     0
1002
}
1002
{
1000
NOSEL
1070
     0
1002
}
1002
{
1000
BEHIND
1070
     0
1002
}
1002
{
1000
REACTOR
1002
}
1001
GENIUS_GENOBJ-N-FIL_13
1002
{
1000
OWNER
1000
GEN
1002
}
  0
ARC
  5
120C0
  8
0
 10
219.81614728021319
 20
115.59626344498901
 30
0.0
 40
1.5
 50
270.0
 51
0.0
1001
GENIUS_GENODEF_13
1002
{
1000
HIER
1070
     0
1002
}
1002
{
1000
MANEDIT
1070
     0
1002
}
1002
{
1000
NOSEL
1070
     0
1002
}
1002
{
1000
BEHIND
1070
     0
1002
}
1002
{
1000
REACTOR
1002
}
1001
GENIUS_GENOBJ-N-FIL_13
1002
{
1000
OWNER
1000
GEN
1002
}
  0
LINE
  5
120C4
  8
0
 10
241.0906546527622
 20
114.09626344498891
 30
0.0
 11
233.6592832958994
 21
114.09626344498891
 31
0.0
  0
LINE
  5
120C5
  8
0
 10
242.5906546527622
 20
110.59626344498879
 30
0.0
 11
232.1592832958994
 21
110.59626344498879
 31
0.0
  0
ARC
  5
120CE
  8
0
 10
212.38477775341551
 20
115.59626344498901
 30
0.0
 40
1.5
 50
180.0
 51
270.0
1001
GENIUS_GENODEF_13
1002
{
1000
HIER
1070
     0
1002
}
1002
{
1000
MANEDIT
1070
     0
1002
}
1002
{
1000
NOSEL
1070
     0
1002
}
1002
{
1000
BEHIND
1070
     0
1002
}
1002
{
1000
REACTOR
1002
}
1001
GENIUS_GENOBJ-N-FIL_13
1002
{
1000
OWNER
1000
GEN
1002
}
  0
LINE
  5
120CF
  8
0
 10
219.81614728021319
 20
114.09626344498901
 30
0.0
 11
212.38477775341551
 21
114.09626344498911
 31
0.0
  0
LINE
  5
120D0
  8
0
 10
221.31614728021319
 20
110.59626344498879
 30
0.0
 11
210.88477775341551
 21
110.59626344498879
 31
0.0
  0
LINE
  5
120D3
  8
0
 10
264.4602694460894
 20
115.6480507348446
 30
0.0
 11
264.097542173362
 21
126.1480507348446
 31
0.0
  0
LINE
  5
120D4
  8
0
 10
253.43378883838329
 20
110.59626344498891
 30
0.0
 11
253.43378883838329
 21
126.09626344498879
 31
0.0
  0
LINE
  5
120D5
  8
0
 10
242.5906546527622
 20
110.59626344498879
 30
0.0
 11
242.5906546527622
 21
126.09626344498879
 31
0.0
  0
LINE
  5
120D6
  8
0
 10
232.1592832958994
 20
110.59626344498879
 30
0.0
 11
232.1592832958994
 21
126.09626344498879
 31
0.0
  0
LINE
  5
120D7
  8
0
 10
221.31614728021319
 20
110.59626344498879
 30
0.0
 11
221.31614728021319
 21
126.09626344498879
 31
0.0
  0
LINE
  5
120D8
  8
0
 10
210.88477775341551
 20
110.59626344498879
 30
0.0
 11
210.88477775341551
 21
126.09626344498879
 31
0.0
  0
LINE
  5
120D9
  8
0
 10
199.05634213119319
 20
100.096263444988
 30
0.0
 11
200.01514208902691
 21
126.1480507348446
 31
0.0
  0
LINE
  5
120DA
  8
0
 10
148.6145289085442
 20
127.0742157202485
 30
0.0
 11
120.3613705801217
 21
111.02366888697129
 31
0.0
  0
LINE
  5
120DB
  8
1
 10
232.0563421311947
 20
132.59626344498889
 30
0.0
 11
232.0563421311945
 21
95.096263444988878
 31
0.0
  0
LINE
  5
120DC
  8
0
 10
119.4063113313054
 20
223.53743432080651
 30
0.0
 11
156.8439272889913
 21
223.53743432080651
 31
0.0
  0
LINE
  5
120DD
  8
0
 10
119.4063113313054
 20
157.53743432080651
 30
0.0
 11
156.8439272889913
 21
157.53743432080651
 31
0.0
  0
LINE
  5
120DE
  8
1
 10
125.6191210343637
 20
190.53743432080671
 30
0.0
 11
179.03346937675951
 21
190.53743432080651
 31
0.0
  0
LINE
  5
120DF
  8
1
 10
126.10349294791379
 20
207.03743432080671
 30
0.0
 11
176.53346937675951
 21
207.03743432080651
 31
0.0
  0
LINE
  5
120E0
  8
1
 10
126.10349294791349
 20
174.03743432080691
 30
0.0
 11
176.53346937675951
 21
174.037434320806
 31
0.0
  0
ARC
  5
120E1
  8
0
 10
159.4700458031981
 20
106.09626344498879
 30
0.0
 40
8.0
 50
90.0
 51
176.02191183657411
1001
GENIUS_GENODEF_13
1002
{
1000
HIER
1070
     0
1002
}
1002
{
1000
MANEDIT
1070
     0
1002
}
1002
{
1000
NOSEL
1070
     0
1002
}
1002
{
1000
BEHIND
1070
     0
1002
}
1002
{
1000
REACTOR
1002
}
1001
GENIUS_GENOBJ-N-FIL_13
1002
{
1000
OWNER
1000
GEN
1002
}
  0
ARC
  5
120E2
  8
0
 10
150.59034468209609
 20
123.59626344498879
 30
0.0
 40
4.0
 50
90.0
 51
119.600795809834
1001
GENIUS_GENODEF_13
1002
{
1000
HIER
1070
     0
1002
}
1002
{
1000
MANEDIT
1070
     0
1002
}
1002
{
1000
NOSEL
1070
     0
1002
}
1002
{
1000
BEHIND
1070
     0
1002
}
1002
{
1000
REACTOR
1002
}
1001
GENIUS_GENOBJ-N-FIL_13
1002
{
1000
OWNER
1000
GEN
1002
}
  0
LINE
  5
120E3
  8
0
 10
118.0334693767595
 20
100.09626344498879
 30
0.0
 11
151.03346937675951
 21
100.09626344498879
 31
0.0
1001
GENIUS_GENOREF_13
1005
0
  0
LINE
  5
120E6
  8
0
 10
46.674268440993771
 20
85.096263444989447
 30
0.0
 11
45.67426844099375
 21
84.096263444989461
 31
0.0
  0
LINE
  5
120E7
  8
0
 10
40.674268440993778
 20
85.096263444989674
 30
0.0
 11
41.67426844099375
 21
84.096263444989631
 31
0.0
  0
LINE
  5
120E8
  8
0
 10
40.674268440993778
 20
85.096263444989674
 30
0.0
 11
46.674268440993771
 21
85.096263444989447
 31
0.0
  0
LINE
  5
120E9
  8
0
 10
41.67426844099375
 20
84.096263444989631
 30
0.0
 11
45.67426844099375
 21
84.096263444989461
 31
0.0
1001
GENIUS_GENOREF_13
1005
0
1005
0
  0
LINE
  5
120EA
  8
0
 10
46.674268440994432
 20
100.0962634449894
 30
0.0
 11
46.674268440993771
 21
85.096263444989447
 31
0.0
1001
GENIUS_GENOREF_13
1005
0
1005
0
  0
LINE
  5
120EB
  8
0
 10
40.674268440994418
 20
100.0962634449897
 30
0.0
 11
40.674268440993778
 21
85.096263444989674
 31
0.0
1001
GENIUS_GENOREF_13
1005
0
1005
0
  0
LINE
  5
120EC
  8
1
 10
43.674268440993629
 20
81.53287251010471
 30
0.0
 11
43.674268440994538
 21
102.66649795711039
 31
0.0
  0
LINE
  5
120ED
  8
3
 10
41.287768440993759
 20
84.482763444989686
 30
0.0
 11
41.287768440994419
 21
100.0962634449897
 31
0.0
1001
GENIUS_GENOREF_13
1005
0
1005
0
  0
LINE
  5
120EE
  8
3
 10
46.06076844099379
 20
84.482763444989473
 30
0.0
 11
46.060768440994437
 21
100.0962634449894
 31
0.0
1001
GENIUS_GENOREF_13
1005
0
1005
0
  0
LINE
  5
120EF
  8
3
 10
79.060768440993584
 20
84.482763444985224
 30
0.0
 11
79.060768440994224
 21
100.0962634449852
 31
0.0
1001
GENIUS_GENOREF_13
1005
0
1005
0
  0
LINE
  5
120F0
  8
3
 10
74.28776844099356
 20
84.482763444985423
 30
0.0
 11
74.287768440994213
 21
100.0962634449854
 31
0.0
1001
GENIUS_GENOREF_13
1005
0
1005
0
  0
LINE
  5
120F1
  8
1
 10
76.67426844099343
 20
81.532872510100447
 30
0.0
 11
76.674268440994339
 21
102.6664979571061
 31
0.0
  0
LINE
  5
120F2
  8
0
 10
73.674268440994226
 20
100.0962634449854
 30
0.0
 11
73.674268440993572
 21
85.096263444985425
 31
0.0
1001
GENIUS_GENOREF_13
1005
0
1005
0
  0
LINE
  5
120F3
  8
0
 10
79.674268440994226
 20
100.0962634449852
 30
0.0
 11
79.674268440993572
 21
85.096263444985183
 31
0.0
1001
GENIUS_GENOREF_13
1005
0
1005
0
  0
LINE
  5
120F4
  8
0
 10
74.674268440993544
 20
84.096263444985368
 30
0.0
 11
78.674268440993544
 21
84.096263444985183
 31
0.0
1001
GENIUS_GENOREF_13
1005
0
1005
0
  0
LINE
  5
120F5
  8
0
 10
73.674268440993572
 20
85.096263444985425
 30
0.0
 11
79.674268440993572
 21
85.096263444985183
 31
0.0
  0
LINE
  5
120F6
  8
0
 10
73.674268440993572
 20
85.096263444985425
 30
0.0
 11
74.674268440993544
 21
84.096263444985368
 31
0.0
  0
LINE
  5
120F7
  8
0
 10
79.674268440993572
 20
85.096263444985183
 30
0.0
 11
78.674268440993544
 21
84.096263444985183
 31
0.0
  0
LINE
  5
12103
  8
0
 10
137.7334693767595
 20
85.096263444988836
 30
0.0
 11
136.7334693767595
 21
84.096263444988836
 31
0.0
  0
LINE
  5
12104
  8
0
 10
137.7334693767595
 20
100.09626344498879
 30
0.0
 11
137.7334693767595
 21
85.096263444988836
 31
0.0
1001
GENIUS_GENOREF_13
1005
0
1005
0
  0
LINE
  5
12105
  8
1
 10
134.7334693767595
 20
81.532872510103971
 30
0.0
 11
134.7334693767595
 21
102.6664979571096
 31
0.0
  0
LINE
  5
12106
  8
3
 10
137.11996937675951
 20
84.482763444988834
 30
0.0
 11
137.11996937675951
 21
100.09626344498879
 31
0.0
1001
GENIUS_GENOREF_13
1005
0
1005
0
  0
LINE
  5
12107
  8
0
 10
131.7334693767595
 20
85.096263444988836
 30
0.0
 11
132.7334693767595
 21
84.096263444988836
 31
0.0
  0
LINE
  5
12108
  8
0
 10
131.7334693767595
 20
100.09626344498879
 30
0.0
 11
131.7334693767595
 21
85.096263444988836
 31
0.0
1001
GENIUS_GENOREF_13
1005
0
1005
0
  0
LINE
  5
12109
  8
3
 10
132.34696937675949
 20
84.482763444988834
 30
0.0
 11
132.34696937675949
 21
100.09626344498879
 31
0.0
1001
GENIUS_GENOREF_13
1005
0
1005
0
  0
LINE
  5
1210A
  8
0
 10
137.7334693767595
 20
85.096263444988836
 30
0.0
 11
131.7334693767595
 21
85.096263444988836
 31
0.0
  0
LINE
  5
1210B
  8
0
 10
136.7334693767595
 20
84.096263444988836
 30
0.0
 11
132.7334693767595
 21
84.096263444988836
 31
0.0
1001
GENIUS_GENOREF_13
1005
0
1005
0
  0
LINE
  5
1210C
  8
0
 10
168.53346937675951
 20
84.096263444988793
 30
0.0
 11
164.53346937675951
 21
84.096263444988793
 31
0.0
1001
GENIUS_GENOREF_13
1005
0
1005
0
  0
LINE
  5
1210D
  8
0
 10
169.53346937675951
 20
85.096263444988807
 30
0.0
 11
163.53346937675951
 21
85.096263444988807
 31
0.0
  0
LINE
  5
1210E
  8
3
 10
164.1469693767595
 20
84.482763444988819
 30
0.0
 11
164.1469693767595
 21
100.09626344498879
 31
0.0
1001
GENIUS_GENOREF_13
1005
0
1005
0
  0
LINE
  5
1210F
  8
0
 10
163.53346937675951
 20
100.09626344498879
 30
0.0
 11
163.53346937675951
 21
85.096263444988807
 31
0.0
1001
GENIUS_GENOREF_13
1005
0
1005
0
  0
LINE
  5
12110
  8
0
 10
163.53346937675951
 20
85.096263444988807
 30
0.0
 11
164.53346937675951
 21
84.096263444988793
 31
0.0
  0
LINE
  5
12111
  8
3
 10
168.9199693767595
 20
84.482763444988819
 30
0.0
 11
168.9199693767595
 21
100.09626344498879
 31
0.0
1001
GENIUS_GENOREF_13
1005
0
1005
0
  0
LINE
  5
12113
  8
0
 10
169.53346937675951
 20
100.09626344498879
 30
0.0
 11
169.53346937675951
 21
85.096263444988807
 31
0.0
1001
GENIUS_GENOREF_13
1005
0
1005
0
  0
LINE
  5
12114
  8
0
 10
169.53346937675951
 20
85.096263444988807
 30
0.0
 11
168.53346937675951
 21
84.096263444988793
 31
0.0
  0
LINE
  5
12120
  8
3
 10
217.94284213119411
 20
84.482763444988677
 30
0.0
 11
217.94284213119479
 21
100.09626344498859
 31
0.0
1001
GENIUS_GENOREF_13
1005
0
1005
0
  0
LINE
  5
12121
  8
3
 10
213.16984213119409
 20
84.482763444988905
 30
0.0
 11
213.1698421311948
 21
100.09626344498891
 31
0.0
1001
GENIUS_GENOREF_13
1005
0
1005
0
  0
LINE
  5
12122
  8
1
 10
215.55634213119399
 20
81.532872510103914
 30
0.0
 11
215.5563421311949
 21
102.6664979571096
 31
0.0
  0
LINE
  5
12123
  8
0
 10
212.55634213119481
 20
100.09626344498891
 30
0.0
 11
212.5563421311941
 21
85.096263444988878
 31
0.0
1001
GENIUS_GENOREF_13
1005
0
1005
0
  0
LINE
  5
12124
  8
0
 10
218.55634213119481
 20
100.09626344498859
 30
0.0
 11
218.5563421311941
 21
85.096263444988665
 31
0.0
1001
GENIUS_GENOREF_13
1005
0
1005
0
  0
LINE
  5
12125
  8
0
 10
213.5563421311941
 20
84.096263444988836
 30
0.0
 11
217.5563421311941
 21
84.096263444988665
 31
0.0
1001
GENIUS_GENOREF_13
1005
0
1005
0
  0
LINE
  5
12126
  8
0
 10
212.5563421311941
 20
85.096263444988878
 30
0.0
 11
218.5563421311941
 21
85.096263444988665
 31
0.0
  0
LINE
  5
12127
  8
0
 10
212.5563421311941
 20
85.096263444988878
 30
0.0
 11
213.5563421311941
 21
84.096263444988836
 31
0.0
  0
LINE
  5
12128
  8
0
 10
218.5563421311941
 20
85.096263444988665
 30
0.0
 11
217.5563421311941
 21
84.096263444988665
 31
0.0
  0
LINE
  5
12129
  8
0
 10
251.5563421311939
 20
85.096263444984416
 30
0.0
 11
250.5563421311939
 21
84.096263444984388
 31
0.0
  0
LINE
  5
1212A
  8
0
 10
245.5563421311939
 20
85.096263444984615
 30
0.0
 11
246.5563421311939
 21
84.096263444984572
 31
0.0
  0
LINE
  5
1212B
  8
0
 10
245.5563421311939
 20
85.096263444984615
 30
0.0
 11
251.5563421311939
 21
85.096263444984416
 31
0.0
  0
LINE
  5
1212C
  8
0
 10
246.5563421311939
 20
84.096263444984572
 30
0.0
 11
250.5563421311939
 21
84.096263444984388
 31
0.0
1001
GENIUS_GENOREF_13
1005
0
1005
0
  0
LINE
  5
1212D
  8
0
 10
251.55634213119461
 20
100.0962634449844
 30
0.0
 11
251.5563421311939
 21
85.096263444984416
 31
0.0
1001
GENIUS_GENOREF_13
1005
0
1005
0
  0
LINE
  5
1212E
  8
0
 10
245.55634213119461
 20
100.0962634449846
 30
0.0
 11
245.5563421311939
 21
85.096263444984615
 31
0.0
1001
GENIUS_GENOREF_13
1005
0
1005
0
  0
LINE
  5
1212F
  8
1
 10
248.55634213119379
 20
81.532872510099651
 30
0.0
 11
248.5563421311947
 21
102.66649795710531
 31
0.0
  0
LINE
  5
12130
  8
3
 10
246.16984213119389
 20
84.482763444984656
 30
0.0
 11
246.1698421311946
 21
100.0962634449846
 31
0.0
1001
GENIUS_GENOREF_13
1005
0
1005
0
  0
LINE
  5
12131
  8
3
 10
250.94284213119391
 20
84.482763444984414
 30
0.0
 11
250.9428421311946
 21
100.0962634449844
 31
0.0
1001
GENIUS_GENOREF_13
1005
0
1005
0
  0
LINE
  5
12132
  8
0
 10
300.49751300701172
 20
85.096263444988807
 30
0.0
 11
294.49751300701172
 21
85.096263444988807
 31
0.0
  0
LINE
  5
12133
  8
3
 10
295.11101300701159
 20
84.482763444988819
 30
0.0
 11
295.11101300701159
 21
100.09626344498879
 31
0.0
1001
GENIUS_GENOREF_13
1005
0
1005
0
  0
LINE
  5
12134
  8
0
 10
294.49751300701172
 20
100.09626344498879
 30
0.0
 11
294.49751300701172
 21
85.096263444988807
 31
0.0
1001
GENIUS_GENOREF_13
1005
0
1005
0
  0
LINE
  5
12135
  8
0
 10
294.49751300701172
 20
85.096263444988807
 30
0.0
 11
295.49751300701172
 21
84.096263444988793
 31
0.0
  0
LINE
  5
12136
  8
3
 10
299.88401300701162
 20
84.482763444988819
 30
0.0
 11
299.88401300701167
 21
100.09626344498879
 31
0.0
1001
GENIUS_GENOREF_13
1005
0
1005
0
  0
LINE
  5
12138
  8
0
 10
300.49751300701172
 20
100.09626344498879
 30
0.0
 11
300.49751300701172
 21
85.096263444988807
 31
0.0
1001
GENIUS_GENOREF_13
1005
0
1005
0
  0
LINE
  5
12139
  8
0
 10
300.49751300701172
 20
85.096263444988807
 30
0.0
 11
299.49751300701161
 21
84.096263444988793
 31
0.0
  0
LINE
  5
1213A
  8
0
 10
332.29751300701167
 20
85.096263444988779
 30
0.0
 11
331.29751300701167
 21
84.096263444988779
 31
0.0
  0
LINE
  5
1213B
  8
0
 10
332.29751300701167
 20
100.09626344498879
 30
0.0
 11
332.29751300701167
 21
85.096263444988779
 31
0.0
1001
GENIUS_GENOREF_13
1005
0
1005
0
  0
LINE
  5
1213C
  8
1
 10
329.29751300701167
 20
81.532872510103914
 30
0.0
 11
329.29751300701167
 21
102.6664979571096
 31
0.0
  0
LINE
  5
1213D
  8
3
 10
331.68401300701169
 20
84.482763444988791
 30
0.0
 11
331.68401300701169
 21
100.09626344498879
 31
0.0
1001
GENIUS_GENOREF_13
1005
0
1005
0
  0
LINE
  5
1213E
  8
0
 10
332.29751300701167
 20
85.096263444988779
 30
0.0
 11
326.29751300701167
 21
85.096263444988779
 31
0.0
  0
LINE
  5
1213F
  8
0
 10
331.29751300701167
 20
84.096263444988779
 30
0.0
 11
327.29751300701167
 21
84.096263444988779
 31
0.0
1001
GENIUS_GENOREF_13
1005
0
1005
0
  0
LINE
  5
12140
  8
0
 10
326.29751300701167
 20
85.096263444988779
 30
0.0
 11
327.29751300701167
 21
84.096263444988779
 31
0.0
  0
LINE
  5
12141
  8
0
 10
326.29751300701167
 20
100.09626344498879
 30
0.0
 11
326.29751300701167
 21
85.096263444988779
 31
0.0
1001
GENIUS_GENOREF_13
1005
0
1005
0
  0
LINE
  5
12142
  8
3
 10
326.91101300701172
 20
84.482763444988791
 30
0.0
 11
326.91101300701172
 21
100.09626344498879
 31
0.0
1001
GENIUS_GENOREF_13
1005
0
1005
0
  0
LINE
  5
12143
  8
0
 10
295.49751300701172
 20
84.096263444988793
 30
0.0
 11
299.49751300701161
 21
84.096263444988793
 31
0.0
  0
TEXT
  5
12250
  8
0
 62
     3
 10
0.0
 20
0.0
 30
0.0
 40
10.0
  1
EMH5565TT
  7
STANDARD1
  0
ENDSEC
  0
EOF
