  0
SECTION
  2
HEADER
  9
$ACADVER
  1
AC1009
  9
$INSBASE
 10
0.0
 20
0.0
 30
0.0
  9
$EXTMIN
 10
0.0
 20
-2.960436562073669
 30
0.0
  9
$EXTMAX
 10
239.381963648424
 20
170.8297190975409
 30
0.0
  9
$LIMMIN
 10
0.0
 20
0.0
  9
$LIMMAX
 10
375.0
 20
278.0
  9
$ORTHOMODE
 70
     1
  9
$REGENMODE
 70
     1
  9
$FILLMODE
 70
     1
  9
$QTEXTMODE
 70
     0
  9
$MIRRTEXT
 70
     0
  9
$DRAGMODE
 70
     2
  9
$LTSCALE
 40
10.0
  9
$OSMODE
 70
  3071
  9
$ATTMODE
 70
     1
  9
$TEXTSIZE
 40
0.2
  9
$TRACEWID
 40
0.05
  9
$TEXTSTYLE
  7
STANDARD
  9
$CLAYER
  8
0
  9
$CELTYPE
  6
BYLAYER
  9
$CECOLOR
 62
   256
  9
$DIMSCALE
 40
1.0
  9
$DIMASZ
 40
3.0
  9
$DIMEXO
 40
1.0
  9
$DIMDLI
 40
6.0
  9
$DIMRND
 40
0.0
  9
$DIMDLE
 40
0.0
  9
$DIMEXE
 40
1.0
  9
$DIMTP
 40
495.0
  9
$DIMTM
 40
0.0
  9
$DIMTXT
 40
3.0
  9
$DIMCEN
 40
0.0
  9
$DIMTSZ
 40
0.0
  9
$DIMTOL
 70
     0
  9
$DIMLIM
 70
     0
  9
$DIMTIH
 70
     0
  9
$DIMTOH
 70
     0
  9
$DIMSE1
 70
     0
  9
$DIMSE2
 70
     0
  9
$DIMTAD
 70
     1
  9
$DIMZIN
 70
     0
  9
$DIMBLK
  1

  9
$DIMASO
 70
     1
  9
$DIMSHO
 70
     0
  9
$DIMPOST
  1

  9
$DIMAPOST
  1

  9
$DIMALT
 70
     0
  9
$DIMALTD
 70
     2
  9
$DIMALTF
 40
25.399999999999999
  9
$DIMLFAC
 40
1.0
  9
$DIMTOFL
 70
     1
  9
$DIMTVP
 40
0.0
  9
$DIMTIX
 70
     1
  9
$DIMSOXD
 70
     0
  9
$DIMSAH
 70
     0
  9
$DIMBLK1
  1

  9
$DIMBLK2
  1

  9
$DIMSTYLE
  2
STANDARD
  9
$DIMCLRD
 70
     0
  9
$DIMCLRE
 70
     0
  9
$DIMCLRT
 70
     4
  9
$DIMTFAC
 40
1.0
  9
$DIMGAP
 40
1.0
  9
$LUNITS
 70
     2
  9
$LUPREC
 70
     4
  9
$SKETCHINC
 40
0.1
  9
$FILLETRAD
 40
0.0
  9
$AUNITS
 70
     0
  9
$AUPREC
 70
     0
  9
$MENU
  1
C:\R13\WIN\SUPPORT\ACAD-I
  9
$ELEVATION
 40
0.0
  9
$PELEVATION
 40
0.0
  9
$THICKNESS
 40
0.0
  9
$LIMCHECK
 70
     0
  9
$BLIPMODE
 70
     0
  9
$CHAMFERA
 40
0.0
  9
$CHAMFERB
 40
0.0
  9
$SKPOLY
 70
     0
  9
$TDCREATE
 40
2450834.4199027782
  9
$TDUPDATE
 40
2456598.683161193
  9
$TDINDWG
 40
0.1418751157
  9
$TDUSRTIMER
 40
0.1418751157
  9
$USRTIMER
 70
     1
  9
$ANGBASE
 50
0.0
  9
$ANGDIR
 70
     0
  9
$PDMODE
 70
     0
  9
$PDSIZE
 40
0.0
  9
$PLINEWID
 40
0.0
  9
$COORDS
 70
     1
  9
$SPLFRAME
 70
     0
  9
$SPLINETYPE
 70
     6
  9
$SPLINESEGS
 70
     8
  9
$ATTDIA
 70
     0
  9
$ATTREQ
 70
     1
  9
$HANDLING
 70
     1
  9
$HANDSEED
  5
12311
  9
$SURFTAB1
 70
     6
  9
$SURFTAB2
 70
     6
  9
$SURFTYPE
 70
     6
  9
$SURFU
 70
     6
  9
$SURFV
 70
     6
  9
$UCSNAME
  2

  9
$UCSORG
 10
0.0
 20
0.0
 30
0.0
  9
$UCSXDIR
 10
1.0
 20
0.0
 30
0.0
  9
$UCSYDIR
 10
0.0
 20
1.0
 30
0.0
  9
$PUCSNAME
  2

  9
$PUCSORG
 10
0.0
 20
0.0
 30
0.0
  9
$PUCSXDIR
 10
1.0
 20
0.0
 30
0.0
  9
$PUCSYDIR
 10
0.0
 20
1.0
 30
0.0
  9
$USERI1
 70
     4
  9
$USERI2
 70
     1
  9
$USERI3
 70
     1
  9
$USERI4
 70
     0
  9
$USERI5
 70
     0
  9
$USERR1
 40
1.0
  9
$USERR2
 40
3.0
  9
$USERR3
 40
3.0
  9
$USERR4
 40
3.0
  9
$USERR5
 40
10.0
  9
$WORLDVIEW
 70
     1
  9
$SHADEDGE
 70
     3
  9
$SHADEDIF
 70
    70
  9
$TILEMODE
 70
     1
  9
$MAXACTVP
 70
    16
  9
$PLIMCHECK
 70
     0
  9
$PEXTMIN
 10
1.0000000000000000E+020
 20
1.0000000000000000E+020
 30
1.0000000000000000E+020
  9
$PEXTMAX
 10
-1.0000000000000000E+020
 20
-1.0000000000000000E+020
 30
-1.0000000000000000E+020
  9
$PLIMMIN
 10
0.0
 20
0.0
  9
$PLIMMAX
 10
12.0
 20
9.0
  9
$UNITMODE
 70
     0
  9
$VISRETAIN
 70
     0
  9
$PLINEGEN
 70
     0
  9
$PSLTSCALE
 70
     0
  0
ENDSEC
  0
SECTION
  2
TABLES
  0
TABLE
  2
VPORT
 70
     1
  0
VPORT
  2
*ACTIVE
 70
     0
 10
0.0
 20
0.0
 11
1.0
 21
1.0
 12
187.49427839065231
 22
174.97168974450321
 13
0.0
 23
0.0
 14
10.0
 24
10.0
 15
10.0
 25
10.0
 16
0.0
 26
0.0
 36
1.0
 17
0.0
 27
0.0
 37
0.0
 40
359.12869706410731
 41
1.831871345029239
 42
50.0
 43
0.0
 44
0.0
 50
0.0
 51
0.0
 71
     0
 72
   100
 73
     1
 74
     0
 75
     0
 76
     0
 77
     0
 78
     0
  0
ENDTAB
  0
TABLE
  2
LTYPE
 70
     3
  0
LTYPE
  2
CONTINUOUS
 70
     0
  3
Solid Line
 72
    65
 73
     0
 40
0.0
  0
LTYPE
  2
CENTER
 70
     0
  3
____ _ ____ _ ____ _ ____ _ ____ _ ____ _ ____
 72
    65
 73
     4
 40
2.0
 49
1.25
 49
-0.25
 49
0.25
 49
-0.25
  0
LTYPE
  2
PHANTOM2
 70
     0
  3
___ _ _ ___ _ _ ___ _ _ ___ _ _
 72
    65
 73
     6
 40
1.25
 49
0.625
 49
-0.125
 49
0.125
 49
-0.125
 49
0.125
 49
-0.125
  0
ENDTAB
  0
TABLE
  2
LAYER
 70
     3
  0
LAYER
  2
0
 70
     0
 62
     7
  6
CONTINUOUS
  0
LAYER
  2
1
 70
     0
 62
     1
  6
CENTER
  0
LAYER
  2
3
 70
     0
 62
     3
  6
CONTINUOUS
  0
ENDTAB
  0
TABLE
  2
STYLE
 70
     2
  0
STYLE
  2
STANDARD
 70
     0
 40
0.0
 41
1.0
 50
0.0
 71
     0
 42
0.2
  3
SIMPLEX
  4
BIGFONT
  0
STYLE
  2
STANDARD1
 70
     0
 40
0.0
 41
1.0
 50
0.0
 71
     0
 42
3.0
  3
txt
  4

  0
ENDTAB
  0
TABLE
  2
VIEW
 70
     0
  0
ENDTAB
  0
TABLE
  2
UCS
 70
     0
  0
ENDTAB
  0
TABLE
  2
APPID
 70
    38
  0
APPID
  2
ACAD
 70
     0
  0
APPID
  2
GENIUS_GENOBJ_13
 70
     0
  0
APPID
  2
GENIUS_GENODEF_13
 70
     0
  0
APPID
  2
GENIUS_GENOENT_13
 70
     0
  0
APPID
  2
GENIUS_GENOLIS_13
 70
     0
  0
APPID
  2
GENIUS_GENOREF_13
 70
     0
  0
APPID
  2
GENIUS_GENOBJ-N-TIT_13
 70
     0
  0
APPID
  2
GENIUS_GENTITLE_13
 70
     0
  0
APPID
  2
GENIUS_GENZVEED_13
 70
     0
  0
APPID
  2
GENIUS_GENOBJ-N-FIL_13
 70
     0
  0
APPID
  2
GENIUS_GENOBJ-N-CRS_13
 70
     0
  0
APPID
  2
GENIUS_GEFINERT_13
 70
     0
  0
APPID
  2
GENIUS_GENOBJ-F-INER_13
 70
     0
  0
APPID
  2
GENIUS_GENOBJ-N-ZOO_13
 70
     0
  0
APPID
  2
GENIUS_GENZOO_13
 70
     0
  0
APPID
  2
GENIUS_GENOBJ-F-TOL_13
 70
     0
  0
APPID
  2
GENIUS_GENOBJ-N-RSSYM_13
 70
     0
  0
APPID
  2
GENIUS_GENSYMENT_13
 70
     0
  0
APPID
  2
GENIUS_GENBH_13
 70
     0
  0
APPID
  2
GENIUS_GENOBJ-NBEHI-BHF_13
 70
     0
  0
APPID
  2
GENIUS_GENOBJ-NBEHI-BHB_13
 70
     0
  0
APPID
  2
GENIUS_GENOBJ-F-PART_13
 70
     0
  0
APPID
  2
GENIUS_GEFSTDP_13
 70
     0
  0
APPID
  2
GENIUS_GENOBJ-N-LEADER_13
 70
     0
  0
APPID
  2
GENIUS_GENOBJ-N-REV_13
 70
     0
  0
APPID
  2
GENIUS_GENCFG_13
 70
     0
  0
APPID
  2
GENIUS_GENCFG0_13
 70
     0
  0
APPID
  2
GENIUS_GENCFG1_13
 70
     0
  0
APPID
  2
GENIUS_GENCFG2_13
 70
     0
  0
APPID
  2
GENIUS_GENCFG3_13
 70
     0
  0
APPID
  2
GENIUS_GEVCFG0_13
 70
     0
  0
APPID
  2
GENIUS_GENCFG4_13
 70
     0
  0
APPID
  2
GENIUS_GENOBJ-N-REC_13
 70
     0
  0
APPID
  2
GENIUS_GENFIL_13
 70
     0
  0
APPID
  2
GENIUS_GENOBJ-N-CHA_13
 70
     0
  0
APPID
  2
GENIUS_GENREC_13
 70
     0
  0
APPID
  2
ACAD_MLEADERVER
 70
     0
  0
APPID
  2
ACAD_NAV_VCDISPLAY
 70
     0
  0
ENDTAB
  0
TABLE
  2
DIMSTYLE
 70
     1
  0
DIMSTYLE
  2
STANDARD
 70
     0
  3

  4

  5

  6

  7

 40
1.0
 41
0.18
 42
0.0625
 43
0.38
 44
0.18
 45
0.0
 46
0.0
 47
0.0
 48
0.0
140
0.18
141
0.09
142
0.0
143
25.399999999999999
144
1.0
145
0.0
146
1.0
147
0.09
 71
     0
 72
     0
 73
     1
 74
     1
 75
     0
 76
     0
 77
     0
 78
     0
170
     0
171
     2
172
     0
173
     0
174
     0
175
     0
176
     0
177
     0
178
     0
  0
ENDTAB
  0
ENDSEC
  0
SECTION
  2
BLOCKS
  0
BLOCK
  8
0
  2
$MODEL_SPACE
 70
     0
 10
0.0
 20
0.0
 30
0.0
  3
$MODEL_SPACE
  1

  0
ENDBLK
  5
10ED4
  8
0
  0
BLOCK
 67
     1
  8
0
  2
$PAPER_SPACE
 70
     0
 10
0.0
 20
0.0
 30
0.0
  3
$PAPER_SPACE
  1

  0
ENDBLK
  5
10ED2
 67
     1
  8
0
  0
ENDSEC
  0
SECTION
  2
ENTITIES
  0
LINE
  5
11807
  8
1
 10
96.575111944556596
 20
137.82972220865199
 30
0.0
 11
126.67561745794789
 21
137.8297222086521
 31
0.0
  0
LINE
  5
11808
  8
1
 10
96.575111944556596
 20
157.82972220865199
 30
0.0
 11
126.67561745794789
 21
157.8297222086519
 31
0.0
  0
LINE
  5
11809
  8
1
 10
97.575111944556596
 20
147.82972220865199
 30
0.0
 11
128.17561745794791
 21
147.8297222086519
 31
0.0
  0
LINE
  5
1180A
  8
0
 10
117.008950707948
 20
141.43388951490189
 30
0.0
 11
124.3422842079479
 21
141.43388951490189
 31
0.0
  0
LINE
  5
1180B
  8
0
 10
117.0089507079479
 20
134.85055795101289
 30
0.0
 11
124.3422842079479
 21
134.85055795101289
 31
0.0
  0
LINE
  5
1180C
  8
0
 10
117.0089507079479
 20
127.5797222086519
 30
0.0
 11
124.3422842079479
 21
127.5797222086519
 31
0.0
  0
LINE
  5
1180D
  8
0
 10
112.499660954099
 20
141.30888952740199
 30
0.0
 11
123.9057742515989
 21
141.30888952740199
 31
0.0
  0
LINE
  5
1180E
  8
0
 10
112.499660954099
 20
134.97555793851291
 30
0.0
 11
123.9057742515989
 21
134.97555793851291
 31
0.0
  0
LINE
  5
1180F
  8
0
 10
117.008950707948
 20
154.3505548899019
 30
0.0
 11
124.3422842079479
 21
154.3505548899019
 31
0.0
  0
LINE
  5
11810
  8
0
 10
117.008950707948
 20
160.6838875899019
 30
0.0
 11
124.3422842079479
 21
160.6838875899019
 31
0.0
  0
LINE
  5
11811
  8
0
 10
117.008950707948
 20
147.76722221490189
 30
0.0
 11
124.3422842079479
 21
147.76722221490189
 31
0.0
  0
LINE
  5
11812
  8
0
 10
112.499660954099
 20
154.22555490240191
 30
0.0
 11
123.9057742515989
 21
154.22555490240191
 31
0.0
  0
LINE
  5
11813
  8
0
 10
112.499660954099
 20
147.89222220240191
 30
0.0
 11
123.9057742515989
 21
147.89222220240191
 31
0.0
  0
LINE
  5
11814
  8
0
 10
112.499660954099
 20
160.80888646629089
 30
0.0
 11
123.9057742515989
 21
160.80888646629089
 31
0.0
  0
LINE
  5
11815
  8
0
 10
117.4704044470941
 20
168.0797222086519
 30
0.0
 11
124.3422842079479
 21
168.0797222086519
 31
0.0
  0
LINE
  5
11816
  8
0
 10
112.499660954099
 20
167.2463858225409
 30
0.0
 11
123.9057742515989
 21
167.2463858225409
 31
0.0
  0
LINE
  5
11817
  8
1
 10
100.47561745794791
 20
142.88499794438991
 30
0.0
 11
100.47561745794791
 21
132.77444647291409
 31
0.0
  0
LINE
  5
11818
  8
0
 10
116.17561745794799
 20
147.89222220240191
 30
0.0
 11
116.17561745794799
 21
141.30888952740199
 31
0.0
  0
LINE
  5
11819
  8
0
 10
115.23894734683689
 20
141.30888952740199
 30
0.0
 11
115.23894734683689
 21
147.89222220240191
 31
0.0
  0
LINE
  5
1181A
  8
0
 10
91.176226445383037
 20
166.99638584754089
 30
0.0
 11
91.176226445383037
 21
128.41305545865191
 31
0.0
  0
LINE
  5
1181B
  8
0
 10
92.009559695383047
 20
127.5797222086519
 30
0.0
 11
115.23894734683689
 21
127.5797222086519
 31
0.0
  0
ARC
  5
1181C
  8
0
 10
92.009559695383047
 20
128.41305545865191
 30
0.0
 40
0.8333332499999999
 50
180.0
 51
270.0
  0
POINT
  5
1181D
  8
0
 10
91.176226445383037
 20
139.3061385964206
 30
0.0
  0
LINE
  5
1181E
  8
0
 10
116.17561745794789
 20
134.97555793851291
 30
0.0
 11
116.17561745794789
 21
128.41305545865191
 31
0.0
  0
LINE
  5
1181F
  8
0
 10
115.23894734683689
 20
127.5797222086519
 30
0.0
 11
115.23894734683689
 21
134.97555793851291
 31
0.0
  0
ARC
  5
11820
  8
0
 10
117.0089507079479
 20
128.41305545865191
 30
0.0
 40
0.8333332499999999
 50
180.0
 51
270.0
  0
ARC
  5
11821
  8
0
 10
117.0089507079479
 20
134.01722470101291
 30
0.0
 40
0.8333332499999999
 50
90.0
 51
180.0
  0
ARC
  5
11822
  8
0
 10
117.008950707948
 20
142.2672227649019
 30
0.0
 40
0.8333332499999999
 50
180.0
 51
270.0
  0
LINE
  5
11823
  8
0
 10
92.009559695383047
 20
168.0797222086519
 30
0.0
 11
115.23894734683689
 21
168.0797222086519
 31
0.0
  0
LINE
  5
11824
  8
1
 10
88.675617457947936
 20
147.8297222086519
 30
0.0
 11
95.079471762454645
 21
147.8297222086519
 31
0.0
  0
LINE
  5
11825
  8
1
 10
100.47561745794791
 20
152.77444647291409
 30
0.0
 11
100.47561745794791
 21
162.8849979443898
 31
0.0
  0
CIRCLE
  5
11826
  8
3
 10
97.389496999991508
 20
143.49627776017141
 30
0.0
 40
0.180725893852164
  0
LINE
  5
11827
  8
3
 10
97.521026863210665
 20
144.49447552565721
 30
0.0
 11
97.498491412649955
 21
144.4133479036384
 31
0.0
  0
LINE
  5
11828
  8
3
 10
97.381307069733865
 20
145.61223387347169
 30
0.0
 11
97.534548133547204
 21
145.4409644492097
 31
0.0
  0
LINE
  5
11829
  8
3
 10
97.56609776433217
 20
145.7880103878457
 30
0.0
 11
96.781864084817187
 21
145.7880103878457
 31
0.0
  0
LINE
  5
1182A
  8
3
 10
97.502998502761983
 20
146.4821022651175
 30
0.0
 11
97.525533953322835
 21
146.43252427388381
 31
0.0
  0
LINE
  5
1182B
  8
3
 10
97.525533953322835
 20
147.1987295929502
 30
0.0
 11
97.480463052201259
 21
147.19422250283799
 31
0.0
  0
LINE
  5
1182C
  8
3
 10
97.516519773098551
 20
148.33902339132541
 30
0.0
 11
97.534548133547204
 21
148.27592412975531
 31
0.0
  0
LINE
  5
1182D
  8
3
 10
97.674267927023934
 20
149.36213284678459
 30
0.0
 11
97.489477232425585
 21
149.35762575667249
 31
0.0
  0
LINE
  5
1182E
  8
3
 10
97.475955962089131
 20
150.15763425157999
 30
0.0
 11
98.373297508112955
 21
150.1722170569119
 31
0.0
  0
LINE
  5
1182F
  8
3
 10
97.512012682986366
 20
151.60666372263779
 30
0.0
 11
97.521026863210665
 21
151.59314245230141
 31
0.0
  0
LINE
  5
11830
  8
3
 10
97.638211206126726
 20
150.28608631977639
 30
0.0
 11
96.858484616723871
 21
150.2951005000007
 31
0.0
  0
LINE
  5
11831
  8
3
 10
97.439899241191895
 20
144.25559974971301
 30
0.0
 11
97.40834961040683
 21
144.1789792178063
 31
0.0
  0
LINE
  5
11832
  8
3
 10
97.471448871976946
 20
144.33222028161961
 30
0.0
 11
97.439899241191895
 21
144.25559974971301
 31
0.0
  0
LINE
  5
11833
  8
3
 10
97.367785799397353
 20
144.1068657760118
 30
0.0
 11
97.322714898275805
 21
144.0392594243296
 31
0.0
  0
LINE
  5
11834
  8
3
 10
97.322714898275805
 20
144.0392594243296
 30
0.0
 11
97.277643997154243
 21
143.9716530726472
 31
0.0
  0
LINE
  5
11835
  8
3
 10
97.277643997154243
 20
143.9716530726472
 30
0.0
 11
97.228066005920596
 21
143.9130609011892
 31
0.0
  0
LINE
  5
11836
  8
3
 10
97.40834961040683
 20
144.1789792178063
 30
0.0
 11
97.367785799397353
 21
144.1068657760118
 31
0.0
  0
LINE
  5
11837
  8
3
 10
97.228066005920596
 20
143.9130609011892
 30
0.0
 11
97.173980924574721
 21
143.8544687297312
 31
0.0
  0
LINE
  5
11838
  8
3
 10
97.155952564126096
 20
145.6753331350418
 30
0.0
 11
97.196516375135531
 21
145.6708260449297
 31
0.0
  0
LINE
  5
11839
  8
3
 10
97.196516375135531
 20
145.6708260449297
 30
0.0
 11
97.23257309603278
 21
145.66631895481751
 31
0.0
  0
LINE
  5
1183A
  8
3
 10
97.23257309603278
 20
145.66631895481751
 30
0.0
 11
97.273136907042144
 21
145.6573047745932
 31
0.0
  0
LINE
  5
1183B
  8
3
 10
97.273136907042144
 20
145.6573047745932
 30
0.0
 11
97.309193627939337
 21
145.64378350425679
 31
0.0
  0
LINE
  5
1183C
  8
3
 10
97.309193627939337
 20
145.64378350425679
 30
0.0
 11
97.381307069733865
 21
145.61223387347169
 31
0.0
  0
LINE
  5
1183D
  8
3
 10
97.498491412649955
 20
144.4133479036384
 30
0.0
 11
97.471448871976946
 21
144.33222028161961
 31
0.0
  0
LINE
  5
1183E
  8
3
 10
97.115388753116633
 20
143.80038364838529
 30
0.0
 11
96.993697320088501
 21
143.70573475603001
 31
0.0
  0
LINE
  5
1183F
  8
3
 10
96.542988308872992
 20
143.51192988120741
 30
0.0
 11
96.416789785732746
 21
143.49390152075881
 31
0.0
  0
LINE
  5
11840
  8
3
 10
96.777356994705059
 20
143.57953623288969
 30
0.0
 11
96.660172651789111
 21
143.53897242188029
 31
0.0
  0
LINE
  5
11841
  8
3
 10
96.885527157396822
 20
143.6336213142356
 30
0.0
 11
96.777356994705059
 21
143.57953623288969
 31
0.0
  0
LINE
  5
11842
  8
3
 10
96.993697320088501
 20
143.70573475603001
 30
0.0
 11
96.885527157396822
 21
143.6336213142356
 31
0.0
  0
LINE
  5
11843
  8
3
 10
96.660172651789111
 20
143.53897242188029
 30
0.0
 11
96.542988308872992
 21
143.51192988120741
 31
0.0
  0
LINE
  5
11844
  8
3
 10
96.038194216311666
 20
143.4848873405345
 30
0.0
 11
95.911995693171349
 21
143.4848873405345
 31
0.0
  0
LINE
  5
11845
  8
3
 10
96.168899829564154
 20
143.4848873405345
 30
0.0
 11
96.038194216311666
 21
143.4848873405345
 31
0.0
  0
LINE
  5
11846
  8
3
 10
96.295098352704514
 20
143.4848873405345
 30
0.0
 11
96.168899829564154
 21
143.4848873405345
 31
0.0
  0
LINE
  5
11847
  8
3
 10
95.785797170031032
 20
143.4848873405345
 30
0.0
 11
95.659598646890657
 21
143.4803802504224
 31
0.0
  0
LINE
  5
11848
  8
3
 10
95.911995693171349
 20
143.4848873405345
 30
0.0
 11
95.785797170031032
 21
143.4848873405345
 31
0.0
  0
LINE
  5
11849
  8
3
 10
96.416789785732746
 20
143.49390152075881
 30
0.0
 11
96.295098352704514
 21
143.4848873405345
 31
0.0
  0
LINE
  5
1184A
  8
3
 10
96.768342814480803
 20
145.06687596990091
 30
0.0
 11
96.763835724368604
 21
145.15251068203179
 31
0.0
  0
LINE
  5
1184B
  8
3
 10
96.754821544144278
 20
144.7333513016014
 30
0.0
 11
96.763835724368604
 21
144.81447892362019
 31
0.0
  0
LINE
  5
1184C
  8
3
 10
96.768342814480803
 20
144.895606545639
 30
0.0
 11
96.768342814480803
 21
144.98124125776991
 31
0.0
  0
LINE
  5
1184D
  8
3
 10
96.768342814480803
 20
144.98124125776991
 30
0.0
 11
96.768342814480803
 21
145.06687596990091
 31
0.0
  0
LINE
  5
1184E
  8
3
 10
96.763835724368604
 20
144.81447892362019
 30
0.0
 11
96.768342814480803
 21
144.895606545639
 31
0.0
  0
LINE
  5
1184F
  8
3
 10
96.709750643022744
 20
144.58011023778809
 30
0.0
 11
96.736793183695625
 21
144.6567307696948
 31
0.0
  0
LINE
  5
11850
  8
3
 10
96.736793183695625
 20
144.6567307696948
 30
0.0
 11
96.754821544144278
 21
144.7333513016014
 31
0.0
  0
LINE
  5
11851
  8
3
 10
96.601580480330938
 20
144.44489753442349
 30
0.0
 11
96.606087570443222
 21
144.44489753442349
 31
0.0
  0
LINE
  5
11852
  8
3
 10
96.606087570443222
 20
144.44489753442349
 30
0.0
 11
96.610594660555407
 21
144.44489753442349
 31
0.0
  0
LINE
  5
11853
  8
3
 10
96.610594660555407
 20
144.44489753442349
 30
0.0
 11
96.615101750667463
 21
144.44489753442349
 31
0.0
  0
LINE
  5
11854
  8
3
 10
96.615101750667463
 20
144.44489753442349
 30
0.0
 11
96.619608840779648
 21
144.44489753442349
 31
0.0
  0
LINE
  5
11855
  8
3
 10
96.619608840779648
 20
144.44489753442349
 30
0.0
 11
96.624115930891804
 21
144.44489753442349
 31
0.0
  0
LINE
  5
11856
  8
3
 10
96.624115930891804
 20
144.44489753442349
 30
0.0
 11
96.633130111116117
 21
144.4403904443113
 31
0.0
  0
LINE
  5
11857
  8
3
 10
96.633130111116117
 20
144.4403904443113
 30
0.0
 11
96.673693922125466
 21
144.5125038861058
 31
0.0
  0
LINE
  5
11858
  8
3
 10
96.673693922125466
 20
144.5125038861058
 30
0.0
 11
96.709750643022744
 21
144.58011023778809
 31
0.0
  0
LINE
  5
11859
  8
3
 10
96.754821544144278
 20
145.3237801062937
 30
0.0
 11
96.750314454032136
 21
145.40941481842461
 31
0.0
  0
LINE
  5
1185A
  8
3
 10
96.750314454032136
 20
145.40941481842461
 30
0.0
 11
96.750314454032136
 21
145.4950495305556
 31
0.0
  0
LINE
  5
1185B
  8
3
 10
96.759328634256505
 20
145.23814539416281
 30
0.0
 11
96.754821544144278
 21
145.3237801062937
 31
0.0
  0
LINE
  5
1185C
  8
3
 10
97.038768221210034
 20
145.69336149549051
 30
0.0
 11
97.079332032219412
 21
145.68885440537829
 31
0.0
  0
LINE
  5
1185D
  8
3
 10
97.079332032219412
 20
145.68885440537829
 30
0.0
 11
97.119895843228818
 21
145.68434731526611
 31
0.0
  0
LINE
  5
1185E
  8
3
 10
97.002711500312813
 20
145.69786858560261
 30
0.0
 11
97.038768221210034
 21
145.69336149549051
 31
0.0
  0
LINE
  5
1185F
  8
3
 10
96.763835724368604
 20
145.92773018132249
 30
0.0
 11
96.763835724368604
 21
145.9547727219954
 31
0.0
  0
LINE
  5
11860
  8
3
 10
96.763835724368604
 20
145.9547727219954
 30
0.0
 11
96.768342814480803
 21
145.98181526266839
 31
0.0
  0
LINE
  5
11861
  8
3
 10
96.768342814480803
 20
145.98181526266839
 30
0.0
 11
96.768342814480803
 21
146.00435071322909
 31
0.0
  0
LINE
  5
11862
  8
3
 10
96.768342814480803
 20
146.00435071322909
 30
0.0
 11
96.768342814480803
 21
146.03139325390211
 31
0.0
  0
LINE
  5
11863
  8
3
 10
96.768342814480803
 20
146.03139325390211
 30
0.0
 11
96.768342814480803
 21
146.05392870446289
 31
0.0
  0
LINE
  5
11864
  8
3
 10
96.768342814480803
 20
146.05392870446289
 30
0.0
 11
96.768342814480803
 21
146.07646415502359
 31
0.0
  0
LINE
  5
11865
  8
3
 10
96.768342814480803
 20
146.07646415502359
 30
0.0
 11
96.768342814480803
 21
146.0989996055844
 31
0.0
  0
LINE
  5
11866
  8
3
 10
96.781864084817187
 20
145.7880103878457
 30
0.0
 11
96.777356994705059
 21
145.7880103878457
 31
0.0
  0
LINE
  5
11867
  8
3
 10
96.777356994705059
 20
145.7880103878457
 30
0.0
 11
96.777356994705059
 21
145.78350329773349
 31
0.0
  0
LINE
  5
11868
  8
3
 10
96.777356994705059
 20
145.78350329773349
 30
0.0
 11
96.781864084817187
 21
145.77448911750921
 31
0.0
  0
LINE
  5
11869
  8
3
 10
96.781864084817187
 20
145.77448911750921
 30
0.0
 11
96.813413715602294
 21
145.75646075706061
 31
0.0
  0
LINE
  5
1186A
  8
3
 10
96.813413715602294
 20
145.75646075706061
 30
0.0
 11
96.849470436499544
 21
145.73843239661201
 31
0.0
  0
LINE
  5
1186B
  8
3
 10
96.849470436499544
 20
145.73843239661201
 30
0.0
 11
96.885527157396822
 21
145.72491112627549
 31
0.0
  0
LINE
  5
1186C
  8
3
 10
96.885527157396822
 20
145.72491112627549
 30
0.0
 11
96.926090968406214
 21
145.7158969460512
 31
0.0
  0
LINE
  5
1186D
  8
3
 10
96.926090968406214
 20
145.7158969460512
 30
0.0
 11
96.962147689303464
 21
145.70688276582689
 31
0.0
  0
LINE
  5
1186E
  8
3
 10
96.394254335171894
 20
145.75195366694851
 30
0.0
 11
96.434818146181357
 21
145.7294182163877
 31
0.0
  0
LINE
  5
1186F
  8
3
 10
96.434818146181357
 20
145.7294182163877
 30
0.0
 11
96.470874867078535
 21
145.71138985593899
 31
0.0
  0
LINE
  5
11870
  8
3
 10
96.470874867078535
 20
145.71138985593899
 30
0.0
 11
96.506931587975785
 21
145.68885440537829
 31
0.0
  0
LINE
  5
11871
  8
3
 10
96.506931587975785
 20
145.68885440537829
 30
0.0
 11
96.574537939658114
 21
145.63476932403239
 31
0.0
  0
LINE
  5
11872
  8
3
 10
96.574537939658114
 20
145.63476932403239
 30
0.0
 11
96.574537939658114
 21
145.63026223392029
 31
0.0
  0
LINE
  5
11873
  8
3
 10
96.574537939658114
 20
145.63026223392029
 30
0.0
 11
96.579045029770299
 21
145.63026223392029
 31
0.0
  0
LINE
  5
11874
  8
3
 10
96.579045029770299
 20
145.63026223392029
 30
0.0
 11
96.579045029770299
 21
145.62575514380811
 31
0.0
  0
LINE
  5
11875
  8
3
 10
96.579045029770299
 20
145.62575514380811
 30
0.0
 11
96.579045029770299
 21
145.62124805369601
 31
0.0
  0
LINE
  5
11876
  8
3
 10
96.579045029770299
 20
145.62124805369601
 30
0.0
 11
96.583552119882455
 21
145.61674096358379
 31
0.0
  0
LINE
  5
11877
  8
3
 10
96.583552119882455
 20
145.61674096358379
 30
0.0
 11
96.583552119882455
 21
145.61223387347169
 31
0.0
  0
LINE
  5
11878
  8
3
 10
96.583552119882455
 20
145.61223387347169
 30
0.0
 11
96.583552119882455
 21
145.60772678335951
 31
0.0
  0
LINE
  5
11879
  8
3
 10
96.583552119882455
 20
145.60772678335951
 30
0.0
 11
96.588059209994555
 21
145.60321969324741
 31
0.0
  0
LINE
  5
1187A
  8
3
 10
96.772849904592917
 20
145.74293948672411
 30
0.0
 11
96.768342814480803
 21
145.7880103878457
 31
0.0
  0
LINE
  5
1187B
  8
3
 10
96.768342814480803
 20
145.7880103878457
 30
0.0
 11
96.763835724368604
 21
145.82857419885511
 31
0.0
  0
LINE
  5
1187C
  8
3
 10
96.763835724368604
 20
145.8646309197523
 30
0.0
 11
96.763835724368604
 21
145.89618055053739
 31
0.0
  0
LINE
  5
1187D
  8
3
 10
96.763835724368604
 20
145.89618055053739
 30
0.0
 11
96.763835724368604
 21
145.92773018132249
 31
0.0
  0
LINE
  5
1187E
  8
3
 10
96.763835724368604
 20
145.82857419885511
 30
0.0
 11
96.763835724368604
 21
145.8646309197523
 31
0.0
  0
LINE
  5
1187F
  8
3
 10
96.750314454032136
 20
145.5806842426866
 30
0.0
 11
96.772849904592917
 21
145.74293948672411
 31
0.0
  0
LINE
  5
11880
  8
3
 10
96.962147689303464
 20
145.70688276582689
 30
0.0
 11
97.002711500312813
 21
145.69786858560261
 31
0.0
  0
LINE
  5
11881
  8
3
 10
96.750314454032136
 20
145.4950495305556
 30
0.0
 11
96.750314454032136
 21
145.5806842426866
 31
0.0
  0
LINE
  5
11882
  8
3
 10
96.763835724368604
 20
145.15251068203179
 30
0.0
 11
96.759328634256505
 21
145.23814539416281
 31
0.0
  0
LINE
  5
11883
  8
3
 10
96.588059209994555
 20
145.60321969324741
 30
0.0
 11
96.601580480330938
 21
144.44489753442349
 31
0.0
  0
POLYLINE
  5
11884
  8
3
 66
     1
 10
0.0
 20
0.0
 30
0.0
 70
     1
  0
VERTEX
  5
11885
  8
3
 10
96.051715486648135
 20
145.03983342922791
 30
0.0
  0
VERTEX
  5
11886
  8
3
 10
96.051715486648135
 20
144.4088408135263
 30
0.0
  0
VERTEX
  5
11887
  8
3
 10
96.042701306423837
 20
144.40433372341411
 30
0.0
  0
VERTEX
  5
11888
  8
3
 10
96.033687126199453
 20
144.3998266333019
 30
0.0
  0
VERTEX
  5
11889
  8
3
 10
96.029180036087325
 20
144.3998266333019
 30
0.0
  0
VERTEX
  5
1188A
  8
3
 10
96.020165855863056
 20
144.3998266333019
 30
0.0
  0
VERTEX
  5
1188B
  8
3
 10
96.015658765750885
 20
144.40433372341411
 30
0.0
  0
VERTEX
  5
1188C
  8
3
 10
96.006644585526644
 20
144.4088408135263
 30
0.0
  0
VERTEX
  5
1188D
  8
3
 10
95.997630405302203
 20
144.4133479036384
 30
0.0
  0
VERTEX
  5
1188E
  8
3
 10
95.988616225077877
 20
144.42236208386271
 30
0.0
  0
VERTEX
  5
1188F
  8
3
 10
95.984109134965792
 20
144.43137626408699
 30
0.0
  0
VERTEX
  5
11890
  8
3
 10
95.975094954741465
 20
144.4403904443113
 30
0.0
  0
VERTEX
  5
11891
  8
3
 10
95.966080774517096
 20
144.4494046245357
 30
0.0
  0
VERTEX
  5
11892
  8
3
 10
95.957066594292797
 20
144.45841880475999
 30
0.0
  0
VERTEX
  5
11893
  8
3
 10
95.952559504180726
 20
144.4674329849843
 30
0.0
  0
VERTEX
  5
11894
  8
3
 10
95.943545323956414
 20
144.47644716520861
 30
0.0
  0
VERTEX
  5
11895
  8
3
 10
95.930024053619974
 20
144.48996843554499
 30
0.0
  0
VERTEX
  5
11896
  8
3
 10
95.911995693171349
 20
144.51701097621799
 30
0.0
  0
VERTEX
  5
11897
  8
3
 10
95.893967332722724
 20
144.54856060700311
 30
0.0
  0
VERTEX
  5
11898
  8
3
 10
95.880446062386255
 20
144.57560314767599
 30
0.0
  0
VERTEX
  5
11899
  8
3
 10
95.871431882161829
 20
144.6026456883489
 30
0.0
  0
VERTEX
  5
1189A
  8
3
 10
95.862417701937574
 20
144.63419531913399
 30
0.0
  0
VERTEX
  5
1189B
  8
3
 10
95.853403521713275
 20
144.6612378598069
 30
0.0
  0
VERTEX
  5
1189C
  8
3
 10
95.844389341488949
 20
144.692787490592
 30
0.0
  0
VERTEX
  5
1189D
  8
3
 10
95.839882251376821
 20
144.72433712137709
 30
0.0
  0
VERTEX
  5
1189E
  8
3
 10
95.835375161264636
 20
144.7558867521621
 30
0.0
  0
VERTEX
  5
1189F
  8
3
 10
95.835375161264636
 20
144.78743638294731
 30
0.0
  0
VERTEX
  5
118A0
  8
3
 10
95.835375161264636
 20
144.8189860137324
 30
0.0
  0
VERTEX
  5
118A1
  8
3
 10
95.835375161264636
 20
144.85053564451741
 30
0.0
  0
VERTEX
  5
118A2
  8
3
 10
95.839882251376821
 20
144.8775781851904
 30
0.0
  0
VERTEX
  5
118A3
  8
3
 10
95.844389341488949
 20
144.90912781597549
 30
0.0
  0
VERTEX
  5
118A4
  8
3
 10
95.857910611825446
 20
144.9677199874335
 30
0.0
  0
VERTEX
  5
118A5
  8
3
 10
95.862417701937574
 20
144.98124125776991
 30
0.0
  0
VERTEX
  5
118A6
  8
3
 10
95.86692479204973
 20
144.99025543799419
 30
0.0
  0
VERTEX
  5
118A7
  8
3
 10
95.871431882161829
 20
145.00377670833069
 30
0.0
  0
VERTEX
  5
118A8
  8
3
 10
95.880446062386255
 20
145.012790888555
 30
0.0
  0
VERTEX
  5
118A9
  8
3
 10
95.884953152498355
 20
145.02180506877929
 30
0.0
  0
VERTEX
  5
118AA
  8
3
 10
95.893967332722724
 20
145.0308192490036
 30
0.0
  0
VERTEX
  5
118AB
  8
3
 10
95.90298151294698
 20
145.03983342922791
 30
0.0
  0
VERTEX
  5
118AC
  8
3
 10
95.911995693171349
 20
145.0443405193401
 30
0.0
  0
VERTEX
  5
118AD
  8
3
 10
95.921009873395604
 20
145.05335469956441
 30
0.0
  0
VERTEX
  5
118AE
  8
3
 10
95.930024053619974
 20
145.05786178967659
 30
0.0
  0
VERTEX
  5
118AF
  8
3
 10
95.939038233844286
 20
145.06236887978869
 30
0.0
  0
VERTEX
  5
118B0
  8
3
 10
95.948052414068542
 20
145.06687596990091
 30
0.0
  0
VERTEX
  5
118B1
  8
3
 10
95.957066594292797
 20
145.07138306001301
 30
0.0
  0
VERTEX
  5
118B2
  8
3
 10
95.970587864629266
 20
145.07589015012519
 30
0.0
  0
VERTEX
  5
118B3
  8
3
 10
95.993123315190161
 20
145.0803972402374
 30
0.0
  0
VERTEX
  5
118B4
  8
3
 10
96.04720839653595
 20
145.04884760945231
 30
0.0
  0
VERTEX
  5
118B5
  8
3
 10
96.04720839653595
 20
145.0443405193401
 30
0.0
  0
VERTEX
  5
118B6
  8
3
 10
96.051715486648135
 20
145.03983342922791
 30
0.0
  0
SEQEND
  5
118B7
  8
3
  0
LINE
  5
118B8
  8
3
 10
96.385240154947553
 20
146.06294288468709
 30
0.0
 11
96.331155073601707
 21
146.04040743412631
 31
0.0
  0
LINE
  5
118B9
  8
3
 10
96.331155073601707
 20
146.04040743412631
 30
0.0
 11
96.277069992255889
 21
146.01787198356561
 31
0.0
  0
LINE
  5
118BA
  8
3
 10
96.277069992255889
 20
146.01787198356561
 30
0.0
 11
96.222984910909943
 21
146.00435071322909
 31
0.0
  0
LINE
  5
118BB
  8
3
 10
96.222984910909943
 20
146.00435071322909
 30
0.0
 11
96.168899829564154
 21
145.9908294428927
 31
0.0
  0
LINE
  5
118BC
  8
3
 10
96.168899829564154
 20
145.9908294428927
 30
0.0
 11
96.114814748218222
 21
145.98181526266839
 31
0.0
  0
LINE
  5
118BD
  8
3
 10
96.092279297657512
 20
145.83758837907939
 30
0.0
 11
96.137350198779075
 21
145.82857419885511
 31
0.0
  0
LINE
  5
118BE
  8
3
 10
96.137350198779075
 20
145.82857419885511
 30
0.0
 11
96.182421099900665
 21
145.8195600186308
 31
0.0
  0
LINE
  5
118BF
  8
3
 10
96.182421099900665
 20
145.8195600186308
 30
0.0
 11
96.227492001022114
 21
145.81054583840651
 31
0.0
  0
LINE
  5
118C0
  8
3
 10
96.227492001022114
 20
145.81054583840651
 30
0.0
 11
96.272562902143747
 21
145.79702456806999
 31
0.0
  0
LINE
  5
118C1
  8
3
 10
96.272562902143747
 20
145.79702456806999
 30
0.0
 11
96.313126713153082
 21
145.78350329773349
 31
0.0
  0
LINE
  5
118C2
  8
3
 10
96.313126713153082
 20
145.78350329773349
 30
0.0
 11
96.353690524162545
 21
145.76547493728489
 31
0.0
  0
LINE
  5
118C3
  8
3
 10
95.943545323956442
 20
145.96829399233189
 30
0.0
 11
95.889460242610511
 21
145.96829399233189
 31
0.0
  0
LINE
  5
118C4
  8
3
 10
95.911995693171349
 20
145.8466025593037
 30
0.0
 11
95.957066594292826
 21
145.8466025593037
 31
0.0
  0
LINE
  5
118C5
  8
3
 10
96.002137495414416
 20
145.96829399233189
 30
0.0
 11
95.943545323956442
 21
145.96829399233189
 31
0.0
  0
LINE
  5
118C6
  8
3
 10
95.957066594292826
 20
145.8466025593037
 30
0.0
 11
96.002137495414416
 21
145.8466025593037
 31
0.0
  0
LINE
  5
118C7
  8
3
 10
96.114814748218222
 20
145.98181526266839
 30
0.0
 11
96.056222576760348
 21
145.97280108244411
 31
0.0
  0
LINE
  5
118C8
  8
3
 10
96.047208396535979
 20
145.84209546919149
 30
0.0
 11
96.092279297657512
 21
145.83758837907939
 31
0.0
  0
LINE
  5
118C9
  8
3
 10
96.056222576760348
 20
145.97280108244411
 30
0.0
 11
96.002137495414416
 21
145.96829399233189
 31
0.0
  0
LINE
  5
118CA
  8
3
 10
96.002137495414416
 20
145.8466025593037
 30
0.0
 11
96.047208396535979
 21
145.84209546919149
 31
0.0
  0
LINE
  5
118CB
  8
3
 10
95.830868071152537
 20
145.97730817255621
 30
0.0
 11
95.776782989806662
 21
145.98181526266839
 31
0.0
  0
LINE
  5
118CC
  8
3
 10
95.776782989806662
 20
145.98181526266839
 30
0.0
 11
95.722697908460773
 21
145.9953365330048
 31
0.0
  0
LINE
  5
118CD
  8
3
 10
95.727204998572887
 20
145.81054583840651
 30
0.0
 11
95.785797170031032
 21
145.82406710874301
 31
0.0
  0
LINE
  5
118CE
  8
3
 10
95.722697908460773
 20
145.9953365330048
 30
0.0
 11
95.668612827114984
 21
146.0088578033413
 31
0.0
  0
LINE
  5
118CF
  8
3
 10
95.668612827114984
 20
145.79251747795789
 30
0.0
 11
95.727204998572887
 21
145.81054583840651
 31
0.0
  0
LINE
  5
118D0
  8
3
 10
95.785797170031032
 20
145.82406710874301
 30
0.0
 11
95.911995693171349
 21
145.8466025593037
 31
0.0
  0
LINE
  5
118D1
  8
3
 10
95.889460242610511
 20
145.96829399233189
 30
0.0
 11
95.830868071152537
 21
145.97730817255621
 31
0.0
  0
LINE
  5
118D2
  8
3
 10
96.353690524162545
 20
145.76547493728489
 30
0.0
 11
96.394254335171894
 21
145.75195366694851
 31
0.0
  0
LINE
  5
118D3
  8
3
 10
96.439325236293456
 20
146.08547833524801
 30
0.0
 11
96.385240154947553
 21
146.06294288468709
 31
0.0
  0
LINE
  5
118D4
  8
3
 10
95.411708690722094
 20
143.45784479986159
 30
0.0
 11
95.294524347806032
 21
143.4308022591886
 31
0.0
  0
LINE
  5
118D5
  8
3
 10
95.533400123750312
 20
143.471366070198
 30
0.0
 11
95.411708690722094
 21
143.45784479986159
 31
0.0
  0
LINE
  5
118D6
  8
3
 10
95.294524347806032
 20
143.4308022591886
 30
0.0
 11
95.073676932310462
 21
143.33164627672119
 31
0.0
  0
LINE
  5
118D7
  8
3
 10
95.118747833432025
 20
144.24207847937649
 30
0.0
 11
95.127762013656337
 21
144.2465855694887
 31
0.0
  0
LINE
  5
118D8
  8
3
 10
95.127762013656337
 20
144.2465855694887
 30
0.0
 11
95.132269103768479
 21
144.2510926596008
 31
0.0
  0
LINE
  5
118D9
  8
3
 10
95.132269103768479
 20
144.2510926596008
 30
0.0
 11
95.141283283992749
 21
144.25559974971301
 31
0.0
  0
LINE
  5
118DA
  8
3
 10
95.141283283992749
 20
144.25559974971301
 30
0.0
 11
95.150297464217118
 21
144.25559974971301
 31
0.0
  0
LINE
  5
118DB
  8
3
 10
95.150297464217118
 20
144.25559974971301
 30
0.0
 11
95.159311644441431
 21
144.2601068398252
 31
0.0
  0
LINE
  5
118DC
  8
3
 10
95.159311644441431
 20
144.2601068398252
 30
0.0
 11
95.168325824665743
 21
144.2646139299373
 31
0.0
  0
LINE
  5
118DD
  8
3
 10
95.168325824665743
 20
144.2646139299373
 30
0.0
 11
95.190861275226439
 21
144.26912102004951
 31
0.0
  0
LINE
  5
118DE
  8
3
 10
95.190861275226439
 20
144.26912102004951
 30
0.0
 11
95.190861275226439
 21
144.27362811016161
 31
0.0
  0
LINE
  5
118DF
  8
3
 10
95.190861275226439
 20
144.27362811016161
 30
0.0
 11
95.190861275226439
 21
144.27813520027379
 31
0.0
  0
LINE
  5
118E0
  8
3
 10
95.190861275226439
 20
144.27813520027379
 30
0.0
 11
95.195368365338624
 21
144.27813520027379
 31
0.0
  0
LINE
  5
118E1
  8
3
 10
95.195368365338624
 20
144.27813520027379
 30
0.0
 11
95.195368365338624
 21
144.28264229038589
 31
0.0
  0
LINE
  5
118E2
  8
3
 10
95.195368365338624
 20
144.28264229038589
 30
0.0
 11
95.199875455450865
 21
144.28714938049811
 31
0.0
  0
LINE
  5
118E3
  8
3
 10
95.199875455450865
 20
144.28714938049811
 30
0.0
 11
95.199875455450865
 21
144.29165647061021
 31
0.0
  0
LINE
  5
118E4
  8
3
 10
95.199875455450865
 20
144.29165647061021
 30
0.0
 11
95.199875455450865
 21
144.29616356072239
 31
0.0
  0
LINE
  5
118E5
  8
3
 10
95.199875455450865
 20
144.29616356072239
 30
0.0
 11
95.199875455450865
 21
144.3006706508346
 31
0.0
  0
LINE
  5
118E6
  8
3
 10
95.199875455450865
 20
144.3006706508346
 30
0.0
 11
95.199875455450865
 21
144.3051777409467
 31
0.0
  0
LINE
  5
118E7
  8
3
 10
95.199875455450865
 20
144.3051777409467
 30
0.0
 11
95.199875455450865
 21
144.30968483105889
 31
0.0
  0
LINE
  5
118E8
  8
3
 10
95.199875455450865
 20
144.30968483105889
 30
0.0
 11
95.199875455450865
 21
144.31419192117099
 31
0.0
  0
LINE
  5
118E9
  8
3
 10
95.199875455450865
 20
144.31419192117099
 30
0.0
 11
95.199875455450865
 21
144.3186990112832
 31
0.0
  0
LINE
  5
118EA
  8
3
 10
95.199875455450865
 20
144.3186990112832
 30
0.0
 11
95.199875455450865
 21
144.3232061013953
 31
0.0
  0
LINE
  5
118EB
  8
3
 10
95.199875455450865
 20
144.3232061013953
 30
0.0
 11
95.204382545562936
 21
144.32771319150751
 31
0.0
  0
LINE
  5
118EC
  8
3
 10
95.204382545562936
 20
144.32771319150751
 30
0.0
 11
95.195368365338624
 21
144.3367273717318
 31
0.0
  0
LINE
  5
118ED
  8
3
 10
95.195368365338624
 20
144.3367273717318
 30
0.0
 11
95.190861275226439
 21
144.34574155195611
 31
0.0
  0
LINE
  5
118EE
  8
3
 10
95.190861275226439
 20
144.34574155195611
 30
0.0
 11
95.186354185114311
 21
144.35475573218039
 31
0.0
  0
LINE
  5
118EF
  8
3
 10
95.109733653207698
 20
144.23757138926439
 30
0.0
 11
95.118747833432025
 21
144.24207847937649
 31
0.0
  0
LINE
  5
118F0
  8
3
 10
95.073676932310462
 20
144.1970075782549
 30
0.0
 11
95.073676932310462
 21
144.2060217584793
 31
0.0
  0
LINE
  5
118F1
  8
3
 10
95.073676932310462
 20
144.2060217584793
 30
0.0
 11
95.082691112534775
 21
144.21052884859139
 31
0.0
  0
LINE
  5
118F2
  8
3
 10
95.082691112534775
 20
144.21052884859139
 30
0.0
 11
95.087198202646917
 21
144.21954302881571
 31
0.0
  0
LINE
  5
118F3
  8
3
 10
95.087198202646917
 20
144.21954302881571
 30
0.0
 11
95.091705292759087
 21
144.22405011892789
 31
0.0
  0
LINE
  5
118F4
  8
3
 10
95.091705292759087
 20
144.22405011892789
 30
0.0
 11
95.096212382871215
 21
144.2285572090401
 31
0.0
  0
LINE
  5
118F5
  8
3
 10
95.096212382871215
 20
144.2285572090401
 30
0.0
 11
95.105226563095556
 21
144.2330642991522
 31
0.0
  0
LINE
  5
118F6
  8
3
 10
95.105226563095556
 20
144.2330642991522
 30
0.0
 11
95.109733653207698
 21
144.23757138926439
 31
0.0
  0
LINE
  5
118F7
  8
3
 10
95.073676932310462
 20
143.9716530726472
 30
0.0
 11
95.073676932310462
 21
144.1970075782549
 31
0.0
  0
LINE
  5
118F8
  8
3
 10
95.073676932310462
 20
143.33164627672119
 30
0.0
 11
95.073676932310462
 21
143.9716530726472
 31
0.0
  0
LINE
  5
118F9
  8
3
 10
95.073676932310462
 20
144.74236548182569
 30
0.0
 11
95.069169842198264
 21
144.7919434730594
 31
0.0
  0
LINE
  5
118FA
  8
3
 10
95.064662752086136
 20
144.94518453687269
 30
0.0
 11
95.069169842198264
 21
144.99476252810641
 31
0.0
  0
LINE
  5
118FB
  8
3
 10
95.069169842198264
 20
144.99476252810641
 30
0.0
 11
95.073676932310462
 21
145.0443405193401
 31
0.0
  0
LINE
  5
118FC
  8
3
 10
95.064662752086136
 20
144.84152146429309
 30
0.0
 11
95.064662752086136
 21
144.89109945552681
 31
0.0
  0
LINE
  5
118FD
  8
3
 10
95.064662752086136
 20
144.89109945552681
 30
0.0
 11
95.064662752086136
 21
144.94518453687269
 31
0.0
  0
LINE
  5
118FE
  8
3
 10
95.069169842198264
 20
144.7919434730594
 30
0.0
 11
95.064662752086136
 21
144.84152146429309
 31
0.0
  0
LINE
  5
118FF
  8
3
 10
95.096212382871215
 20
144.5846173279003
 30
0.0
 11
95.087198202646917
 21
144.63870240924621
 31
0.0
  0
LINE
  5
11900
  8
3
 10
95.087198202646917
 20
144.63870240924621
 30
0.0
 11
95.078184022422533
 21
144.6882804004799
 31
0.0
  0
LINE
  5
11901
  8
3
 10
95.078184022422533
 20
144.6882804004799
 30
0.0
 11
95.073676932310462
 21
144.74236548182569
 31
0.0
  0
LINE
  5
11902
  8
3
 10
95.181847095002183
 20
144.36827700251681
 30
0.0
 11
95.172832914777842
 21
144.3772911827412
 31
0.0
  0
LINE
  5
11903
  8
3
 10
95.172832914777842
 20
144.3772911827412
 30
0.0
 11
95.168325824665743
 21
144.38630536296549
 31
0.0
  0
LINE
  5
11904
  8
3
 10
95.168325824665743
 20
144.38630536296549
 30
0.0
 11
95.163818734553615
 21
144.3953195431898
 31
0.0
  0
LINE
  5
11905
  8
3
 10
95.163818734553615
 20
144.3953195431898
 30
0.0
 11
95.159311644441431
 21
144.40433372341411
 31
0.0
  0
LINE
  5
11906
  8
3
 10
95.159311644441431
 20
144.40433372341411
 30
0.0
 11
95.154804554329246
 21
144.41785499375061
 31
0.0
  0
LINE
  5
11907
  8
3
 10
95.154804554329246
 20
144.41785499375061
 30
0.0
 11
95.150297464217118
 21
144.42686917397489
 31
0.0
  0
LINE
  5
11908
  8
3
 10
95.150297464217118
 20
144.42686917397489
 30
0.0
 11
95.145790374104976
 21
144.43588335419921
 31
0.0
  0
LINE
  5
11909
  8
3
 10
95.145790374104976
 20
144.43588335419921
 30
0.0
 11
95.141283283992749
 21
144.44489753442349
 31
0.0
  0
LINE
  5
1190A
  8
3
 10
95.141283283992749
 20
144.44489753442349
 30
0.0
 11
95.136776193880607
 21
144.4539117146478
 31
0.0
  0
LINE
  5
1190B
  8
3
 10
95.136776193880607
 20
144.4539117146478
 30
0.0
 11
95.132269103768479
 21
144.46292589487209
 31
0.0
  0
LINE
  5
1190C
  8
3
 10
95.132269103768479
 20
144.46292589487209
 30
0.0
 11
95.123254923544195
 21
144.47644716520861
 31
0.0
  0
LINE
  5
1190D
  8
3
 10
95.123254923544195
 20
144.47644716520861
 30
0.0
 11
95.109733653207698
 21
144.5305322465544
 31
0.0
  0
LINE
  5
1190E
  8
3
 10
95.109733653207698
 20
144.5305322465544
 30
0.0
 11
95.096212382871215
 21
144.5846173279003
 31
0.0
  0
LINE
  5
1190F
  8
3
 10
95.078184022422533
 20
145.09391851057379
 30
0.0
 11
95.087198202646917
 21
145.1434965018075
 31
0.0
  0
LINE
  5
11910
  8
3
 10
95.087198202646917
 20
145.1434965018075
 30
0.0
 11
95.100719472983457
 21
145.19307449304131
 31
0.0
  0
LINE
  5
11911
  8
3
 10
95.073676932310462
 20
145.0443405193401
 30
0.0
 11
95.078184022422533
 21
145.09391851057379
 31
0.0
  0
LINE
  5
11912
  8
3
 10
95.159311644441431
 20
145.3643439173031
 30
0.0
 11
95.186354185114311
 21
145.41392190853691
 31
0.0
  0
LINE
  5
11913
  8
3
 10
95.217903815899419
 20
145.46349989977051
 30
0.0
 11
95.249453446684498
 21
145.5085708008921
 31
0.0
  0
LINE
  5
11914
  8
3
 10
95.186354185114311
 20
145.41392190853691
 30
0.0
 11
95.217903815899419
 21
145.46349989977051
 31
0.0
  0
LINE
  5
11915
  8
3
 10
95.127762013656337
 20
145.2922304755086
 30
0.0
 11
95.127762013656337
 21
145.30124465573289
 31
0.0
  0
LINE
  5
11916
  8
3
 10
95.127762013656337
 20
145.30124465573289
 30
0.0
 11
95.132269103768479
 21
145.3057517458451
 31
0.0
  0
LINE
  5
11917
  8
3
 10
95.132269103768479
 20
145.3057517458451
 30
0.0
 11
95.132269103768479
 21
145.31025883595731
 31
0.0
  0
LINE
  5
11918
  8
3
 10
95.132269103768479
 20
145.31025883595731
 30
0.0
 11
95.136776193880607
 21
145.31476592606941
 31
0.0
  0
LINE
  5
11919
  8
3
 10
95.136776193880607
 20
145.31476592606941
 30
0.0
 11
95.136776193880607
 21
145.3192730161816
 31
0.0
  0
LINE
  5
1191A
  8
3
 10
95.141283283992749
 20
145.3237801062937
 30
0.0
 11
95.145790374104976
 21
145.32828719640591
 31
0.0
  0
LINE
  5
1191B
  8
3
 10
95.145790374104976
 20
145.32828719640591
 30
0.0
 11
95.145790374104976
 21
145.33279428651801
 31
0.0
  0
LINE
  5
1191C
  8
3
 10
95.145790374104976
 20
145.33279428651801
 30
0.0
 11
95.150297464217118
 21
145.33730137663019
 31
0.0
  0
LINE
  5
1191D
  8
3
 10
95.150297464217118
 20
145.33730137663019
 30
0.0
 11
95.150297464217118
 21
145.34180846674241
 31
0.0
  0
LINE
  5
1191E
  8
3
 10
95.150297464217118
 20
145.34180846674241
 30
0.0
 11
95.150297464217118
 21
145.34631555685451
 31
0.0
  0
LINE
  5
1191F
  8
3
 10
95.150297464217118
 20
145.34631555685451
 30
0.0
 11
95.154804554329246
 21
145.34631555685451
 31
0.0
  0
LINE
  5
11920
  8
3
 10
95.154804554329246
 20
145.34631555685451
 30
0.0
 11
95.154804554329246
 21
145.35082264696669
 31
0.0
  0
LINE
  5
11921
  8
3
 10
95.154804554329246
 20
145.35532973707879
 30
0.0
 11
95.159311644441431
 21
145.3643439173031
 31
0.0
  0
LINE
  5
11922
  8
3
 10
95.154804554329246
 20
145.35082264696669
 30
0.0
 11
95.154804554329246
 21
145.35532973707879
 31
0.0
  0
LINE
  5
11923
  8
3
 10
95.136776193880607
 20
145.3192730161816
 30
0.0
 11
95.141283283992749
 21
145.3237801062937
 31
0.0
  0
LINE
  5
11924
  8
3
 10
95.569456844647505
 20
146.04942161435071
 30
0.0
 11
95.528893033638127
 21
146.07195706491149
 31
0.0
  0
LINE
  5
11925
  8
3
 10
95.528893033638127
 20
146.07195706491149
 30
0.0
 11
95.488329222628778
 21
146.09449251547221
 31
0.0
  0
LINE
  5
11926
  8
3
 10
95.461286681955826
 20
145.68885440537829
 30
0.0
 11
95.506357583077346
 21
145.72040403616339
 31
0.0
  0
LINE
  5
11927
  8
3
 10
95.506357583077346
 20
145.72040403616339
 30
0.0
 11
95.560442664423178
 21
145.7474465768363
 31
0.0
  0
LINE
  5
11928
  8
3
 10
95.560442664423178
 20
145.7474465768363
 30
0.0
 11
95.614527745769095
 21
145.76998202739711
 31
0.0
  0
LINE
  5
11929
  8
3
 10
95.285510167581748
 20
145.54913461190151
 30
0.0
 11
95.326073978591182
 21
145.58969842291091
 31
0.0
  0
LINE
  5
1192A
  8
3
 10
95.366637789600446
 20
145.62575514380811
 30
0.0
 11
95.411708690722094
 21
145.6573047745932
 31
0.0
  0
LINE
  5
1192B
  8
3
 10
95.326073978591182
 20
145.58969842291091
 30
0.0
 11
95.366637789600446
 21
145.62575514380811
 31
0.0
  0
LINE
  5
1192C
  8
3
 10
95.411708690722094
 20
145.6573047745932
 30
0.0
 11
95.461286681955826
 21
145.68885440537829
 31
0.0
  0
LINE
  5
1192D
  8
3
 10
95.249453446684498
 20
145.5085708008921
 30
0.0
 11
95.285510167581748
 21
145.54913461190151
 31
0.0
  0
LINE
  5
1192E
  8
3
 10
95.100719472983457
 20
145.19307449304131
 30
0.0
 11
95.127762013656337
 21
145.2922304755086
 31
0.0
  0
LINE
  5
1192F
  8
3
 10
95.186354185114311
 20
144.35475573218039
 30
0.0
 11
95.181847095002183
 21
144.36827700251681
 31
0.0
  0
LINE
  5
11930
  8
3
 10
95.659598646890657
 20
143.4803802504224
 30
0.0
 11
95.533400123750312
 21
143.471366070198
 31
0.0
  0
LINE
  5
11931
  8
3
 10
95.668612827114984
 20
146.0088578033413
 30
0.0
 11
95.569456844647505
 21
146.04942161435071
 31
0.0
  0
LINE
  5
11932
  8
3
 10
95.614527745769095
 20
145.76998202739711
 30
0.0
 11
95.668612827114984
 21
145.79251747795789
 31
0.0
  0
LINE
  5
11933
  8
3
 10
97.173980924574721
 20
143.8544687297312
 30
0.0
 11
97.115388753116633
 21
143.80038364838529
 31
0.0
  0
LINE
  5
11934
  8
3
 10
97.119895843228818
 20
145.68434731526611
 30
0.0
 11
97.155952564126096
 21
145.6753331350418
 31
0.0
  0
LINE
  5
11935
  8
3
 10
97.192009285023289
 20
146.8652049246507
 30
0.0
 11
97.228066005920596
 21
146.83365529386569
 31
0.0
  0
LINE
  5
11936
  8
3
 10
97.304686537827223
 20
146.76604894218329
 30
0.0
 11
97.33623616861226
 21
146.7299922212861
 31
0.0
  0
LINE
  5
11937
  8
3
 10
97.228066005920596
 20
146.83365529386569
 30
0.0
 11
97.268629816929945
 21
146.8021056630806
 31
0.0
  0
LINE
  5
11938
  8
3
 10
97.268629816929945
 20
146.8021056630806
 30
0.0
 11
97.304686537827223
 21
146.76604894218329
 31
0.0
  0
LINE
  5
11939
  8
3
 10
97.33623616861226
 20
146.7299922212861
 30
0.0
 11
97.367785799397353
 21
146.69393550038879
 31
0.0
  0
LINE
  5
1193A
  8
3
 10
97.367785799397353
 20
146.69393550038879
 30
0.0
 11
97.399335430182475
 21
146.6533716893795
 31
0.0
  0
LINE
  5
1193B
  8
3
 10
97.399335430182475
 20
146.6533716893795
 30
0.0
 11
97.430885060967526
 21
146.61280787837009
 31
0.0
  0
LINE
  5
1193C
  8
3
 10
97.430885060967526
 20
146.61280787837009
 30
0.0
 11
97.457927601640534
 21
146.57224406736071
 31
0.0
  0
LINE
  5
1193D
  8
3
 10
97.480463052201259
 20
146.52717316623909
 30
0.0
 11
97.502998502761983
 21
146.4821022651175
 31
0.0
  0
LINE
  5
1193E
  8
3
 10
97.457927601640534
 20
146.57224406736071
 30
0.0
 11
97.480463052201259
 21
146.52717316623909
 31
0.0
  0
LINE
  5
1193F
  8
3
 10
97.480463052201259
 20
147.19422250283799
 30
0.0
 11
97.435392151079697
 21
147.19422250283799
 31
0.0
  0
LINE
  5
11940
  8
3
 10
97.435392151079697
 20
147.19422250283799
 30
0.0
 11
97.385814159845964
 21
147.18971541272589
 31
0.0
  0
LINE
  5
11941
  8
3
 10
97.385814159845964
 20
147.18971541272589
 30
0.0
 11
97.340743258724487
 21
147.18971541272589
 31
0.0
  0
LINE
  5
11942
  8
3
 10
97.340743258724487
 20
147.18971541272589
 30
0.0
 11
97.295672357602882
 21
147.18971541272589
 31
0.0
  0
LINE
  5
11943
  8
3
 10
97.295672357602882
 20
147.18971541272589
 30
0.0
 11
97.246094366369235
 21
147.18971541272589
 31
0.0
  0
LINE
  5
11944
  8
3
 10
97.246094366369235
 20
147.18971541272589
 30
0.0
 11
97.201023465247616
 21
147.19422250283799
 31
0.0
  0
LINE
  5
11945
  8
3
 10
97.201023465247616
 20
147.19422250283799
 30
0.0
 11
97.155952564126096
 21
147.19422250283799
 31
0.0
  0
LINE
  5
11946
  8
3
 10
97.475955962089131
 20
148.46522191446579
 30
0.0
 11
97.498491412649955
 21
148.4021226528956
 31
0.0
  0
LINE
  5
11947
  8
3
 10
97.453420511528265
 20
148.52381408592379
 30
0.0
 11
97.475955962089131
 21
148.46522191446579
 31
0.0
  0
LINE
  5
11948
  8
3
 10
97.363278709285254
 20
148.69057642007351
 30
0.0
 11
97.394828340070291
 21
148.63649133872761
 31
0.0
  0
LINE
  5
11949
  8
3
 10
97.394828340070291
 20
148.63649133872761
 30
0.0
 11
97.426377970855441
 21
148.58240625738179
 31
0.0
  0
LINE
  5
1194A
  8
3
 10
97.426377970855441
 20
148.58240625738179
 30
0.0
 11
97.453420511528265
 21
148.52381408592379
 31
0.0
  0
LINE
  5
1194B
  8
3
 10
97.498491412649955
 20
148.4021226528956
 30
0.0
 11
97.516519773098551
 21
148.33902339132541
 31
0.0
  0
LINE
  5
1194C
  8
3
 10
97.489477232425585
 20
149.35762575667249
 30
0.0
 11
97.300179447715124
 21
149.35762575667249
 31
0.0
  0
LINE
  5
1194D
  8
3
 10
97.155952564126096
 20
148.9384663762421
 30
0.0
 11
97.201023465247616
 21
148.89339547512051
 31
0.0
  0
LINE
  5
1194E
  8
3
 10
97.201023465247616
 20
148.89339547512051
 30
0.0
 11
97.246094366369235
 21
148.8438174838868
 31
0.0
  0
LINE
  5
1194F
  8
3
 10
97.246094366369235
 20
148.8438174838868
 30
0.0
 11
97.286658177378598
 21
148.79423949265299
 31
0.0
  0
LINE
  5
11950
  8
3
 10
97.286658177378598
 20
148.79423949265299
 30
0.0
 11
97.327221988387947
 21
148.74466150141939
 31
0.0
  0
LINE
  5
11951
  8
3
 10
97.327221988387947
 20
148.74466150141939
 30
0.0
 11
97.363278709285254
 21
148.69057642007351
 31
0.0
  0
LINE
  5
11952
  8
3
 10
97.363278709285254
 20
150.15988779663601
 30
0.0
 11
97.475955962089074
 21
150.15763425157999
 31
0.0
  0
LINE
  5
11953
  8
3
 10
97.394828340070291
 20
151.81398986779701
 30
0.0
 11
97.403842520294603
 21
151.80046859746051
 31
0.0
  0
LINE
  5
11954
  8
3
 10
97.331729078500175
 20
151.88610330959139
 30
0.0
 11
97.340743258724487
 21
151.87708912936711
 31
0.0
  0
LINE
  5
11955
  8
3
 10
97.160459654238295
 20
152.05737273385341
 30
0.0
 11
97.304686537827223
 21
151.9266671206008
 31
0.0
  0
LINE
  5
11956
  8
3
 10
97.304686537827223
 20
151.9266671206008
 30
0.0
 11
97.313700718051564
 21
151.91314585026441
 31
0.0
  0
LINE
  5
11957
  8
3
 10
97.313700718051564
 20
151.91314585026441
 30
0.0
 11
97.322714898275805
 21
151.89962457992789
 31
0.0
  0
LINE
  5
11958
  8
3
 10
97.322714898275805
 20
151.89962457992789
 30
0.0
 11
97.331729078500175
 21
151.88610330959139
 31
0.0
  0
LINE
  5
11959
  8
3
 10
97.340743258724487
 20
151.87708912936711
 30
0.0
 11
97.349757438948785
 21
151.8635678590307
 31
0.0
  0
LINE
  5
1195A
  8
3
 10
97.349757438948785
 20
151.8635678590307
 30
0.0
 11
97.363278709285254
 21
151.8500465886942
 31
0.0
  0
LINE
  5
1195B
  8
3
 10
97.363278709285254
 20
151.8500465886942
 30
0.0
 11
97.372292889509566
 21
151.8365253183577
 31
0.0
  0
LINE
  5
1195C
  8
3
 10
97.372292889509566
 20
151.8365253183577
 30
0.0
 11
97.381307069733865
 21
151.82300404802129
 31
0.0
  0
LINE
  5
1195D
  8
3
 10
97.381307069733865
 20
151.82300404802129
 30
0.0
 11
97.394828340070291
 21
151.81398986779701
 31
0.0
  0
LINE
  5
1195E
  8
3
 10
97.484970142313415
 20
151.66525589409579
 30
0.0
 11
97.493984322537685
 21
151.65173462375941
 31
0.0
  0
LINE
  5
1195F
  8
3
 10
97.493984322537685
 20
151.65173462375941
 30
0.0
 11
97.498491412649955
 21
151.6337062633107
 31
0.0
  0
LINE
  5
11960
  8
3
 10
97.498491412649955
 20
151.6337062633107
 30
0.0
 11
97.507505592874196
 21
151.62018499297429
 31
0.0
  0
LINE
  5
11961
  8
3
 10
97.507505592874196
 20
151.62018499297429
 30
0.0
 11
97.512012682986366
 21
151.60666372263779
 31
0.0
  0
LINE
  5
11962
  8
3
 10
97.466941781864804
 20
151.69229843476879
 30
0.0
 11
97.475955962089131
 21
151.67877716443229
 31
0.0
  0
LINE
  5
11963
  8
3
 10
97.403842520294603
 20
151.80046859746051
 30
0.0
 11
97.412856700518915
 21
151.78694732712401
 31
0.0
  0
LINE
  5
11964
  8
3
 10
97.412856700518915
 20
151.78694732712401
 30
0.0
 11
97.421870880743285
 21
151.7734260567876
 31
0.0
  0
LINE
  5
11965
  8
3
 10
97.421870880743285
 20
151.7734260567876
 30
0.0
 11
97.43088506096754
 21
151.75539769633889
 31
0.0
  0
LINE
  5
11966
  8
3
 10
97.43088506096754
 20
151.75539769633889
 30
0.0
 11
97.444406331304023
 21
151.74187642600251
 31
0.0
  0
LINE
  5
11967
  8
3
 10
97.444406331304023
 20
151.74187642600251
 30
0.0
 11
97.462434691752691
 21
151.7058197051052
 31
0.0
  0
LINE
  5
11968
  8
3
 10
97.462434691752691
 20
151.7058197051052
 30
0.0
 11
97.466941781864804
 21
151.69229843476879
 31
0.0
  0
LINE
  5
11969
  8
3
 10
97.475955962089131
 20
151.67877716443229
 30
0.0
 11
97.484970142313415
 21
151.66525589409579
 31
0.0
  0
LINE
  5
1196A
  8
3
 10
96.763835724368604
 20
146.1440705067059
 30
0.0
 11
96.759328634256505
 21
146.19364849793959
 31
0.0
  0
LINE
  5
1196B
  8
3
 10
96.579045029770299
 20
146.19364849793959
 30
0.0
 11
96.565523759433844
 21
146.18463431771531
 31
0.0
  0
LINE
  5
1196C
  8
3
 10
96.759328634256505
 20
146.19364849793959
 30
0.0
 11
96.750314454032136
 21
146.20266267816399
 31
0.0
  0
LINE
  5
1196D
  8
3
 10
96.750314454032136
 20
146.20266267816399
 30
0.0
 11
96.745807363919994
 21
146.20716976827609
 31
0.0
  0
LINE
  5
1196E
  8
3
 10
96.745807363919994
 20
146.20716976827609
 30
0.0
 11
96.741300273807809
 21
146.2161839485004
 31
0.0
  0
LINE
  5
1196F
  8
3
 10
96.741300273807809
 20
146.2161839485004
 30
0.0
 11
96.732286093583554
 21
146.2206910386125
 31
0.0
  0
LINE
  5
11970
  8
3
 10
96.732286093583554
 20
146.2206910386125
 30
0.0
 11
96.723271913359241
 21
146.22519812872471
 31
0.0
  0
LINE
  5
11971
  8
3
 10
96.723271913359241
 20
146.22519812872471
 30
0.0
 11
96.714257733134943
 21
146.2297052188369
 31
0.0
  0
LINE
  5
11972
  8
3
 10
96.714257733134943
 20
146.2297052188369
 30
0.0
 11
96.705243552910616
 21
146.2297052188369
 31
0.0
  0
LINE
  5
11973
  8
3
 10
96.705243552910616
 20
146.2297052188369
 30
0.0
 11
96.696229372686304
 21
146.234212308949
 31
0.0
  0
LINE
  5
11974
  8
3
 10
96.696229372686304
 20
146.234212308949
 30
0.0
 11
96.687215192461991
 21
146.234212308949
 31
0.0
  0
LINE
  5
11975
  8
3
 10
96.687215192461991
 20
146.234212308949
 30
0.0
 11
96.678201012237622
 21
146.23871939906121
 31
0.0
  0
LINE
  5
11976
  8
3
 10
96.678201012237622
 20
146.23871939906121
 30
0.0
 11
96.669186832013381
 21
146.23871939906121
 31
0.0
  0
LINE
  5
11977
  8
3
 10
96.669186832013381
 20
146.23871939906121
 30
0.0
 11
96.655665561676884
 21
146.23871939906121
 31
0.0
  0
LINE
  5
11978
  8
3
 10
96.655665561676884
 20
146.23871939906121
 30
0.0
 11
96.646651381452585
 21
146.234212308949
 31
0.0
  0
LINE
  5
11979
  8
3
 10
96.646651381452585
 20
146.234212308949
 30
0.0
 11
96.63763720122823
 21
146.234212308949
 31
0.0
  0
LINE
  5
1197A
  8
3
 10
96.63763720122823
 20
146.234212308949
 30
0.0
 11
96.619608840779648
 21
146.22519812872471
 31
0.0
  0
LINE
  5
1197B
  8
3
 10
96.619608840779648
 20
146.22519812872471
 30
0.0
 11
96.606087570443222
 21
146.2161839485004
 31
0.0
  0
LINE
  5
1197C
  8
3
 10
96.606087570443222
 20
146.2161839485004
 30
0.0
 11
96.597073390218867
 21
146.20716976827609
 31
0.0
  0
LINE
  5
1197D
  8
3
 10
96.597073390218867
 20
146.20716976827609
 30
0.0
 11
96.588059209994555
 21
146.1981555880518
 31
0.0
  0
LINE
  5
1197E
  8
3
 10
96.588059209994555
 20
146.1981555880518
 30
0.0
 11
96.579045029770299
 21
146.19364849793959
 31
0.0
  0
LINE
  5
1197F
  8
3
 10
96.768342814480803
 20
146.12153505614521
 30
0.0
 11
96.763835724368604
 21
146.1440705067059
 31
0.0
  0
LINE
  5
11980
  8
3
 10
96.565523759433844
 20
146.18463431771531
 30
0.0
 11
96.556509579209489
 21
146.17562013749099
 31
0.0
  0
LINE
  5
11981
  8
3
 10
96.556509579209489
 20
146.17562013749099
 30
0.0
 11
96.542988308872992
 21
146.16660595726671
 31
0.0
  0
LINE
  5
11982
  8
3
 10
96.542988308872992
 20
146.16660595726671
 30
0.0
 11
96.533974128648737
 21
146.1575917770424
 31
0.0
  0
LINE
  5
11983
  8
3
 10
96.533974128648737
 20
146.1575917770424
 30
0.0
 11
96.52045285831224
 21
146.14857759681809
 31
0.0
  0
LINE
  5
11984
  8
3
 10
96.52045285831224
 20
146.14857759681809
 30
0.0
 11
96.506931587975785
 21
146.1395634165938
 31
0.0
  0
LINE
  5
11985
  8
3
 10
96.506931587975785
 20
146.1395634165938
 30
0.0
 11
96.497917407751515
 21
146.13054923636949
 31
0.0
  0
LINE
  5
11986
  8
3
 10
96.497917407751515
 20
146.13054923636949
 30
0.0
 11
96.484396137415004
 21
146.12153505614521
 31
0.0
  0
LINE
  5
11987
  8
3
 10
96.484396137415004
 20
146.12153505614521
 30
0.0
 11
96.470874867078535
 21
146.11702796603299
 31
0.0
  0
LINE
  5
11988
  8
3
 10
96.470874867078535
 20
146.11702796603299
 30
0.0
 11
96.46186068685418
 21
146.10801378580871
 31
0.0
  0
LINE
  5
11989
  8
3
 10
97.106374572892435
 20
146.92379709610881
 30
0.0
 11
97.115388753116633
 21
146.9192900059966
 31
0.0
  0
LINE
  5
1198A
  8
3
 10
97.115388753116633
 20
146.9192900059966
 30
0.0
 11
97.151445474013926
 21
146.89224746532369
 31
0.0
  0
LINE
  5
1198B
  8
3
 10
96.975668959639876
 20
146.96886799723029
 30
0.0
 11
96.989190229976273
 21
146.96886799723029
 31
0.0
  0
LINE
  5
1198C
  8
3
 10
96.989190229976273
 20
146.96886799723029
 30
0.0
 11
96.998204410200657
 21
146.96436090711811
 31
0.0
  0
LINE
  5
1198D
  8
3
 10
96.998204410200657
 20
146.96436090711811
 30
0.0
 11
97.011725680537154
 21
146.95985381700601
 31
0.0
  0
LINE
  5
1198E
  8
3
 10
96.948626418966995
 20
146.97337508734239
 30
0.0
 11
96.962147689303464
 21
146.97337508734239
 31
0.0
  0
LINE
  5
1198F
  8
3
 10
96.962147689303464
 20
146.97337508734239
 30
0.0
 11
96.975668959639876
 21
146.96886799723029
 31
0.0
  0
LINE
  5
11990
  8
3
 10
97.020739860761566
 20
146.95534672689391
 30
0.0
 11
97.029754040985793
 21
146.95083963678169
 31
0.0
  0
LINE
  5
11991
  8
3
 10
97.011725680537154
 20
146.95985381700601
 30
0.0
 11
97.020739860761566
 21
146.95534672689391
 31
0.0
  0
LINE
  5
11992
  8
3
 10
97.029754040985793
 20
146.95083963678169
 30
0.0
 11
97.052289491546532
 21
146.9373183664452
 31
0.0
  0
LINE
  5
11993
  8
3
 10
97.052289491546532
 20
146.9373183664452
 30
0.0
 11
97.056796581658631
 21
146.9373183664452
 31
0.0
  0
LINE
  5
11994
  8
3
 10
97.056796581658631
 20
146.9373183664452
 30
0.0
 11
97.061303671770887
 21
146.9373183664452
 31
0.0
  0
LINE
  5
11995
  8
3
 10
97.061303671770887
 20
146.9373183664452
 30
0.0
 11
97.065810761882943
 21
146.9373183664452
 31
0.0
  0
LINE
  5
11996
  8
3
 10
97.065810761882943
 20
146.9373183664452
 30
0.0
 11
97.070317851995156
 21
146.9373183664452
 31
0.0
  0
LINE
  5
11997
  8
3
 10
97.070317851995156
 20
146.9373183664452
 30
0.0
 11
97.074824942107256
 21
146.9373183664452
 31
0.0
  0
LINE
  5
11998
  8
3
 10
97.074824942107256
 20
146.9373183664452
 30
0.0
 11
97.079332032219412
 21
146.9328112763331
 31
0.0
  0
LINE
  5
11999
  8
3
 10
97.079332032219412
 20
146.9328112763331
 30
0.0
 11
97.083839122331568
 21
146.9328112763331
 31
0.0
  0
LINE
  5
1199A
  8
3
 10
97.083839122331568
 20
146.9328112763331
 30
0.0
 11
97.088346212443852
 21
146.9328112763331
 31
0.0
  0
LINE
  5
1199B
  8
3
 10
97.088346212443852
 20
146.9328112763331
 30
0.0
 11
97.092853302555937
 21
146.9328112763331
 31
0.0
  0
LINE
  5
1199C
  8
3
 10
97.092853302555937
 20
146.9328112763331
 30
0.0
 11
97.097360392668094
 21
146.9328112763331
 31
0.0
  0
LINE
  5
1199D
  8
3
 10
97.097360392668094
 20
146.9328112763331
 30
0.0
 11
97.101867482780264
 21
146.92830418622091
 31
0.0
  0
LINE
  5
1199E
  8
3
 10
97.101867482780264
 20
146.92830418622091
 30
0.0
 11
97.106374572892435
 21
146.92830418622091
 31
0.0
  0
LINE
  5
1199F
  8
3
 10
97.106374572892435
 20
146.92830418622091
 30
0.0
 11
97.106374572892435
 21
146.92379709610881
 31
0.0
  0
LINE
  5
119A0
  8
3
 10
96.813413715602294
 20
147.33844938642699
 30
0.0
 11
96.813413715602294
 21
147.41056282822149
 31
0.0
  0
LINE
  5
119A1
  8
3
 10
96.817920805714465
 20
147.71704495584811
 30
0.0
 11
96.817920805714465
 21
147.7891583976425
 31
0.0
  0
LINE
  5
119A2
  8
3
 10
96.817920805714465
 20
147.6404244239414
 30
0.0
 11
96.817920805714465
 21
147.71704495584811
 31
0.0
  0
LINE
  5
119A3
  8
3
 10
96.813413715602294
 20
147.4871833601282
 30
0.0
 11
96.817920805714465
 21
147.56380389203471
 31
0.0
  0
LINE
  5
119A4
  8
3
 10
96.817920805714465
 20
147.56380389203471
 30
0.0
 11
96.817920805714465
 21
147.6404244239414
 31
0.0
  0
LINE
  5
119A5
  8
3
 10
96.813413715602294
 20
147.41056282822149
 30
0.0
 11
96.813413715602294
 21
147.4871833601282
 31
0.0
  0
LINE
  5
119A6
  8
3
 10
97.061303671770887
 20
147.19422250283799
 30
0.0
 11
97.011725680537154
 21
147.1987295929502
 31
0.0
  0
LINE
  5
119A7
  8
3
 10
97.106374572892435
 20
147.19422250283799
 30
0.0
 11
97.061303671770887
 21
147.19422250283799
 31
0.0
  0
LINE
  5
119A8
  8
3
 10
96.416789785732746
 20
146.9778821774546
 30
0.0
 11
96.46186068685418
 21
146.9914034477911
 31
0.0
  0
LINE
  5
119A9
  8
3
 10
96.46186068685418
 20
146.9914034477911
 30
0.0
 11
96.511438678087913
 21
147.00041762801541
 31
0.0
  0
LINE
  5
119AA
  8
3
 10
96.511438678087913
 20
147.00041762801541
 30
0.0
 11
96.561016669321617
 21
147.0094318082397
 31
0.0
  0
LINE
  5
119AB
  8
3
 10
96.561016669321617
 20
147.0094318082397
 30
0.0
 11
96.610594660555407
 21
147.0139388983518
 31
0.0
  0
LINE
  5
119AC
  8
3
 10
96.610594660555407
 20
147.0139388983518
 30
0.0
 11
96.660172651789111
 21
147.01844598846401
 31
0.0
  0
LINE
  5
119AD
  8
3
 10
96.660172651789111
 20
147.01844598846401
 30
0.0
 11
96.709750643022744
 21
147.01844598846401
 31
0.0
  0
LINE
  5
119AE
  8
3
 10
96.709750643022744
 20
147.01844598846401
 30
0.0
 11
96.759328634256505
 21
147.01844598846401
 31
0.0
  0
LINE
  5
119AF
  8
3
 10
96.759328634256505
 20
147.01844598846401
 30
0.0
 11
96.858484616723871
 21
147.00041762801541
 31
0.0
  0
LINE
  5
119B0
  8
3
 10
96.858484616723871
 20
147.00041762801541
 30
0.0
 11
96.872005887060325
 21
146.9959105379032
 31
0.0
  0
LINE
  5
119B1
  8
3
 10
96.872005887060325
 20
146.9959105379032
 30
0.0
 11
96.885527157396822
 21
146.9914034477911
 31
0.0
  0
LINE
  5
119B2
  8
3
 10
96.885527157396822
 20
146.9914034477911
 30
0.0
 11
96.899048427733163
 21
146.98689635767889
 31
0.0
  0
LINE
  5
119B3
  8
3
 10
96.899048427733163
 20
146.98689635767889
 30
0.0
 11
96.912569698069802
 21
146.98238926756679
 31
0.0
  0
LINE
  5
119B4
  8
3
 10
96.912569698069802
 20
146.98238926756679
 30
0.0
 11
96.926090968406214
 21
146.98238926756679
 31
0.0
  0
LINE
  5
119B5
  8
3
 10
96.926090968406214
 20
146.98238926756679
 30
0.0
 11
96.939612238742683
 21
146.9778821774546
 31
0.0
  0
LINE
  5
119B6
  8
3
 10
96.966654779415535
 20
147.19422250283799
 30
0.0
 11
96.917076788181845
 21
147.19422250283799
 31
0.0
  0
LINE
  5
119B7
  8
3
 10
96.917076788181845
 20
147.19422250283799
 30
0.0
 11
96.826934985938763
 21
147.1852083226137
 31
0.0
  0
LINE
  5
119B8
  8
3
 10
96.826934985938763
 20
147.1852083226137
 30
0.0
 11
96.817920805714465
 21
147.26182885452039
 31
0.0
  0
LINE
  5
119B9
  8
3
 10
96.624115930891804
 20
147.27985721496901
 30
0.0
 11
96.579045029770299
 21
147.27985721496901
 31
0.0
  0
LINE
  5
119BA
  8
3
 10
96.579045029770299
 20
147.27985721496901
 30
0.0
 11
96.538481218760865
 21
147.27985721496901
 31
0.0
  0
LINE
  5
119BB
  8
3
 10
96.538481218760865
 20
147.27985721496901
 30
0.0
 11
96.502424497863643
 21
147.27535012485691
 31
0.0
  0
LINE
  5
119BC
  8
3
 10
96.502424497863643
 20
147.27535012485691
 30
0.0
 11
96.466367776966393
 21
147.27535012485691
 31
0.0
  0
LINE
  5
119BD
  8
3
 10
96.466367776966393
 20
147.27535012485691
 30
0.0
 11
96.434818146181357
 21
147.27535012485691
 31
0.0
  0
LINE
  5
119BE
  8
3
 10
96.434818146181357
 20
147.27535012485691
 30
0.0
 11
96.403268515396149
 21
147.2708430347447
 31
0.0
  0
LINE
  5
119BF
  8
3
 10
96.817920805714465
 20
147.26182885452039
 30
0.0
 11
96.813413715602294
 21
147.33844938642699
 31
0.0
  0
LINE
  5
119C0
  8
3
 10
97.011725680537154
 20
147.1987295929502
 30
0.0
 11
96.966654779415535
 21
147.19422250283799
 31
0.0
  0
LINE
  5
119C1
  8
3
 10
96.939612238742683
 20
146.9778821774546
 30
0.0
 11
96.948626418966995
 21
146.97337508734239
 31
0.0
  0
LINE
  5
119C2
  8
3
 10
96.123828928442592
 20
146.8291482037535
 30
0.0
 11
96.159885649339827
 21
146.85619074442641
 31
0.0
  0
LINE
  5
119C3
  8
3
 10
95.930024053620002
 20
146.7344993113982
 30
0.0
 11
95.948052414068542
 21
146.7344993113982
 31
0.0
  0
LINE
  5
119C4
  8
3
 10
95.889460242610511
 20
146.73900640151049
 30
0.0
 11
95.902981512947008
 21
146.7344993113982
 31
0.0
  0
LINE
  5
119C5
  8
3
 10
95.871431882161829
 20
146.74351349162251
 30
0.0
 11
95.880446062386255
 21
146.73900640151049
 31
0.0
  0
LINE
  5
119C6
  8
3
 10
95.880446062386255
 20
146.73900640151049
 30
0.0
 11
95.889460242610511
 21
146.73900640151049
 31
0.0
  0
LINE
  5
119C7
  8
3
 10
95.902981512947008
 20
146.7344993113982
 30
0.0
 11
95.916502783283505
 21
146.7344993113982
 31
0.0
  0
LINE
  5
119C8
  8
3
 10
95.916502783283505
 20
146.7344993113982
 30
0.0
 11
95.930024053620002
 21
146.7344993113982
 31
0.0
  0
LINE
  5
119C9
  8
3
 10
95.997630405302232
 20
146.73900640151049
 30
0.0
 11
96.011151675638729
 21
146.73900640151049
 31
0.0
  0
LINE
  5
119CA
  8
3
 10
95.979602044853635
 20
146.7344993113982
 30
0.0
 11
95.997630405302232
 21
146.73900640151049
 31
0.0
  0
LINE
  5
119CB
  8
3
 10
95.948052414068542
 20
146.7344993113982
 30
0.0
 11
95.961573684404996
 21
146.7344993113982
 31
0.0
  0
LINE
  5
119CC
  8
3
 10
95.961573684404996
 20
146.7344993113982
 30
0.0
 11
95.979602044853635
 21
146.7344993113982
 31
0.0
  0
LINE
  5
119CD
  8
3
 10
96.051715486648135
 20
146.74802058173469
 30
0.0
 11
96.123828928442592
 21
146.8291482037535
 31
0.0
  0
LINE
  5
119CE
  8
3
 10
96.011151675638729
 20
146.73900640151049
 30
0.0
 11
96.024672945975198
 21
146.74351349162251
 31
0.0
  0
LINE
  5
119CF
  8
3
 10
96.024672945975198
 20
146.74351349162251
 30
0.0
 11
96.051715486648135
 21
146.74802058173469
 31
0.0
  0
LINE
  5
119D0
  8
3
 10
96.195942370237105
 20
146.88323328509929
 30
0.0
 11
96.236506181246511
 21
146.90576873566019
 31
0.0
  0
LINE
  5
119D1
  8
3
 10
96.236506181246511
 20
146.90576873566019
 30
0.0
 11
96.281577082368045
 21
146.92830418622091
 31
0.0
  0
LINE
  5
119D2
  8
3
 10
96.281577082368045
 20
146.92830418622091
 30
0.0
 11
96.322140893377394
 21
146.94633254666951
 31
0.0
  0
LINE
  5
119D3
  8
3
 10
96.322140893377394
 20
146.94633254666951
 30
0.0
 11
96.371718884611056
 21
146.96436090711811
 31
0.0
  0
LINE
  5
119D4
  8
3
 10
96.159885649339827
 20
146.85619074442641
 30
0.0
 11
96.195942370237105
 21
146.88323328509929
 31
0.0
  0
LINE
  5
119D5
  8
3
 10
95.862417701937602
 20
146.74802058173469
 30
0.0
 11
95.862417701937602
 21
146.74351349162251
 31
0.0
  0
LINE
  5
119D6
  8
3
 10
95.839882251376864
 20
146.91478291588439
 30
0.0
 11
95.862417701937602
 21
146.74802058173469
 31
0.0
  0
LINE
  5
119D7
  8
3
 10
95.862417701937602
 20
146.74351349162251
 30
0.0
 11
95.871431882161829
 21
146.74351349162251
 31
0.0
  0
LINE
  5
119D8
  8
3
 10
95.803825530479585
 20
147.40605573810939
 30
0.0
 11
95.808332620591699
 21
147.32492811609049
 31
0.0
  0
LINE
  5
119D9
  8
3
 10
95.817346800816068
 20
147.8162009383154
 30
0.0
 11
95.812839710703955
 21
147.73056622618449
 31
0.0
  0
LINE
  5
119DA
  8
3
 10
95.812839710703955
 20
147.73056622618449
 30
0.0
 11
95.808332620591699
 21
147.64943860416571
 31
0.0
  0
LINE
  5
119DB
  8
3
 10
95.808332620591699
 20
147.5683109821469
 30
0.0
 11
95.803825530479585
 21
147.4871833601282
 31
0.0
  0
LINE
  5
119DC
  8
3
 10
95.808332620591699
 20
147.64943860416571
 30
0.0
 11
95.808332620591699
 21
147.5683109821469
 31
0.0
  0
LINE
  5
119DD
  8
3
 10
95.803825530479585
 20
147.4871833601282
 30
0.0
 11
95.803825530479585
 21
147.40605573810939
 31
0.0
  0
LINE
  5
119DE
  8
3
 10
96.371718884611056
 20
147.2708430347447
 30
0.0
 11
96.344676343938232
 21
147.2708430347447
 31
0.0
  0
LINE
  5
119DF
  8
3
 10
96.344676343938232
 20
147.2708430347447
 30
0.0
 11
96.317633803265295
 21
147.2708430347447
 31
0.0
  0
LINE
  5
119E0
  8
3
 10
96.317633803265295
 20
147.2708430347447
 30
0.0
 11
96.290591262592386
 21
147.2708430347447
 31
0.0
  0
LINE
  5
119E1
  8
3
 10
96.290591262592386
 20
147.2708430347447
 30
0.0
 11
96.263548721919392
 21
147.2708430347447
 31
0.0
  0
LINE
  5
119E2
  8
3
 10
96.263548721919392
 20
147.2708430347447
 30
0.0
 11
96.236506181246511
 21
147.2708430347447
 31
0.0
  0
LINE
  5
119E3
  8
3
 10
96.236506181246511
 20
147.2708430347447
 30
0.0
 11
96.209463640573546
 21
147.26633594463249
 31
0.0
  0
LINE
  5
119E4
  8
3
 10
96.209463640573546
 20
147.26633594463249
 30
0.0
 11
96.182421099900665
 21
147.26633594463249
 31
0.0
  0
LINE
  5
119E5
  8
3
 10
96.182421099900665
 20
147.26633594463249
 30
0.0
 11
96.128336018554819
 21
147.26182885452039
 31
0.0
  0
LINE
  5
119E6
  8
3
 10
96.128336018554819
 20
147.26182885452039
 30
0.0
 11
96.123828928442592
 21
147.26633594463249
 31
0.0
  0
LINE
  5
119E7
  8
3
 10
96.123828928442592
 20
147.26633594463249
 30
0.0
 11
96.119321838330464
 21
147.26633594463249
 31
0.0
  0
LINE
  5
119E8
  8
3
 10
96.119321838330464
 20
147.26633594463249
 30
0.0
 11
96.114814748218222
 21
147.26633594463249
 31
0.0
  0
LINE
  5
119E9
  8
3
 10
96.114814748218222
 20
147.26633594463249
 30
0.0
 11
96.110307658106137
 21
147.26633594463249
 31
0.0
  0
LINE
  5
119EA
  8
3
 10
96.110307658106137
 20
147.26633594463249
 30
0.0
 11
96.105800567993953
 21
147.26633594463249
 31
0.0
  0
LINE
  5
119EB
  8
3
 10
96.105800567993953
 20
147.26633594463249
 30
0.0
 11
96.101293477881768
 21
147.26633594463249
 31
0.0
  0
LINE
  5
119EC
  8
3
 10
96.101293477881768
 20
147.26633594463249
 30
0.0
 11
96.09678638776964
 21
147.26633594463249
 31
0.0
  0
LINE
  5
119ED
  8
3
 10
96.09678638776964
 20
147.26633594463249
 30
0.0
 11
96.09678638776964
 21
147.2708430347447
 31
0.0
  0
LINE
  5
119EE
  8
3
 10
96.09678638776964
 20
147.2708430347447
 30
0.0
 11
96.092279297657512
 21
147.2708430347447
 31
0.0
  0
LINE
  5
119EF
  8
3
 10
96.092279297657512
 20
147.2708430347447
 30
0.0
 11
96.087772207545314
 21
147.2708430347447
 31
0.0
  0
LINE
  5
119F0
  8
3
 10
96.087772207545314
 20
147.2708430347447
 30
0.0
 11
96.083265117433143
 21
147.2708430347447
 31
0.0
  0
LINE
  5
119F1
  8
3
 10
96.083265117433143
 20
147.2708430347447
 30
0.0
 11
96.078758027321129
 21
147.2708430347447
 31
0.0
  0
ARC
  5
119F2
  8
3
 10
95.718658605794758
 20
147.1282560688901
 30
0.0
 40
0.1008760780793214
 50
11.954837379828939
 51
84.968359139189019
  0
LINE
  5
119F3
  8
3
 10
95.817346800816068
 20
147.16267287205289
 30
0.0
 11
95.821853890928224
 21
147.0815452500342
 31
0.0
  0
LINE
  5
119F4
  8
3
 10
95.632556106217706
 20
147.1446445116043
 30
0.0
 11
95.817346800816068
 21
147.14915160171651
 31
0.0
  0
LINE
  5
119F5
  8
3
 10
95.673119917227041
 20
147.23478631384739
 30
0.0
 11
95.632556106217706
 21
147.23929340395961
 31
0.0
  0
LINE
  5
119F6
  8
3
 10
95.727506029500645
 20
147.22874341248371
 30
0.0
 11
95.673119917227041
 21
147.23478631384739
 31
0.0
  0
LINE
  5
119F7
  8
3
 10
95.817346800816068
 20
147.14915160171651
 30
0.0
 11
95.817346800816068
 21
147.16267287205289
 31
0.0
  0
LINE
  5
119F8
  8
3
 10
95.808332620591699
 20
147.24380049407179
 30
0.0
 11
95.817346800816068
 21
147.16267287205289
 31
0.0
  0
LINE
  5
119F9
  8
3
 10
95.808332620591699
 20
147.32492811609049
 30
0.0
 11
95.808332620591699
 21
147.24380049407179
 31
0.0
  0
LINE
  5
119FA
  8
3
 10
95.821853890928224
 20
147.0815452500342
 30
0.0
 11
95.830868071152537
 21
147.00041762801541
 31
0.0
  0
LINE
  5
119FB
  8
3
 10
95.830868071152537
 20
147.00041762801541
 30
0.0
 11
95.839882251376864
 21
146.91478291588439
 31
0.0
  0
LINE
  5
119FC
  8
3
 10
96.371718884611056
 20
146.96436090711811
 30
0.0
 11
96.416789785732746
 21
146.9778821774546
 31
0.0
  0
LINE
  5
119FD
  8
3
 10
96.403268515396149
 20
147.2708430347447
 30
0.0
 11
96.371718884611056
 21
147.2708430347447
 31
0.0
  0
LINE
  5
119FE
  8
3
 10
96.817920805714465
 20
147.86127183943699
 30
0.0
 11
96.808906625490209
 21
147.93338528123149
 31
0.0
  0
LINE
  5
119FF
  8
3
 10
96.808906625490209
 20
147.93338528123149
 30
0.0
 11
96.79989244526584
 21
148.00099163291381
 31
0.0
  0
LINE
  5
11A00
  8
3
 10
96.79989244526584
 20
148.00099163291381
 30
0.0
 11
96.781864084817187
 21
148.064090894484
 31
0.0
  0
LINE
  5
11A01
  8
3
 10
96.781864084817187
 20
148.064090894484
 30
0.0
 11
96.759328634256505
 21
148.12719015605421
 31
0.0
  0
LINE
  5
11A02
  8
3
 10
96.759328634256505
 20
148.12719015605421
 30
0.0
 11
96.732286093583554
 21
148.19028941762431
 31
0.0
  0
LINE
  5
11A03
  8
3
 10
96.732286093583554
 20
148.19028941762431
 30
0.0
 11
96.651158471564742
 21
148.29395249020391
 31
0.0
  0
LINE
  5
11A04
  8
3
 10
96.651158471564742
 20
148.29395249020391
 30
0.0
 11
96.646651381452585
 21
148.29395249020391
 31
0.0
  0
LINE
  5
11A05
  8
3
 10
96.646651381452585
 20
148.29395249020391
 30
0.0
 11
96.642144291340486
 21
148.29395249020391
 31
0.0
  0
LINE
  5
11A06
  8
3
 10
96.642144291340486
 20
148.29395249020391
 30
0.0
 11
96.63763720122823
 21
148.29395249020391
 31
0.0
  0
LINE
  5
11A07
  8
3
 10
96.63763720122823
 20
148.29395249020391
 30
0.0
 11
96.633130111116117
 21
148.29395249020391
 31
0.0
  0
LINE
  5
11A08
  8
3
 10
96.633130111116117
 20
148.29395249020391
 30
0.0
 11
96.633130111116117
 21
148.28944540009169
 31
0.0
  0
LINE
  5
11A09
  8
3
 10
96.633130111116117
 20
148.28944540009169
 30
0.0
 11
96.628623021003961
 21
148.28944540009169
 31
0.0
  0
LINE
  5
11A0A
  8
3
 10
96.628623021003961
 20
148.28944540009169
 30
0.0
 11
96.628623021003961
 21
148.28493830997959
 31
0.0
  0
LINE
  5
11A0B
  8
3
 10
96.628623021003961
 20
148.28493830997959
 30
0.0
 11
96.624115930891804
 21
148.28493830997959
 31
0.0
  0
LINE
  5
11A0C
  8
3
 10
96.624115930891804
 20
148.28493830997959
 30
0.0
 11
96.624115930891804
 21
148.28043121986741
 31
0.0
  0
LINE
  5
11A0D
  8
3
 10
96.624115930891804
 20
148.28043121986741
 30
0.0
 11
96.624115930891804
 21
148.2714170396431
 31
0.0
  0
LINE
  5
11A0E
  8
3
 10
96.412282695620519
 20
149.2359343236443
 30
0.0
 11
96.452846506629996
 21
149.23142723353209
 31
0.0
  0
LINE
  5
11A0F
  8
3
 10
96.452846506629996
 20
149.23142723353209
 30
0.0
 11
96.488903227527146
 21
149.23142723353209
 31
0.0
  0
LINE
  5
11A10
  8
3
 10
96.488903227527146
 20
149.23142723353209
 30
0.0
 11
96.529467038536524
 21
149.22692014341999
 31
0.0
  0
LINE
  5
11A11
  8
3
 10
96.529467038536524
 20
149.22692014341999
 30
0.0
 11
96.570030849545986
 21
149.2179059631957
 31
0.0
  0
LINE
  5
11A12
  8
3
 10
96.570030849545986
 20
149.2179059631957
 30
0.0
 11
96.610594660555407
 21
149.21339887308349
 31
0.0
  0
LINE
  5
11A13
  8
3
 10
96.610594660555407
 20
149.21339887308349
 30
0.0
 11
96.651158471564742
 21
149.20438469285921
 31
0.0
  0
LINE
  5
11A14
  8
3
 10
96.651158471564742
 20
149.20438469285921
 30
0.0
 11
96.687215192461991
 21
149.1953705126349
 31
0.0
  0
LINE
  5
11A15
  8
3
 10
96.930598058518314
 20
149.35311866656031
 30
0.0
 11
96.759328634256505
 21
149.34861157644821
 31
0.0
  0
LINE
  5
11A16
  8
3
 10
96.759328634256505
 20
149.34861157644821
 30
0.0
 11
96.592566300106768
 21
149.34861157644821
 31
0.0
  0
LINE
  5
11A17
  8
3
 10
96.592566300106768
 20
149.34861157644821
 30
0.0
 11
96.443832326405669
 21
149.34861157644821
 31
0.0
  0
LINE
  5
11A18
  8
3
 10
97.115388753116633
 20
149.35311866656031
 30
0.0
 11
96.930598058518314
 21
149.35311866656031
 31
0.0
  0
LINE
  5
11A19
  8
3
 10
97.016232770649282
 20
149.0466365389338
 30
0.0
 11
97.052289491546532
 21
149.02410108837299
 31
0.0
  0
LINE
  5
11A1A
  8
3
 10
97.052289491546532
 20
149.02410108837299
 30
0.0
 11
97.106374572892435
 21
148.98353727736361
 31
0.0
  0
LINE
  5
11A1B
  8
3
 10
96.980176049752089
 20
149.06466489938239
 30
0.0
 11
96.998204410200657
 21
149.055650719158
 31
0.0
  0
LINE
  5
11A1C
  8
3
 10
96.998204410200657
 20
149.055650719158
 30
0.0
 11
97.016232770649282
 21
149.0466365389338
 31
0.0
  0
LINE
  5
11A1D
  8
3
 10
96.687215192461991
 20
149.1953705126349
 30
0.0
 11
96.768342814480803
 21
149.17283506207411
 31
0.0
  0
LINE
  5
11A1E
  8
3
 10
96.768342814480803
 20
149.17283506207411
 30
0.0
 11
96.781864084817187
 21
149.1638208818498
 31
0.0
  0
LINE
  5
11A1F
  8
3
 10
96.781864084817187
 20
149.1638208818498
 30
0.0
 11
96.79989244526584
 21
149.15480670162549
 31
0.0
  0
LINE
  5
11A20
  8
3
 10
96.79989244526584
 20
149.15480670162549
 30
0.0
 11
96.817920805714465
 21
149.14579252140121
 31
0.0
  0
LINE
  5
11A21
  8
3
 10
96.817920805714465
 20
149.14579252140121
 30
0.0
 11
96.83594916616309
 21
149.13677834117689
 31
0.0
  0
LINE
  5
11A22
  8
3
 10
96.83594916616309
 20
149.13677834117689
 30
0.0
 11
96.853977526611715
 21
149.12776416095261
 31
0.0
  0
LINE
  5
11A23
  8
3
 10
96.853977526611715
 20
149.12776416095261
 30
0.0
 11
96.872005887060325
 21
149.11874998072821
 31
0.0
  0
LINE
  5
11A24
  8
3
 10
96.872005887060325
 20
149.11874998072821
 30
0.0
 11
96.890034247508908
 21
149.1097358005039
 31
0.0
  0
LINE
  5
11A25
  8
3
 10
96.890034247508908
 20
149.1097358005039
 30
0.0
 11
96.908062607957604
 21
149.10072162027959
 31
0.0
  0
LINE
  5
11A26
  8
3
 10
96.908062607957604
 20
149.10072162027959
 30
0.0
 11
96.926090968406214
 21
149.0917074400553
 31
0.0
  0
LINE
  5
11A27
  8
3
 10
96.926090968406214
 20
149.0917074400553
 30
0.0
 11
96.944119328854853
 21
149.08269325983099
 31
0.0
  0
LINE
  5
11A28
  8
3
 10
96.944119328854853
 20
149.08269325983099
 30
0.0
 11
96.962147689303464
 21
149.07367907960671
 31
0.0
  0
LINE
  5
11A29
  8
3
 10
96.962147689303464
 20
149.07367907960671
 30
0.0
 11
96.980176049752089
 21
149.06466489938239
 31
0.0
  0
LINE
  5
11A2A
  8
3
 10
95.943545323956442
 20
148.20381068796081
 30
0.0
 11
95.925516963507761
 21
148.18578232751219
 31
0.0
  0
LINE
  5
11A2B
  8
3
 10
95.925516963507761
 20
148.18578232751219
 30
0.0
 11
95.911995693171349
 21
148.16324687695129
 31
0.0
  0
LINE
  5
11A2C
  8
3
 10
95.911995693171349
 20
148.16324687695129
 30
0.0
 11
95.893967332722724
 21
148.14521851650269
 31
0.0
  0
LINE
  5
11A2D
  8
3
 10
95.893967332722724
 20
148.14521851650269
 30
0.0
 11
95.880446062386255
 21
148.122683065942
 31
0.0
  0
LINE
  5
11A2E
  8
3
 10
95.880446062386255
 20
148.122683065942
 30
0.0
 11
95.871431882161829
 21
148.1046547054934
 31
0.0
  0
LINE
  5
11A2F
  8
3
 10
96.011151675638729
 20
148.27592412975531
 30
0.0
 11
95.993123315190161
 21
148.2578957693066
 31
0.0
  0
LINE
  5
11A30
  8
3
 10
95.993123315190161
 20
148.2578957693066
 30
0.0
 11
95.979602044853635
 21
148.24437449897019
 31
0.0
  0
LINE
  5
11A31
  8
3
 10
95.979602044853635
 20
148.24437449897019
 30
0.0
 11
95.961573684404996
 21
148.22183904840941
 31
0.0
  0
LINE
  5
11A32
  8
3
 10
95.961573684404996
 20
148.22183904840941
 30
0.0
 11
95.943545323956442
 21
148.20381068796081
 31
0.0
  0
LINE
  5
11A33
  8
3
 10
96.060729666872447
 20
148.30296667042819
 30
0.0
 11
96.042701306423837
 21
148.29845958031601
 31
0.0
  0
LINE
  5
11A34
  8
3
 10
96.042701306423837
 20
148.29845958031601
 30
0.0
 11
96.029180036087354
 21
148.28944540009169
 31
0.0
  0
LINE
  5
11A35
  8
3
 10
96.029180036087354
 20
148.28944540009169
 30
0.0
 11
96.011151675638729
 21
148.27592412975531
 31
0.0
  0
LINE
  5
11A36
  8
3
 10
96.074250937208888
 20
148.30296667042819
 30
0.0
 11
96.060729666872447
 21
148.30296667042819
 31
0.0
  0
LINE
  5
11A37
  8
3
 10
95.857910611825474
 20
148.09113343515691
 30
0.0
 11
95.844389341488949
 21
148.064090894484
 31
0.0
  0
LINE
  5
11A38
  8
3
 10
95.844389341488949
 20
148.064090894484
 30
0.0
 11
95.830868071152537
 21
147.98296327246521
 31
0.0
  0
LINE
  5
11A39
  8
3
 10
95.830868071152537
 20
147.98296327246521
 30
0.0
 11
95.826360981040366
 21
147.8973285603343
 31
0.0
  0
LINE
  5
11A3A
  8
3
 10
95.871431882161829
 20
148.1046547054934
 30
0.0
 11
95.857910611825474
 21
148.09113343515691
 31
0.0
  0
LINE
  5
11A3B
  8
3
 10
96.123828928442592
 20
149.2224130533078
 30
0.0
 11
96.164392739451984
 21
149.23142723353209
 31
0.0
  0
LINE
  5
11A3C
  8
3
 10
96.164392739451984
 20
149.23142723353209
 30
0.0
 11
96.204956550461404
 21
149.23142723353209
 31
0.0
  0
LINE
  5
11A3D
  8
3
 10
96.204956550461404
 20
149.23142723353209
 30
0.0
 11
96.245520361470795
 21
149.2359343236443
 31
0.0
  0
LINE
  5
11A3E
  8
3
 10
96.245520361470795
 20
149.2359343236443
 30
0.0
 11
96.286084172480145
 21
149.2359343236443
 31
0.0
  0
LINE
  5
11A3F
  8
3
 10
96.286084172480145
 20
149.2359343236443
 30
0.0
 11
96.331155073601707
 21
149.2359343236443
 31
0.0
  0
LINE
  5
11A40
  8
3
 10
96.331155073601707
 20
149.2359343236443
 30
0.0
 11
96.371718884611056
 21
149.2359343236443
 31
0.0
  0
LINE
  5
11A41
  8
3
 10
96.002137495414416
 20
149.19086342252271
 30
0.0
 11
96.123828928442592
 21
149.2224130533078
 31
0.0
  0
LINE
  5
11A42
  8
3
 10
95.943545323956442
 20
149.317061945663
 30
0.0
 11
95.911995693171349
 21
149.3080477654388
 31
0.0
  0
LINE
  5
11A43
  8
3
 10
95.911995693171349
 20
149.3080477654388
 30
0.0
 11
95.884953152498355
 21
149.2990335852144
 31
0.0
  0
LINE
  5
11A44
  8
3
 10
96.002137495414416
 20
149.3305832159995
 30
0.0
 11
95.970587864629266
 21
149.3260761258874
 31
0.0
  0
LINE
  5
11A45
  8
3
 10
95.970587864629266
 20
149.3260761258874
 30
0.0
 11
95.943545323956442
 21
149.317061945663
 31
0.0
  0
LINE
  5
11A46
  8
3
 10
96.105800567993953
 20
149.33959739622381
 30
0.0
 11
96.002137495414416
 21
149.3305832159995
 31
0.0
  0
LINE
  5
11A47
  8
3
 10
96.308619623041068
 20
149.34410448633599
 30
0.0
 11
96.195942370237105
 21
149.33959739622381
 31
0.0
  0
LINE
  5
11A48
  8
3
 10
96.195942370237105
 20
149.33959739622381
 30
0.0
 11
96.105800567993953
 21
149.33959739622381
 31
0.0
  0
LINE
  5
11A49
  8
3
 10
95.884953152498355
 20
149.1502996115133
 30
0.0
 11
95.943545323956442
 21
149.17283506207411
 31
0.0
  0
LINE
  5
11A4A
  8
3
 10
95.943545323956442
 20
149.17283506207411
 30
0.0
 11
96.002137495414416
 21
149.19086342252271
 31
0.0
  0
LINE
  5
11A4B
  8
3
 10
95.776782989806662
 20
149.10072162027959
 30
0.0
 11
95.830868071152537
 21
149.12776416095261
 31
0.0
  0
LINE
  5
11A4C
  8
3
 10
95.826360981040366
 20
149.28100522476581
 30
0.0
 11
95.799318440367415
 21
149.27199104454149
 31
0.0
  0
LINE
  5
11A4D
  8
3
 10
95.727204998572887
 20
149.07367907960671
 30
0.0
 11
95.776782989806662
 21
149.10072162027959
 31
0.0
  0
LINE
  5
11A4E
  8
3
 10
95.772275899694506
 20
149.26297686431721
 30
0.0
 11
95.745233359021512
 21
149.2539626840929
 31
0.0
  0
LINE
  5
11A4F
  8
3
 10
95.673119917227041
 20
149.04212944882161
 30
0.0
 11
95.727204998572887
 21
149.07367907960671
 31
0.0
  0
LINE
  5
11A50
  8
3
 10
95.691148277675765
 20
149.2359343236443
 30
0.0
 11
95.664105737002757
 21
149.2224130533078
 31
0.0
  0
LINE
  5
11A51
  8
3
 10
95.664105737002757
 20
149.2224130533078
 30
0.0
 11
95.641570286442033
 21
149.21339887308349
 31
0.0
  0
LINE
  5
11A52
  8
3
 10
95.745233359021512
 20
149.2539626840929
 30
0.0
 11
95.718190818348688
 21
149.24494850386861
 31
0.0
  0
LINE
  5
11A53
  8
3
 10
95.718190818348688
 20
149.24494850386861
 30
0.0
 11
95.691148277675765
 21
149.2359343236443
 31
0.0
  0
LINE
  5
11A54
  8
3
 10
95.799318440367415
 20
149.27199104454149
 30
0.0
 11
95.772275899694506
 21
149.26297686431721
 31
0.0
  0
LINE
  5
11A55
  8
3
 10
95.853403521713275
 20
149.2900194049902
 30
0.0
 11
95.826360981040366
 21
149.28100522476581
 31
0.0
  0
LINE
  5
11A56
  8
3
 10
95.830868071152537
 20
149.12776416095261
 30
0.0
 11
95.884953152498355
 21
149.1502996115133
 31
0.0
  0
LINE
  5
11A57
  8
3
 10
95.884953152498355
 20
149.2990335852144
 30
0.0
 11
95.853403521713275
 21
149.2900194049902
 31
0.0
  0
LINE
  5
11A58
  8
3
 10
96.371718884611056
 20
149.2359343236443
 30
0.0
 11
96.412282695620519
 21
149.2359343236443
 31
0.0
  0
LINE
  5
11A59
  8
3
 10
96.443832326405669
 20
149.34861157644821
 30
0.0
 11
96.308619623041068
 21
149.34410448633599
 31
0.0
  0
LINE
  5
11A5A
  8
3
 10
96.624115930891804
 20
148.2714170396431
 30
0.0
 11
96.624115930891804
 21
147.27985721496901
 31
0.0
  0
LINE
  5
11A5B
  8
3
 10
96.078758027321129
 20
147.2708430347447
 30
0.0
 11
96.074250937208888
 21
148.30296667042819
 31
0.0
  0
LINE
  5
11A5C
  8
3
 10
95.826360981040366
 20
147.8973285603343
 30
0.0
 11
95.817346800816068
 21
147.8162009383154
 31
0.0
  0
LINE
  5
11A5D
  8
3
 10
96.817920805714465
 20
147.7891583976425
 30
0.0
 11
96.817920805714465
 21
147.86127183943699
 31
0.0
  0
LINE
  5
11A5E
  8
3
 10
95.087198202646917
 20
146.81562693341701
 30
0.0
 11
95.082691112534775
 21
146.85168365431429
 31
0.0
  0
LINE
  5
11A5F
  8
3
 10
95.150297464217118
 20
146.48660935522969
 30
0.0
 11
95.123254923544195
 21
146.56773697724859
 31
0.0
  0
LINE
  5
11A60
  8
3
 10
95.091705292759087
 20
146.71196386083739
 30
0.0
 11
95.091705292759087
 21
146.74802058173469
 31
0.0
  0
LINE
  5
11A61
  8
3
 10
95.091705292759087
 20
146.74802058173469
 30
0.0
 11
95.087198202646917
 21
146.77957021251979
 31
0.0
  0
LINE
  5
11A62
  8
3
 10
95.087198202646917
 20
146.77957021251979
 30
0.0
 11
95.087198202646917
 21
146.81562693341701
 31
0.0
  0
LINE
  5
11A63
  8
3
 10
95.105226563095556
 20
146.639850419043
 30
0.0
 11
95.096212382871215
 21
146.67590713994019
 31
0.0
  0
LINE
  5
11A64
  8
3
 10
95.096212382871215
 20
146.67590713994019
 30
0.0
 11
95.091705292759087
 21
146.71196386083739
 31
0.0
  0
LINE
  5
11A65
  8
3
 10
95.109733653207698
 20
146.60379369814569
 30
0.0
 11
95.105226563095556
 21
146.639850419043
 31
0.0
  0
LINE
  5
11A66
  8
3
 10
95.123254923544195
 20
146.56773697724859
 30
0.0
 11
95.109733653207698
 21
146.60379369814569
 31
0.0
  0
LINE
  5
11A67
  8
3
 10
95.380159059937057
 20
146.1711130473789
 30
0.0
 11
95.348609429151935
 21
146.20266267816399
 31
0.0
  0
LINE
  5
11A68
  8
3
 10
95.348609429151935
 20
146.20266267816399
 30
0.0
 11
95.317059798366785
 21
146.234212308949
 31
0.0
  0
LINE
  5
11A69
  8
3
 10
95.317059798366785
 20
146.234212308949
 30
0.0
 11
95.290017257693904
 21
146.26576193973409
 31
0.0
  0
LINE
  5
11A6A
  8
3
 10
95.290017257693904
 20
146.26576193973409
 30
0.0
 11
95.258467626908867
 21
146.29731157051921
 31
0.0
  0
LINE
  5
11A6B
  8
3
 10
95.258467626908867
 20
146.29731157051921
 30
0.0
 11
95.235932176348086
 21
146.33336829141641
 31
0.0
  0
LINE
  5
11A6C
  8
3
 10
95.235932176348086
 20
146.33336829141641
 30
0.0
 11
95.208889635675135
 21
146.36942501231371
 31
0.0
  0
LINE
  5
11A6D
  8
3
 10
95.208889635675135
 20
146.36942501231371
 30
0.0
 11
95.190861275226439
 21
146.40998882332309
 31
0.0
  0
LINE
  5
11A6E
  8
3
 10
95.190861275226439
 20
146.40998882332309
 30
0.0
 11
95.168325824665743
 21
146.44604554422031
 31
0.0
  0
LINE
  5
11A6F
  8
3
 10
95.168325824665743
 20
146.44604554422031
 30
0.0
 11
95.150297464217118
 21
146.48660935522969
 31
0.0
  0
LINE
  5
11A70
  8
3
 10
95.416215780834335
 20
146.1440705067059
 30
0.0
 11
95.380159059937057
 21
146.1711130473789
 31
0.0
  0
LINE
  5
11A71
  8
3
 10
95.452272501731528
 20
146.11702796603299
 30
0.0
 11
95.416215780834335
 21
146.1440705067059
 31
0.0
  0
LINE
  5
11A72
  8
3
 10
95.082691112534775
 20
146.88774037521151
 30
0.0
 11
95.082691112534775
 21
146.9192900059966
 31
0.0
  0
LINE
  5
11A73
  8
3
 10
95.082691112534775
 20
146.9192900059966
 30
0.0
 11
95.082691112534775
 21
146.95534672689391
 31
0.0
  0
LINE
  5
11A74
  8
3
 10
95.082691112534775
 20
146.85168365431429
 30
0.0
 11
95.082691112534775
 21
146.88774037521151
 31
0.0
  0
LINE
  5
11A75
  8
3
 10
95.159311644441431
 20
147.33394229631489
 30
0.0
 11
95.136776193880607
 21
147.39253446777289
 31
0.0
  0
LINE
  5
11A76
  8
3
 10
95.136776193880607
 20
147.39253446777289
 30
0.0
 11
95.118747833432025
 21
147.45112663923089
 31
0.0
  0
LINE
  5
11A77
  8
3
 10
95.078184022422533
 20
147.7485945866332
 30
0.0
 11
95.078184022422533
 21
147.8116938482033
 31
0.0
  0
LINE
  5
11A78
  8
3
 10
95.082691112534775
 20
147.6269031536049
 30
0.0
 11
95.082691112534775
 21
147.69000241517509
 31
0.0
  0
LINE
  5
11A79
  8
3
 10
95.082691112534775
 20
147.69000241517509
 30
0.0
 11
95.078184022422533
 21
147.7485945866332
 31
0.0
  0
LINE
  5
11A7A
  8
3
 10
95.100719472983457
 20
147.50521172057671
 30
0.0
 11
95.091705292759087
 21
147.5683109821469
 31
0.0
  0
LINE
  5
11A7B
  8
3
 10
95.091705292759087
 20
147.5683109821469
 30
0.0
 11
95.082691112534775
 21
147.6269031536049
 31
0.0
  0
LINE
  5
11A7C
  8
3
 10
95.118747833432025
 20
147.45112663923089
 30
0.0
 11
95.100719472983457
 21
147.50521172057671
 31
0.0
  0
LINE
  5
11A7D
  8
3
 10
95.082691112534775
 20
146.9914034477911
 30
0.0
 11
95.087198202646917
 21
147.02295307857619
 31
0.0
  0
LINE
  5
11A7E
  8
3
 10
95.452272501731528
 20
147.1401374214922
 30
0.0
 11
95.50185049296519
 21
147.1401374214922
 31
0.0
  0
LINE
  5
11A7F
  8
3
 10
95.50185049296519
 20
147.1401374214922
 30
0.0
 11
95.560442664423178
 21
147.1401374214922
 31
0.0
  0
LINE
  5
11A80
  8
3
 10
95.587485205096129
 20
147.23929340395961
 30
0.0
 11
95.546921394086695
 21
147.24380049407179
 31
0.0
  0
LINE
  5
11A81
  8
3
 10
95.546921394086695
 20
147.24380049407179
 30
0.0
 11
95.506357583077346
 21
147.24380049407179
 31
0.0
  0
LINE
  5
11A82
  8
3
 10
95.506357583077346
 20
147.24380049407179
 30
0.0
 11
95.461286681955826
 21
147.24830758418389
 31
0.0
  0
LINE
  5
11A83
  8
3
 10
95.132269103768479
 20
147.13112324126789
 30
0.0
 11
95.172832914777842
 21
147.13563033138001
 31
0.0
  0
LINE
  5
11A84
  8
3
 10
95.172832914777842
 20
147.13563033138001
 30
0.0
 11
95.208889635675135
 21
147.1401374214922
 31
0.0
  0
LINE
  5
11A85
  8
3
 10
95.208889635675135
 20
147.1401374214922
 30
0.0
 11
95.235932176348086
 21
147.1401374214922
 31
0.0
  0
LINE
  5
11A86
  8
3
 10
95.235932176348086
 20
147.1401374214922
 30
0.0
 11
95.262974717021024
 21
147.1401374214922
 31
0.0
  0
LINE
  5
11A87
  8
3
 10
95.262974717021024
 20
147.1401374214922
 30
0.0
 11
95.290017257693904
 21
147.1401374214922
 31
0.0
  0
LINE
  5
11A88
  8
3
 10
95.290017257693904
 20
147.1401374214922
 30
0.0
 11
95.317059798366785
 21
147.1401374214922
 31
0.0
  0
LINE
  5
11A89
  8
3
 10
95.317059798366785
 20
147.1401374214922
 30
0.0
 11
95.344102339039807
 21
147.1401374214922
 31
0.0
  0
LINE
  5
11A8A
  8
3
 10
95.344102339039807
 20
147.1401374214922
 30
0.0
 11
95.375651969824872
 21
147.1401374214922
 31
0.0
  0
LINE
  5
11A8B
  8
3
 10
95.375651969824872
 20
147.1401374214922
 30
0.0
 11
95.411708690722094
 21
147.1401374214922
 31
0.0
  0
LINE
  5
11A8C
  8
3
 10
95.420722870946449
 20
147.2528146742961
 30
0.0
 11
95.380159059937057
 21
147.2573217644082
 31
0.0
  0
LINE
  5
11A8D
  8
3
 10
95.380159059937057
 20
147.2573217644082
 30
0.0
 11
95.339595248927637
 21
147.26182885452039
 31
0.0
  0
LINE
  5
11A8E
  8
3
 10
95.339595248927637
 20
147.26182885452039
 30
0.0
 11
95.303538528030401
 21
147.2708430347447
 31
0.0
  0
LINE
  5
11A8F
  8
3
 10
95.303538528030401
 20
147.2708430347447
 30
0.0
 11
95.262974717021024
 21
147.2843643050812
 31
0.0
  0
LINE
  5
11A90
  8
3
 10
95.262974717021024
 20
147.2843643050812
 30
0.0
 11
95.226917996123717
 21
147.29788557541769
 31
0.0
  0
LINE
  5
11A91
  8
3
 10
95.087198202646917
 20
147.12661615115579
 30
0.0
 11
95.132269103768479
 21
147.13112324126789
 31
0.0
  0
LINE
  5
11A92
  8
3
 10
95.226917996123717
 20
147.29788557541769
 30
0.0
 11
95.159311644441431
 21
147.33394229631489
 31
0.0
  0
LINE
  5
11A93
  8
3
 10
95.087198202646917
 20
147.05900979947339
 30
0.0
 11
95.087198202646917
 21
147.12661615115579
 31
0.0
  0
LINE
  5
11A94
  8
3
 10
95.411708690722094
 20
147.1401374214922
 30
0.0
 11
95.452272501731528
 21
147.1401374214922
 31
0.0
  0
LINE
  5
11A95
  8
3
 10
95.461286681955826
 20
147.24830758418389
 30
0.0
 11
95.420722870946449
 21
147.2528146742961
 31
0.0
  0
LINE
  5
11A96
  8
3
 10
95.087198202646917
 20
147.02295307857619
 30
0.0
 11
95.087198202646917
 21
147.05900979947339
 31
0.0
  0
LINE
  5
11A97
  8
3
 10
95.082691112534775
 20
146.95534672689391
 30
0.0
 11
95.082691112534775
 21
146.9914034477911
 31
0.0
  0
LINE
  5
11A98
  8
3
 10
95.100719472983457
 20
148.05958380437181
 30
0.0
 11
95.109733653207698
 21
148.1181759758299
 31
0.0
  0
LINE
  5
11A99
  8
3
 10
95.172832914777842
 20
148.40662974300781
 30
0.0
 11
95.181847095002183
 21
148.43367228368069
 31
0.0
  0
LINE
  5
11A9A
  8
3
 10
95.195368365338624
 20
148.4607148243536
 30
0.0
 11
95.204382545562936
 21
148.48325027491441
 31
0.0
  0
LINE
  5
11A9B
  8
3
 10
95.204382545562936
 20
148.48325027491441
 30
0.0
 11
95.217903815899419
 21
148.51029281558729
 31
0.0
  0
LINE
  5
11A9C
  8
3
 10
95.217903815899419
 20
148.51029281558729
 30
0.0
 11
95.231425086235873
 21
148.5328282661481
 31
0.0
  0
LINE
  5
11A9D
  8
3
 10
95.231425086235873
 20
148.5328282661481
 30
0.0
 11
95.244946356572342
 21
148.55987080682101
 31
0.0
  0
LINE
  5
11A9E
  8
3
 10
95.244946356572342
 20
148.55987080682101
 30
0.0
 11
95.258467626908867
 21
148.58240625738179
 31
0.0
  0
LINE
  5
11A9F
  8
3
 10
95.258467626908867
 20
148.58240625738179
 30
0.0
 11
95.271988897245336
 21
148.6049417079426
 31
0.0
  0
LINE
  5
11AA0
  8
3
 10
95.271988897245336
 20
148.6049417079426
 30
0.0
 11
95.285510167581748
 21
148.63198424861551
 31
0.0
  0
LINE
  5
11AA1
  8
3
 10
95.285510167581748
 20
148.63198424861551
 30
0.0
 11
95.303538528030401
 21
148.65451969917629
 31
0.0
  0
LINE
  5
11AA2
  8
3
 10
95.303538528030401
 20
148.65451969917629
 30
0.0
 11
95.335088158815438
 21
148.6995906002978
 31
0.0
  0
LINE
  5
11AA3
  8
3
 10
95.181847095002183
 20
148.43367228368069
 30
0.0
 11
95.195368365338624
 21
148.4607148243536
 31
0.0
  0
LINE
  5
11AA4
  8
3
 10
95.109733653207698
 20
148.1181759758299
 30
0.0
 11
95.118747833432025
 21
148.1767681472879
 31
0.0
  0
LINE
  5
11AA5
  8
3
 10
95.118747833432025
 20
148.1767681472879
 30
0.0
 11
95.136776193880607
 21
148.29395249020391
 31
0.0
  0
LINE
  5
11AA6
  8
3
 10
95.136776193880607
 20
148.29395249020391
 30
0.0
 11
95.141283283992749
 21
148.325502120989
 31
0.0
  0
LINE
  5
11AA7
  8
3
 10
95.141283283992749
 20
148.325502120989
 30
0.0
 11
95.150297464217118
 21
148.35254466166191
 31
0.0
  0
LINE
  5
11AA8
  8
3
 10
95.150297464217118
 20
148.35254466166191
 30
0.0
 11
95.163818734553615
 21
148.3795872023349
 31
0.0
  0
LINE
  5
11AA9
  8
3
 10
95.163818734553615
 20
148.3795872023349
 30
0.0
 11
95.172832914777842
 21
148.40662974300781
 31
0.0
  0
LINE
  5
11AAA
  8
3
 10
95.082691112534775
 20
147.87479310977349
 30
0.0
 11
95.087198202646917
 21
147.93338528123149
 31
0.0
  0
LINE
  5
11AAB
  8
3
 10
95.087198202646917
 20
147.93338528123149
 30
0.0
 11
95.091705292759087
 21
147.9964845428016
 31
0.0
  0
LINE
  5
11AAC
  8
3
 10
95.091705292759087
 20
147.9964845428016
 30
0.0
 11
95.100719472983457
 21
148.05958380437181
 31
0.0
  0
LINE
  5
11AAD
  8
3
 10
95.488329222628778
 20
148.89339547512051
 30
0.0
 11
95.533400123750312
 21
148.93395928612989
 31
0.0
  0
LINE
  5
11AAE
  8
3
 10
95.533400123750312
 20
148.93395928612989
 30
0.0
 11
95.578471024871845
 21
148.9745230971393
 31
0.0
  0
LINE
  5
11AAF
  8
3
 10
95.578471024871845
 20
148.9745230971393
 30
0.0
 11
95.628049016105564
 21
149.00607272792439
 31
0.0
  0
LINE
  5
11AB0
  8
3
 10
95.407201600609966
 20
148.80325367287739
 30
0.0
 11
95.447765411619315
 21
148.84832457399889
 31
0.0
  0
LINE
  5
11AB1
  8
3
 10
95.371144879712645
 20
148.7536756816437
 30
0.0
 11
95.407201600609966
 21
148.80325367287739
 31
0.0
  0
LINE
  5
11AB2
  8
3
 10
95.447765411619315
 20
148.84832457399889
 30
0.0
 11
95.488329222628778
 21
148.89339547512051
 31
0.0
  0
LINE
  5
11AB3
  8
3
 10
95.573963934759632
 20
149.1773421521863
 30
0.0
 11
95.537907213862439
 21
149.1638208818498
 31
0.0
  0
LINE
  5
11AB4
  8
3
 10
95.537907213862439
 20
149.1638208818498
 30
0.0
 11
95.50185049296519
 21
149.14579252140121
 31
0.0
  0
LINE
  5
11AB5
  8
3
 10
95.50185049296519
 20
149.14579252140121
 30
0.0
 11
95.470300862180096
 21
149.12776416095261
 31
0.0
  0
LINE
  5
11AB6
  8
3
 10
95.470300862180096
 20
149.12776416095261
 30
0.0
 11
95.438751231395003
 21
149.1097358005039
 31
0.0
  0
LINE
  5
11AB7
  8
3
 10
95.438751231395003
 20
149.1097358005039
 30
0.0
 11
95.411708690722094
 21
149.0917074400553
 31
0.0
  0
LINE
  5
11AB8
  8
3
 10
95.411708690722094
 20
149.0917074400553
 30
0.0
 11
95.380159059937057
 21
149.06917198949449
 31
0.0
  0
LINE
  5
11AB9
  8
3
 10
95.380159059937057
 20
149.06917198949449
 30
0.0
 11
95.353116519264091
 21
149.05114362904601
 31
0.0
  0
LINE
  5
11ABA
  8
3
 10
95.353116519264091
 20
149.05114362904601
 30
0.0
 11
95.326073978591182
 21
149.0286081784852
 31
0.0
  0
LINE
  5
11ABB
  8
3
 10
95.326073978591182
 20
149.0286081784852
 30
0.0
 11
95.303538528030401
 21
149.0105798180366
 31
0.0
  0
LINE
  5
11ABC
  8
3
 10
95.303538528030401
 20
149.0105798180366
 30
0.0
 11
95.276495987357492
 21
148.98804436747579
 31
0.0
  0
LINE
  5
11ABD
  8
3
 10
95.276495987357492
 20
148.98804436747579
 30
0.0
 11
95.249453446684498
 21
148.96550891691501
 31
0.0
  0
LINE
  5
11ABE
  8
3
 10
95.249453446684498
 20
148.96550891691501
 30
0.0
 11
95.226917996123717
 21
148.9429734663542
 31
0.0
  0
LINE
  5
11ABF
  8
3
 10
95.226917996123717
 20
148.9429734663542
 30
0.0
 11
95.199875455450865
 21
148.92043801579339
 31
0.0
  0
LINE
  5
11AC0
  8
3
 10
95.199875455450865
 20
148.92043801579339
 30
0.0
 11
95.172832914777842
 21
148.89790256523261
 31
0.0
  0
LINE
  5
11AC1
  8
3
 10
95.172832914777842
 20
148.89790256523261
 30
0.0
 11
95.123254923544195
 21
148.84832457399889
 31
0.0
  0
LINE
  5
11AC2
  8
3
 10
95.614527745769095
 20
149.20438469285921
 30
0.0
 11
95.573963934759632
 21
149.1773421521863
 31
0.0
  0
LINE
  5
11AC3
  8
3
 10
95.335088158815438
 20
148.6995906002978
 30
0.0
 11
95.371144879712645
 21
148.7536756816437
 31
0.0
  0
LINE
  5
11AC4
  8
3
 10
95.078184022422533
 20
147.8116938482033
 30
0.0
 11
95.082691112534775
 21
147.87479310977349
 31
0.0
  0
LINE
  5
11AC5
  8
3
 10
95.628049016105564
 20
149.00607272792439
 30
0.0
 11
95.673119917227041
 21
149.04212944882161
 31
0.0
  0
LINE
  5
11AC6
  8
3
 10
95.641570286442033
 20
149.21339887308349
 30
0.0
 11
95.614527745769095
 21
149.20438469285921
 31
0.0
  0
LINE
  5
11AC7
  8
3
 10
95.560442664423178
 20
147.1401374214922
 30
0.0
 11
95.632556106217706
 21
147.1446445116043
 31
0.0
  0
LINE
  5
11AC8
  8
3
 10
95.632556106217706
 20
147.23929340395961
 30
0.0
 11
95.587485205096129
 21
147.23929340395961
 31
0.0
  0
LINE
  5
11AC9
  8
3
 10
96.565523759433844
 20
150.18242324719679
 30
0.0
 11
96.754821544144278
 21
150.1779161570847
 31
0.0
  0
LINE
  5
11ACA
  8
3
 10
96.754821544144278
 20
150.1779161570847
 30
0.0
 11
96.944119328854853
 21
150.17340906697251
 31
0.0
  0
LINE
  5
11ACB
  8
3
 10
96.944119328854853
 20
150.17340906697251
 30
0.0
 11
97.146938383901784
 21
150.1643948867482
 31
0.0
  0
LINE
  5
11ACC
  8
3
 10
96.844963346387402
 20
150.36270685168299
 30
0.0
 11
96.83594916616309
 21
150.43031320336539
 31
0.0
  0
LINE
  5
11ACD
  8
3
 10
96.678201012237622
 20
150.3852423022438
 30
0.0
 11
96.646651381452585
 21
150.38073521213161
 31
0.0
  0
LINE
  5
11ACE
  8
3
 10
96.646651381452585
 20
150.38073521213161
 30
0.0
 11
96.615101750667463
 21
150.3717210319073
 31
0.0
  0
LINE
  5
11ACF
  8
3
 10
96.615101750667463
 20
150.3717210319073
 30
0.0
 11
96.583552119882455
 21
150.3672139417952
 31
0.0
  0
LINE
  5
11AD0
  8
3
 10
96.583552119882455
 20
150.3672139417952
 30
0.0
 11
96.552002489097362
 21
150.3672139417952
 31
0.0
  0
LINE
  5
11AD1
  8
3
 10
96.552002489097362
 20
150.3672139417952
 30
0.0
 11
96.515945768200112
 21
150.36270685168299
 31
0.0
  0
LINE
  5
11AD2
  8
3
 10
96.515945768200112
 20
150.36270685168299
 30
0.0
 11
96.484396137415004
 21
150.36270685168299
 31
0.0
  0
LINE
  5
11AD3
  8
3
 10
96.484396137415004
 20
150.36270685168299
 30
0.0
 11
96.448339416517712
 21
150.36270685168299
 31
0.0
  0
LINE
  5
11AD4
  8
3
 10
96.448339416517712
 20
150.36270685168299
 30
0.0
 11
96.416789785732746
 21
150.36270685168299
 31
0.0
  0
LINE
  5
11AD5
  8
3
 10
96.858484616723871
 20
150.2951005000007
 30
0.0
 11
96.844963346387402
 21
150.36270685168299
 31
0.0
  0
LINE
  5
11AD6
  8
3
 10
96.840456256275218
 20
150.71876697054319
 30
0.0
 11
96.844963346387402
 21
150.79088041233771
 31
0.0
  0
LINE
  5
11AD7
  8
3
 10
96.844963346387402
 20
150.79088041233771
 30
0.0
 11
96.849470436499544
 21
150.8675009442444
 31
0.0
  0
LINE
  5
11AD8
  8
3
 10
96.849470436499544
 20
150.8675009442444
 30
0.0
 11
96.849470436499544
 21
150.9396143860389
 31
0.0
  0
LINE
  5
11AD9
  8
3
 10
96.849470436499544
 20
150.9396143860389
 30
0.0
 11
96.849470436499544
 21
151.00722073772121
 31
0.0
  0
LINE
  5
11ADA
  8
3
 10
96.831442076050962
 20
151.146940531198
 30
0.0
 11
96.813413715602294
 21
151.21003979276821
 31
0.0
  0
LINE
  5
11ADB
  8
3
 10
96.813413715602294
 20
151.21003979276821
 30
0.0
 11
96.786371174929471
 21
151.27313905433829
 31
0.0
  0
LINE
  5
11ADC
  8
3
 10
96.840456256275218
 20
151.07933417951571
 30
0.0
 11
96.831442076050962
 21
151.146940531198
 31
0.0
  0
LINE
  5
11ADD
  8
3
 10
96.849470436499544
 20
151.00722073772121
 30
0.0
 11
96.840456256275218
 21
151.07933417951571
 31
0.0
  0
LINE
  5
11ADE
  8
3
 10
96.83594916616309
 20
150.5745400869543
 30
0.0
 11
96.840456256275218
 21
150.6466535287488
 31
0.0
  0
LINE
  5
11ADF
  8
3
 10
96.840456256275218
 20
150.6466535287488
 30
0.0
 11
96.840456256275218
 21
150.71876697054319
 31
0.0
  0
LINE
  5
11AE0
  8
3
 10
96.83594916616309
 20
150.50242664515989
 30
0.0
 11
96.83594916616309
 21
150.5745400869543
 31
0.0
  0
LINE
  5
11AE1
  8
3
 10
96.83594916616309
 20
150.43031320336539
 30
0.0
 11
96.83594916616309
 21
150.50242664515989
 31
0.0
  0
LINE
  5
11AE2
  8
3
 10
96.213970730685716
 20
150.16890197686041
 30
0.0
 11
96.389747245059738
 21
150.1779161570847
 31
0.0
  0
LINE
  5
11AE3
  8
3
 10
96.380733064835482
 20
150.36270685168299
 30
0.0
 11
96.349183434050332
 21
150.36270685168299
 31
0.0
  0
LINE
  5
11AE4
  8
3
 10
95.871431882161829
 20
150.12383107573879
 30
0.0
 11
96.042701306423837
 21
150.1508736164117
 31
0.0
  0
LINE
  5
11AE5
  8
3
 10
95.925516963507761
 20
150.25904377910351
 30
0.0
 11
95.930024053620002
 21
150.16890197686041
 31
0.0
  0
LINE
  5
11AE6
  8
3
 10
95.930024053620002
 20
150.16890197686041
 30
0.0
 11
95.89847442283488
 21
150.18242324719679
 31
0.0
  0
LINE
  5
11AE7
  8
3
 10
96.042701306423837
 20
150.1508736164117
 30
0.0
 11
96.213970730685716
 21
150.16890197686041
 31
0.0
  0
LINE
  5
11AE8
  8
3
 10
95.916502783283505
 20
150.39425648246811
 30
0.0
 11
95.921009873395604
 21
150.32214304067361
 31
0.0
  0
LINE
  5
11AE9
  8
3
 10
96.349183434050332
 20
150.36270685168299
 30
0.0
 11
96.313126713153082
 21
150.36270685168299
 31
0.0
  0
LINE
  5
11AEA
  8
3
 10
96.313126713153082
 20
150.36270685168299
 30
0.0
 11
96.277069992255889
 21
150.36270685168299
 31
0.0
  0
LINE
  5
11AEB
  8
3
 10
96.277069992255889
 20
150.36270685168299
 30
0.0
 11
96.245520361470795
 21
150.36270685168299
 31
0.0
  0
LINE
  5
11AEC
  8
3
 10
96.245520361470795
 20
150.36270685168299
 30
0.0
 11
96.213970730685716
 21
150.36270685168299
 31
0.0
  0
LINE
  5
11AED
  8
3
 10
96.213970730685716
 20
150.36270685168299
 30
0.0
 11
96.150871469115486
 21
150.3536926714587
 31
0.0
  0
LINE
  5
11AEE
  8
3
 10
96.150871469115486
 20
150.3536926714587
 30
0.0
 11
96.146364379003373
 21
150.41679193302889
 31
0.0
  0
LINE
  5
11AEF
  8
3
 10
95.921009873395604
 20
150.32214304067361
 30
0.0
 11
95.925516963507761
 21
150.25904377910351
 31
0.0
  0
LINE
  5
11AF0
  8
3
 10
95.826360981040366
 20
150.19594451753329
 30
0.0
 11
95.790304260143159
 21
150.2049586977576
 31
0.0
  0
LINE
  5
11AF1
  8
3
 10
95.754247539245924
 20
150.20946578786979
 30
0.0
 11
95.713683728236546
 21
150.21397287798189
 31
0.0
  0
LINE
  5
11AF2
  8
3
 10
95.713683728236546
 20
150.21397287798189
 30
0.0
 11
95.673119917227041
 21
150.2229870582062
 31
0.0
  0
LINE
  5
11AF3
  8
3
 10
95.790304260143159
 20
150.2049586977576
 30
0.0
 11
95.754247539245924
 21
150.20946578786979
 31
0.0
  0
LINE
  5
11AF4
  8
3
 10
95.862417701937602
 20
150.19143742742111
 30
0.0
 11
95.826360981040366
 21
150.19594451753329
 31
0.0
  0
LINE
  5
11AF5
  8
3
 10
95.700162457900007
 20
150.08326726472939
 30
0.0
 11
95.871431882161829
 21
150.12383107573879
 31
0.0
  0
LINE
  5
11AF6
  8
3
 10
95.89847442283488
 20
150.18242324719679
 30
0.0
 11
95.862417701937602
 21
150.19143742742111
 31
0.0
  0
LINE
  5
11AF7
  8
3
 10
95.907488603059136
 20
150.5565117265057
 30
0.0
 11
95.911995693171349
 21
150.47087701437479
 31
0.0
  0
LINE
  5
11AF8
  8
3
 10
96.141857288891245
 20
150.47989119459899
 30
0.0
 11
96.141857288891245
 21
150.54299045616921
 31
0.0
  0
LINE
  5
11AF9
  8
3
 10
95.902981512947008
 20
150.83144422334709
 30
0.0
 11
95.902981512947008
 21
150.7367953309919
 31
0.0
  0
LINE
  5
11AFA
  8
3
 10
96.141857288891245
 20
150.741302421104
 30
0.0
 11
96.141857288891245
 21
150.8089087727864
 31
0.0
  0
LINE
  5
11AFB
  8
3
 10
95.93453114373213
 20
151.10637672018859
 30
0.0
 11
95.916502783283505
 21
151.0162349179455
 31
0.0
  0
LINE
  5
11AFC
  8
3
 10
95.916502783283505
 20
151.0162349179455
 30
0.0
 11
95.907488603059136
 21
150.9260931157024
 31
0.0
  0
LINE
  5
11AFD
  8
3
 10
95.907488603059136
 20
150.9260931157024
 30
0.0
 11
95.902981512947008
 21
150.83144422334709
 31
0.0
  0
LINE
  5
11AFE
  8
3
 10
96.141857288891245
 20
150.8089087727864
 30
0.0
 11
96.141857288891245
 21
150.87651512446871
 31
0.0
  0
LINE
  5
11AFF
  8
3
 10
96.141857288891245
 20
150.87651512446871
 30
0.0
 11
96.141857288891245
 21
150.944121476151
 31
0.0
  0
LINE
  5
11B00
  8
3
 10
96.141857288891245
 20
150.944121476151
 30
0.0
 11
96.146364379003373
 21
151.01172782783331
 31
0.0
  0
LINE
  5
11B01
  8
3
 10
95.952559504180755
 20
151.1920114323195
 30
0.0
 11
95.93453114373213
 21
151.10637672018859
 31
0.0
  0
LINE
  5
11B02
  8
3
 10
95.984109134965792
 20
151.27313905433829
 30
0.0
 11
95.952559504180755
 21
151.1920114323195
 31
0.0
  0
LINE
  5
11B03
  8
3
 10
96.146364379003373
 20
151.146940531198
 30
0.0
 11
96.146364379003373
 21
151.21003979276821
 31
0.0
  0
LINE
  5
11B04
  8
3
 10
96.146364379003373
 20
151.21003979276821
 30
0.0
 11
96.146364379003373
 21
151.2776461444505
 31
0.0
  0
LINE
  5
11B05
  8
3
 10
96.146364379003373
 20
151.07933417951571
 30
0.0
 11
96.146364379003373
 21
151.146940531198
 31
0.0
  0
LINE
  5
11B06
  8
3
 10
96.146364379003373
 20
151.01172782783331
 30
0.0
 11
96.146364379003373
 21
151.07933417951571
 31
0.0
  0
LINE
  5
11B07
  8
3
 10
95.902981512947008
 20
150.7367953309919
 30
0.0
 11
95.902981512947008
 21
150.6466535287488
 31
0.0
  0
LINE
  5
11B08
  8
3
 10
95.902981512947008
 20
150.6466535287488
 30
0.0
 11
95.907488603059136
 21
150.5565117265057
 31
0.0
  0
LINE
  5
11B09
  8
3
 10
96.141857288891245
 20
150.54299045616921
 30
0.0
 11
96.141857288891245
 21
150.61059680785149
 31
0.0
  0
LINE
  5
11B0A
  8
3
 10
96.141857288891245
 20
150.61059680785149
 30
0.0
 11
96.141857288891245
 21
150.67369606942171
 31
0.0
  0
LINE
  5
11B0B
  8
3
 10
96.141857288891245
 20
150.67369606942171
 30
0.0
 11
96.141857288891245
 21
150.741302421104
 31
0.0
  0
LINE
  5
11B0C
  8
3
 10
95.911995693171349
 20
150.47087701437479
 30
0.0
 11
95.916502783283505
 21
150.39425648246811
 31
0.0
  0
LINE
  5
11B0D
  8
3
 10
96.146364379003373
 20
150.41679193302889
 30
0.0
 11
96.141857288891245
 21
150.47989119459899
 31
0.0
  0
LINE
  5
11B0E
  8
3
 10
96.389747245059738
 20
150.1779161570847
 30
0.0
 11
96.565523759433844
 21
150.18242324719679
 31
0.0
  0
LINE
  5
11B0F
  8
3
 10
96.416789785732746
 20
150.36270685168299
 30
0.0
 11
96.380733064835482
 21
150.36270685168299
 31
0.0
  0
LINE
  5
11B10
  8
3
 10
96.993697320088501
 20
152.16554289654499
 30
0.0
 11
97.007218590424969
 21
152.15652871632071
 31
0.0
  0
LINE
  5
11B11
  8
3
 10
96.980176049752089
 20
152.17455707676939
 30
0.0
 11
96.993697320088501
 21
152.16554289654499
 31
0.0
  0
LINE
  5
11B12
  8
3
 10
96.953133509079123
 20
152.1925854372179
 30
0.0
 11
96.966654779415563
 21
152.1835712569937
 31
0.0
  0
LINE
  5
11B13
  8
3
 10
96.966654779415563
 20
152.1835712569937
 30
0.0
 11
96.980176049752089
 21
152.17455707676939
 31
0.0
  0
LINE
  5
11B14
  8
3
 10
97.007218590424969
 20
152.15652871632071
 30
0.0
 11
97.020739860761566
 21
152.14751453609639
 31
0.0
  0
LINE
  5
11B15
  8
3
 10
97.020739860761566
 20
152.14751453609639
 30
0.0
 11
97.029754040985793
 21
152.13850035587211
 31
0.0
  0
LINE
  5
11B16
  8
3
 10
97.029754040985793
 20
152.13850035587211
 30
0.0
 11
97.043275311322205
 21
152.1294861756478
 31
0.0
  0
LINE
  5
11B17
  8
3
 10
97.043275311322205
 20
152.1294861756478
 30
0.0
 11
97.056796581658631
 21
152.12047199542349
 31
0.0
  0
LINE
  5
11B18
  8
3
 10
97.056796581658631
 20
152.12047199542349
 30
0.0
 11
97.070317851995156
 21
152.1114578151992
 31
0.0
  0
LINE
  5
11B19
  8
3
 10
97.070317851995156
 20
152.1114578151992
 30
0.0
 11
97.079332032219412
 21
152.10695072508699
 31
0.0
  0
LINE
  5
11B1A
  8
3
 10
97.079332032219412
 20
152.10695072508699
 30
0.0
 11
97.092853302555937
 21
152.0979365448627
 31
0.0
  0
LINE
  5
11B1B
  8
3
 10
97.092853302555937
 20
152.0979365448627
 30
0.0
 11
97.106374572892435
 21
152.08892236463839
 31
0.0
  0
LINE
  5
11B1C
  8
3
 10
97.106374572892435
 20
152.08892236463839
 30
0.0
 11
97.115388753116633
 21
152.07990818441411
 31
0.0
  0
LINE
  5
11B1D
  8
3
 10
97.115388753116633
 20
152.07990818441411
 30
0.0
 11
97.128910023453145
 21
152.0754010943019
 31
0.0
  0
LINE
  5
11B1E
  8
3
 10
96.709750643022744
 20
151.38130921703001
 30
0.0
 11
96.705243552910616
 21
151.38130921703001
 31
0.0
  0
LINE
  5
11B1F
  8
3
 10
96.705243552910616
 20
151.38130921703001
 30
0.0
 11
96.700736462798446
 21
151.38130921703001
 31
0.0
  0
LINE
  5
11B20
  8
3
 10
96.700736462798446
 20
151.38130921703001
 30
0.0
 11
96.696229372686304
 21
151.38130921703001
 31
0.0
  0
LINE
  5
11B21
  8
3
 10
96.696229372686304
 20
151.38130921703001
 30
0.0
 11
96.691722282574119
 21
151.38130921703001
 31
0.0
  0
LINE
  5
11B22
  8
3
 10
96.691722282574119
 20
151.38130921703001
 30
0.0
 11
96.687215192461991
 21
151.38130921703001
 31
0.0
  0
LINE
  5
11B23
  8
3
 10
96.687215192461991
 20
151.38130921703001
 30
0.0
 11
96.687215192461991
 21
151.37680212691791
 31
0.0
  0
LINE
  5
11B24
  8
3
 10
96.687215192461991
 20
151.37680212691791
 30
0.0
 11
96.682708102349892
 21
151.37680212691791
 31
0.0
  0
LINE
  5
11B25
  8
3
 10
96.682708102349892
 20
151.37680212691791
 30
0.0
 11
96.682708102349892
 21
151.3722950368057
 31
0.0
  0
LINE
  5
11B26
  8
3
 10
96.452846506629996
 20
152.32779814058259
 30
0.0
 11
96.524959948424325
 21
152.3187839603583
 31
0.0
  0
LINE
  5
11B27
  8
3
 10
96.524959948424325
 20
152.3187839603583
 30
0.0
 11
96.597073390218867
 21
152.30976978013399
 31
0.0
  0
LINE
  5
11B28
  8
3
 10
96.597073390218867
 20
152.30976978013399
 30
0.0
 11
96.673693922125466
 21
152.29174141968539
 31
0.0
  0
LINE
  5
11B29
  8
3
 10
96.673693922125466
 20
152.29174141968539
 30
0.0
 11
96.741300273807809
 21
152.2737130592368
 31
0.0
  0
LINE
  5
11B2A
  8
3
 10
96.741300273807809
 20
152.2737130592368
 30
0.0
 11
96.813413715602309
 21
152.25117760867599
 31
0.0
  0
LINE
  5
11B2B
  8
3
 10
96.813413715602309
 20
152.25117760867599
 30
0.0
 11
96.953133509079123
 21
152.1925854372179
 31
0.0
  0
LINE
  5
11B2C
  8
3
 10
95.740726268909413
 20
152.15652871632071
 30
0.0
 11
95.754247539245924
 21
152.16103580643289
 31
0.0
  0
LINE
  5
11B2D
  8
3
 10
95.64607737655416
 20
152.07990818441411
 30
0.0
 11
95.650584466666288
 21
152.09342945475049
 31
0.0
  0
LINE
  5
11B2E
  8
3
 10
95.650584466666288
 20
152.09342945475049
 30
0.0
 11
95.659598646890657
 21
152.10244363497489
 31
0.0
  0
LINE
  5
11B2F
  8
3
 10
95.659598646890657
 20
152.10244363497489
 30
0.0
 11
95.664105737002757
 21
152.10695072508699
 31
0.0
  0
LINE
  5
11B30
  8
3
 10
95.664105737002757
 20
152.10695072508699
 30
0.0
 11
95.677627007339268
 21
152.1159649053113
 31
0.0
  0
LINE
  5
11B31
  8
3
 10
95.677627007339268
 20
152.1159649053113
 30
0.0
 11
95.686641187563595
 21
152.1249790855357
 31
0.0
  0
LINE
  5
11B32
  8
3
 10
95.686641187563595
 20
152.1249790855357
 30
0.0
 11
95.69565536778785
 21
152.1294861756478
 31
0.0
  0
LINE
  5
11B33
  8
3
 10
95.69565536778785
 20
152.1294861756478
 30
0.0
 11
95.70466954801222
 21
152.13850035587211
 31
0.0
  0
LINE
  5
11B34
  8
3
 10
95.70466954801222
 20
152.13850035587211
 30
0.0
 11
95.718190818348688
 21
152.1430074459843
 31
0.0
  0
LINE
  5
11B35
  8
3
 10
95.718190818348688
 20
152.1430074459843
 30
0.0
 11
95.7317120886851
 21
152.14751453609639
 31
0.0
  0
LINE
  5
11B36
  8
3
 10
95.7317120886851
 20
152.14751453609639
 30
0.0
 11
95.740726268909413
 21
152.15652871632071
 31
0.0
  0
LINE
  5
11B37
  8
3
 10
95.785797170031032
 20
152.17906416688149
 30
0.0
 11
95.808332620591699
 21
152.1925854372179
 31
0.0
  0
LINE
  5
11B38
  8
3
 10
95.754247539245924
 20
152.16103580643289
 30
0.0
 11
95.763261719470194
 21
152.16554289654499
 31
0.0
  0
LINE
  5
11B39
  8
3
 10
95.763261719470194
 20
152.16554289654499
 30
0.0
 11
95.776782989806662
 21
152.17455707676939
 31
0.0
  0
LINE
  5
11B3A
  8
3
 10
95.776782989806662
 20
152.17455707676939
 30
0.0
 11
95.785797170031032
 21
152.17906416688149
 31
0.0
  0
LINE
  5
11B3B
  8
3
 10
96.065236756984604
 20
151.4038446675909
 30
0.0
 11
96.020165855863056
 21
151.34525249613279
 31
0.0
  0
LINE
  5
11B3C
  8
3
 10
96.141857288891245
 20
151.4038446675909
 30
0.0
 11
96.137350198779075
 21
151.4128588478151
 31
0.0
  0
LINE
  5
11B3D
  8
3
 10
96.137350198779075
 20
151.4128588478151
 30
0.0
 11
96.132843108666876
 21
151.42187302803941
 31
0.0
  0
LINE
  5
11B3E
  8
3
 10
96.132843108666876
 20
151.42187302803941
 30
0.0
 11
96.132843108666876
 21
151.4263801181516
 31
0.0
  0
LINE
  5
11B3F
  8
3
 10
96.132843108666876
 20
151.4263801181516
 30
0.0
 11
96.128336018554819
 21
151.4263801181516
 31
0.0
  0
LINE
  5
11B40
  8
3
 10
96.128336018554819
 20
151.4263801181516
 30
0.0
 11
96.119321838330464
 21
151.43088720826381
 31
0.0
  0
LINE
  5
11B41
  8
3
 10
96.119321838330464
 20
151.43088720826381
 30
0.0
 11
96.114814748218222
 21
151.43088720826381
 31
0.0
  0
LINE
  5
11B42
  8
3
 10
96.114814748218222
 20
151.43088720826381
 30
0.0
 11
96.110307658106137
 21
151.43088720826381
 31
0.0
  0
LINE
  5
11B43
  8
3
 10
96.110307658106137
 20
151.43088720826381
 30
0.0
 11
96.105800567993953
 21
151.4263801181516
 31
0.0
  0
LINE
  5
11B44
  8
3
 10
96.105800567993953
 20
151.4263801181516
 30
0.0
 11
96.09678638776964
 21
151.4263801181516
 31
0.0
  0
LINE
  5
11B45
  8
3
 10
96.09678638776964
 20
151.4263801181516
 30
0.0
 11
96.092279297657512
 21
151.42187302803941
 31
0.0
  0
LINE
  5
11B46
  8
3
 10
96.092279297657512
 20
151.42187302803941
 30
0.0
 11
96.087772207545314
 21
151.42187302803941
 31
0.0
  0
LINE
  5
11B47
  8
3
 10
96.087772207545314
 20
151.42187302803941
 30
0.0
 11
96.083265117433143
 21
151.41736593792729
 31
0.0
  0
LINE
  5
11B48
  8
3
 10
96.083265117433143
 20
151.41736593792729
 30
0.0
 11
96.074250937208888
 21
151.4128588478151
 31
0.0
  0
LINE
  5
11B49
  8
3
 10
96.074250937208888
 20
151.4128588478151
 30
0.0
 11
96.069743847096817
 21
151.4128588478151
 31
0.0
  0
LINE
  5
11B4A
  8
3
 10
96.069743847096817
 20
151.4128588478151
 30
0.0
 11
96.065236756984604
 21
151.4038446675909
 31
0.0
  0
LINE
  5
11B4B
  8
3
 10
96.304112532928841
 20
152.32779814058259
 30
0.0
 11
96.380733064835482
 21
152.32779814058259
 31
0.0
  0
LINE
  5
11B4C
  8
3
 10
95.875938972274099
 20
152.22864215811521
 30
0.0
 11
95.943545323956442
 21
152.25568469878809
 31
0.0
  0
LINE
  5
11B4D
  8
3
 10
95.943545323956442
 20
152.25568469878809
 30
0.0
 11
96.015658765750885
 21
152.2782201493489
 31
0.0
  0
LINE
  5
11B4E
  8
3
 10
96.015658765750885
 20
152.2782201493489
 30
0.0
 11
96.083265117433172
 21
152.29624850979749
 31
0.0
  0
LINE
  5
11B4F
  8
3
 10
96.083265117433172
 20
152.29624850979749
 30
0.0
 11
96.159885649339827
 21
152.30976978013399
 31
0.0
  0
LINE
  5
11B50
  8
3
 10
96.159885649339827
 20
152.30976978013399
 30
0.0
 11
96.231999091134327
 21
152.32329105047049
 31
0.0
  0
LINE
  5
11B51
  8
3
 10
96.231999091134327
 20
152.32329105047049
 30
0.0
 11
96.304112532928841
 21
152.32779814058259
 31
0.0
  0
LINE
  5
11B52
  8
3
 10
95.808332620591699
 20
152.1925854372179
 30
0.0
 11
95.875938972274099
 21
152.22864215811521
 31
0.0
  0
LINE
  5
11B53
  8
3
 10
96.380733064835482
 20
152.32779814058259
 30
0.0
 11
96.452846506629996
 21
152.32779814058259
 31
0.0
  0
LINE
  5
11B54
  8
3
 10
96.020165855863056
 20
151.34525249613279
 30
0.0
 11
95.984109134965792
 21
151.27313905433829
 31
0.0
  0
LINE
  5
11B55
  8
3
 10
96.146364379003373
 20
151.2776461444505
 30
0.0
 11
96.141857288891245
 21
151.4038446675909
 31
0.0
  0
LINE
  5
11B56
  8
3
 10
96.682708102349892
 20
151.3722950368057
 30
0.0
 11
96.678201012237622
 21
150.3852423022438
 31
0.0
  0
LINE
  5
11B57
  8
3
 10
96.786371174929471
 20
151.27313905433829
 30
0.0
 11
96.709750643022744
 21
151.38130921703001
 31
0.0
  0
LINE
  5
11B58
  8
3
 10
95.628049016105564
 20
150.22749414831841
 30
0.0
 11
95.587485205096129
 21
150.23200123843051
 31
0.0
  0
LINE
  5
11B59
  8
3
 10
95.587485205096129
 20
150.23200123843051
 30
0.0
 11
95.542414303974667
 21
150.2365083285427
 31
0.0
  0
LINE
  5
11B5A
  8
3
 10
95.542414303974667
 20
150.2365083285427
 30
0.0
 11
95.50185049296519
 21
150.24101541865491
 31
0.0
  0
LINE
  5
11B5B
  8
3
 10
95.50185049296519
 20
150.24101541865491
 30
0.0
 11
95.456779591843627
 21
150.25002959887919
 31
0.0
  0
LINE
  5
11B5C
  8
3
 10
95.456779591843627
 20
150.25002959887919
 30
0.0
 11
95.416215780834335
 21
150.25453668899129
 31
0.0
  0
LINE
  5
11B5D
  8
3
 10
95.416215780834335
 20
150.25453668899129
 30
0.0
 11
95.375651969824872
 21
150.26355086921561
 31
0.0
  0
LINE
  5
11B5E
  8
3
 10
95.375651969824872
 20
150.26355086921561
 30
0.0
 11
95.299031437918217
 21
150.28157922966429
 31
0.0
  0
LINE
  5
11B5F
  8
3
 10
95.299031437918217
 20
150.28157922966429
 30
0.0
 11
95.281003077469578
 21
150.2951005000007
 31
0.0
  0
LINE
  5
11B60
  8
3
 10
95.123254923544195
 20
149.83087021844881
 30
0.0
 11
95.123254923544195
 21
149.83537730856091
 31
0.0
  0
LINE
  5
11B61
  8
3
 10
95.123254923544195
 20
149.83537730856091
 30
0.0
 11
95.127762013656337
 21
149.83988439867309
 31
0.0
  0
LINE
  5
11B62
  8
3
 10
95.127762013656337
 20
149.83988439867309
 30
0.0
 11
95.132269103768479
 21
149.83988439867309
 31
0.0
  0
LINE
  5
11B63
  8
3
 10
95.132269103768479
 20
149.83988439867309
 30
0.0
 11
95.136776193880607
 21
149.83988439867309
 31
0.0
  0
LINE
  5
11B64
  8
3
 10
95.136776193880607
 20
149.83988439867309
 30
0.0
 11
95.141283283992749
 21
149.84439148878519
 31
0.0
  0
LINE
  5
11B65
  8
3
 10
95.141283283992749
 20
149.84439148878519
 30
0.0
 11
95.145790374104976
 21
149.84439148878519
 31
0.0
  0
LINE
  5
11B66
  8
3
 10
95.145790374104976
 20
149.84439148878519
 30
0.0
 11
95.150297464217118
 21
149.8488985788974
 31
0.0
  0
LINE
  5
11B67
  8
3
 10
95.150297464217118
 20
149.8488985788974
 30
0.0
 11
95.154804554329246
 21
149.8488985788974
 31
0.0
  0
LINE
  5
11B68
  8
3
 10
95.154804554329246
 20
149.8488985788974
 30
0.0
 11
95.163818734553615
 21
149.8488985788974
 31
0.0
  0
LINE
  5
11B69
  8
3
 10
95.163818734553615
 20
149.8488985788974
 30
0.0
 11
95.163818734553615
 21
149.8534056690095
 31
0.0
  0
LINE
  5
11B6A
  8
3
 10
95.163818734553615
 20
149.8534056690095
 30
0.0
 11
95.163818734553615
 21
149.85791275912169
 31
0.0
  0
LINE
  5
11B6B
  8
3
 10
95.163818734553615
 20
149.85791275912169
 30
0.0
 11
95.163818734553615
 21
149.86241984923379
 31
0.0
  0
LINE
  5
11B6C
  8
3
 10
95.163818734553615
 20
149.86241984923379
 30
0.0
 11
95.168325824665743
 21
149.86241984923379
 31
0.0
  0
LINE
  5
11B6D
  8
3
 10
95.168325824665743
 20
149.86241984923379
 30
0.0
 11
95.168325824665743
 21
149.866926939346
 31
0.0
  0
LINE
  5
11B6E
  8
3
 10
95.168325824665743
 20
149.866926939346
 30
0.0
 11
95.168325824665743
 21
149.87143402945819
 31
0.0
  0
LINE
  5
11B6F
  8
3
 10
95.168325824665743
 20
149.87143402945819
 30
0.0
 11
95.168325824665743
 21
149.87594111957031
 31
0.0
  0
LINE
  5
11B70
  8
3
 10
95.168325824665743
 20
149.87594111957031
 30
0.0
 11
95.172832914777842
 21
149.88044820968241
 31
0.0
  0
LINE
  5
11B71
  8
3
 10
95.172832914777842
 20
149.88044820968241
 30
0.0
 11
95.353116519264091
 21
149.96608292181341
 31
0.0
  0
LINE
  5
11B72
  8
3
 10
95.353116519264091
 20
149.96608292181341
 30
0.0
 11
95.528893033638127
 21
150.0336892734957
 31
0.0
  0
LINE
  5
11B73
  8
3
 10
95.262974717021024
 20
150.30411468022501
 30
0.0
 11
95.249453446684498
 21
150.31312886044941
 31
0.0
  0
LINE
  5
11B74
  8
3
 10
95.249453446684498
 20
150.31312886044941
 30
0.0
 11
95.235932176348086
 21
150.32665013078579
 31
0.0
  0
LINE
  5
11B75
  8
3
 10
95.235932176348086
 20
150.32665013078579
 30
0.0
 11
95.222410906011561
 21
150.34017140112221
 31
0.0
  0
LINE
  5
11B76
  8
3
 10
95.222410906011561
 20
150.34017140112221
 30
0.0
 11
95.208889635675135
 21
150.3536926714587
 31
0.0
  0
LINE
  5
11B77
  8
3
 10
95.208889635675135
 20
150.3536926714587
 30
0.0
 11
95.195368365338624
 21
150.3672139417952
 31
0.0
  0
LINE
  5
11B78
  8
3
 10
95.195368365338624
 20
150.3672139417952
 30
0.0
 11
95.186354185114311
 21
150.3852423022438
 31
0.0
  0
LINE
  5
11B79
  8
3
 10
95.186354185114311
 20
150.3852423022438
 30
0.0
 11
95.177340004890056
 21
150.39876357258029
 31
0.0
  0
LINE
  5
11B7A
  8
3
 10
95.177340004890056
 20
150.39876357258029
 30
0.0
 11
95.168325824665743
 21
150.41679193302889
 31
0.0
  0
LINE
  5
11B7B
  8
3
 10
95.168325824665743
 20
150.41679193302889
 30
0.0
 11
95.159311644441431
 21
150.43482029347749
 31
0.0
  0
LINE
  5
11B7C
  8
3
 10
95.159311644441431
 20
150.43482029347749
 30
0.0
 11
95.150297464217118
 21
150.45284865392611
 31
0.0
  0
LINE
  5
11B7D
  8
3
 10
95.281003077469578
 20
150.2951005000007
 30
0.0
 11
95.262974717021024
 21
150.30411468022501
 31
0.0
  0
LINE
  5
11B7E
  8
3
 10
95.136776193880607
 20
150.4889053748233
 30
0.0
 11
95.132269103768479
 21
150.5204550056084
 31
0.0
  0
LINE
  5
11B7F
  8
3
 10
95.123254923544195
 20
150.76383787166489
 30
0.0
 11
95.118747833432025
 21
150.84496549368359
 31
0.0
  0
LINE
  5
11B80
  8
3
 10
95.118747833432025
 20
150.84496549368359
 30
0.0
 11
95.118747833432025
 21
150.9215860255903
 31
0.0
  0
LINE
  5
11B81
  8
3
 10
95.118747833432025
 20
150.9215860255903
 30
0.0
 11
95.123254923544195
 21
151.002713647609
 31
0.0
  0
LINE
  5
11B82
  8
3
 10
95.127762013656337
 20
151.08384126962781
 30
0.0
 11
95.132269103768479
 21
151.16496889164671
 31
0.0
  0
LINE
  5
11B83
  8
3
 10
95.141283283992749
 20
151.24158942355331
 30
0.0
 11
95.154804554329246
 21
151.31820995545991
 31
0.0
  0
LINE
  5
11B84
  8
3
 10
95.132269103768479
 20
151.16496889164671
 30
0.0
 11
95.141283283992749
 21
151.24158942355331
 31
0.0
  0
LINE
  5
11B85
  8
3
 10
95.123254923544195
 20
151.002713647609
 30
0.0
 11
95.127762013656337
 21
151.08384126962781
 31
0.0
  0
LINE
  5
11B86
  8
3
 10
95.127762013656337
 20
150.60158262762721
 30
0.0
 11
95.123254923544195
 21
150.68271024964611
 31
0.0
  0
LINE
  5
11B87
  8
3
 10
95.123254923544195
 20
150.68271024964611
 30
0.0
 11
95.123254923544195
 21
150.76383787166489
 31
0.0
  0
LINE
  5
11B88
  8
3
 10
95.132269103768479
 20
150.5204550056084
 30
0.0
 11
95.127762013656337
 21
150.60158262762721
 31
0.0
  0
LINE
  5
11B89
  8
3
 10
95.145790374104976
 20
150.47087701437479
 30
0.0
 11
95.136776193880607
 21
150.4889053748233
 31
0.0
  0
LINE
  5
11B8A
  8
3
 10
95.150297464217118
 20
150.45284865392611
 30
0.0
 11
95.145790374104976
 21
150.47087701437479
 31
0.0
  0
LINE
  5
11B8B
  8
3
 10
95.353116519264091
 20
151.79145441723611
 30
0.0
 11
95.366637789600446
 21
151.81398986779701
 31
0.0
  0
LINE
  5
11B8C
  8
3
 10
95.407201600609966
 20
151.8635678590307
 30
0.0
 11
95.425229961058591
 21
151.88610330959139
 31
0.0
  0
LINE
  5
11B8D
  8
3
 10
95.425229961058591
 20
151.88610330959139
 30
0.0
 11
95.443258321507088
 21
151.9086387601522
 31
0.0
  0
LINE
  5
11B8E
  8
3
 10
95.443258321507088
 20
151.9086387601522
 30
0.0
 11
95.465793772067954
 21
151.93117421071301
 31
0.0
  0
LINE
  5
11B8F
  8
3
 10
95.465793772067954
 20
151.93117421071301
 30
0.0
 11
95.483822132516536
 21
151.95370966127379
 31
0.0
  0
LINE
  5
11B90
  8
3
 10
95.483822132516536
 20
151.95370966127379
 30
0.0
 11
95.506357583077346
 21
151.9762451118346
 31
0.0
  0
LINE
  5
11B91
  8
3
 10
95.506357583077346
 20
151.9762451118346
 30
0.0
 11
95.528893033638127
 21
151.9987805623953
 31
0.0
  0
LINE
  5
11B92
  8
3
 10
95.528893033638127
 20
151.9987805623953
 30
0.0
 11
95.551428484198894
 21
152.01680892284389
 31
0.0
  0
LINE
  5
11B93
  8
3
 10
95.551428484198894
 20
152.01680892284389
 30
0.0
 11
95.573963934759632
 21
152.0348372832926
 31
0.0
  0
LINE
  5
11B94
  8
3
 10
95.573963934759632
 20
152.0348372832926
 30
0.0
 11
95.59649938532047
 21
152.05286564374109
 31
0.0
  0
LINE
  5
11B95
  8
3
 10
95.366637789600446
 20
151.81398986779701
 30
0.0
 11
95.384666150049185
 21
151.84103240846991
 31
0.0
  0
LINE
  5
11B96
  8
3
 10
95.384666150049185
 20
151.84103240846991
 30
0.0
 11
95.407201600609966
 21
151.8635678590307
 31
0.0
  0
LINE
  5
11B97
  8
3
 10
95.217903815899419
 20
151.54356446106769
 30
0.0
 11
95.244946356572342
 21
151.61117081275
 31
0.0
  0
LINE
  5
11B98
  8
3
 10
95.172832914777842
 20
151.39483048736651
 30
0.0
 11
95.190861275226439
 21
151.47145101927319
 31
0.0
  0
LINE
  5
11B99
  8
3
 10
95.190861275226439
 20
151.47145101927319
 30
0.0
 11
95.217903815899419
 21
151.54356446106769
 31
0.0
  0
LINE
  5
11B9A
  8
3
 10
95.321566888478998
 20
151.74187642600251
 30
0.0
 11
95.335088158815438
 21
151.76891896667539
 31
0.0
  0
LINE
  5
11B9B
  8
3
 10
95.335088158815438
 20
151.76891896667539
 30
0.0
 11
95.353116519264091
 21
151.79145441723611
 31
0.0
  0
LINE
  5
11B9C
  8
3
 10
95.244946356572342
 20
151.61117081275
 30
0.0
 11
95.321566888478998
 21
151.74187642600251
 31
0.0
  0
LINE
  5
11B9D
  8
3
 10
95.154804554329246
 20
151.31820995545991
 30
0.0
 11
95.172832914777842
 21
151.39483048736651
 31
0.0
  0
LINE
  5
11B9E
  8
3
 10
95.59649938532047
 20
152.05286564374109
 30
0.0
 11
95.64607737655416
 21
152.07990818441411
 31
0.0
  0
LINE
  5
11B9F
  8
3
 10
95.673119917227041
 20
150.2229870582062
 30
0.0
 11
95.628049016105564
 21
150.22749414831841
 31
0.0
  0
LINE
  5
11BA0
  8
3
 10
95.528893033638127
 20
150.0336892734957
 30
0.0
 11
95.700162457900007
 21
150.08326726472939
 31
0.0
  0
LINE
  5
11BA1
  8
3
 10
95.123254923544195
 20
148.84832457399889
 30
0.0
 11
95.123254923544195
 21
149.83087021844881
 31
0.0
  0
LINE
  5
11BA2
  8
3
 10
97.128910023453145
 20
152.0754010943019
 30
0.0
 11
97.160459654238295
 21
152.05737273385341
 31
0.0
  0
LINE
  5
11BA3
  8
3
 10
97.146938383901784
 20
150.1643948867482
 30
0.0
 11
97.363278709285254
 21
150.15988779663601
 31
0.0
  0
LINE
  5
11BA4
  8
3
 10
97.300179447715124
 20
149.35762575667249
 30
0.0
 11
97.115388753116633
 21
149.35311866656031
 31
0.0
  0
LINE
  5
11BA5
  8
3
 10
97.106374572892435
 20
148.98353727736361
 30
0.0
 11
97.155952564126096
 21
148.9384663762421
 31
0.0
  0
LINE
  5
11BA6
  8
3
 10
97.155952564126096
 20
147.19422250283799
 30
0.0
 11
97.106374572892435
 21
147.19422250283799
 31
0.0
  0
LINE
  5
11BA7
  8
3
 10
97.151445474013926
 20
146.89224746532369
 30
0.0
 11
97.192009285023289
 21
146.8652049246507
 31
0.0
  0
LINE
  5
11BA8
  8
3
 10
95.488329222628778
 20
146.09449251547221
 30
0.0
 11
95.452272501731528
 21
146.11702796603299
 31
0.0
  0
LINE
  5
11BA9
  8
3
 10
96.768342814480803
 20
146.0989996055844
 30
0.0
 11
96.768342814480803
 21
146.12153505614521
 31
0.0
  0
LINE
  5
11BAA
  8
3
 10
96.46186068685418
 20
146.10801378580871
 30
0.0
 11
96.439325236293456
 21
146.08547833524801
 31
0.0
  0
POINT
  5
11BAB
  8
3
 10
96.416789785732746
 20
152.32779814058259
 30
0.0
  0
POINT
  5
11BAC
  8
3
 10
95.073676932310462
 20
143.33164627672119
 30
0.0
  0
POINT
  5
11BAD
  8
3
 10
95.073676932310462
 20
143.33164627672119
 30
0.0
  0
LINE
  5
11BAE
  8
3
 10
97.552576493995758
 20
145.2201170337141
 30
0.0
 11
97.552576493995758
 21
145.18406031281691
 31
0.0
  0
LINE
  5
11BAF
  8
3
 10
97.552576493995758
 20
145.18406031281691
 30
0.0
 11
97.552576493995758
 21
145.1434965018075
 31
0.0
  0
LINE
  5
11BB0
  8
3
 10
97.552576493995758
 20
145.10743978091031
 30
0.0
 11
97.552576493995758
 21
145.07138306001301
 31
0.0
  0
LINE
  5
11BB1
  8
3
 10
97.56609776433217
 20
144.84152146429309
 30
0.0
 11
97.561590674220042
 21
144.7558867521621
 31
0.0
  0
LINE
  5
11BB2
  8
3
 10
97.552576493995758
 20
144.99476252810641
 30
0.0
 11
97.552576493995758
 21
144.954198717097
 31
0.0
  0
LINE
  5
11BB3
  8
3
 10
97.552576493995758
 20
145.0308192490036
 30
0.0
 11
97.552576493995758
 21
144.99476252810641
 31
0.0
  0
LINE
  5
11BB4
  8
3
 10
97.552576493995758
 20
145.07138306001301
 30
0.0
 11
97.552576493995758
 21
145.0308192490036
 31
0.0
  0
LINE
  5
11BB5
  8
3
 10
97.552576493995758
 20
144.954198717097
 30
0.0
 11
97.557083584107843
 21
144.91814199619981
 31
0.0
  0
LINE
  5
11BB6
  8
3
 10
97.557083584107843
 20
144.91814199619981
 30
0.0
 11
97.56609776433217
 21
144.84152146429309
 31
0.0
  0
LINE
  5
11BB7
  8
3
 10
97.552576493995758
 20
144.66574494991909
 30
0.0
 11
97.53905522365929
 21
144.58011023778809
 31
0.0
  0
LINE
  5
11BB8
  8
3
 10
97.561590674220042
 20
144.7558867521621
 30
0.0
 11
97.552576493995758
 21
144.66574494991909
 31
0.0
  0
LINE
  5
11BB9
  8
3
 10
97.53905522365929
 20
144.58011023778809
 30
0.0
 11
97.521026863210665
 21
144.49447552565721
 31
0.0
  0
LINE
  5
11BBA
  8
3
 10
97.552576493995758
 20
145.1434965018075
 30
0.0
 11
97.552576493995758
 21
145.10743978091031
 31
0.0
  0
LINE
  5
11BBB
  8
3
 10
97.53905522365929
 20
145.40490772831251
 30
0.0
 11
97.543562313771446
 21
145.36885100741529
 31
0.0
  0
LINE
  5
11BBC
  8
3
 10
97.534548133547204
 20
145.4409644492097
 30
0.0
 11
97.53905522365929
 21
145.40490772831251
 31
0.0
  0
LINE
  5
11BBD
  8
3
 10
97.548069403883545
 20
145.29673756562079
 30
0.0
 11
97.548069403883545
 21
145.25617375461141
 31
0.0
  0
LINE
  5
11BBE
  8
3
 10
97.543562313771446
 20
145.36885100741529
 30
0.0
 11
97.548069403883545
 21
145.33279428651801
 31
0.0
  0
LINE
  5
11BBF
  8
3
 10
97.548069403883545
 20
145.33279428651801
 30
0.0
 11
97.548069403883545
 21
145.29673756562079
 31
0.0
  0
LINE
  5
11BC0
  8
3
 10
97.56609776433217
 20
145.97280108244411
 30
0.0
 11
97.56609776433217
 21
145.94125145165901
 31
0.0
  0
LINE
  5
11BC1
  8
3
 10
97.56609776433217
 20
146.09449251547221
 30
0.0
 11
97.56609776433217
 21
146.06294288468709
 31
0.0
  0
LINE
  5
11BC2
  8
3
 10
97.56609776433217
 20
146.06294288468709
 30
0.0
 11
97.56609776433217
 21
146.03590034401421
 31
0.0
  0
LINE
  5
11BC3
  8
3
 10
97.56609776433217
 20
146.03590034401421
 30
0.0
 11
97.56609776433217
 21
146.00435071322909
 31
0.0
  0
LINE
  5
11BC4
  8
3
 10
97.56609776433217
 20
146.00435071322909
 30
0.0
 11
97.56609776433217
 21
145.97280108244411
 31
0.0
  0
LINE
  5
11BC5
  8
3
 10
97.56609776433217
 20
145.8511096494158
 30
0.0
 11
97.56609776433217
 21
145.7880103878457
 31
0.0
  0
LINE
  5
11BC6
  8
3
 10
97.56609776433217
 20
145.94125145165901
 30
0.0
 11
97.56609776433217
 21
145.91420891098599
 31
0.0
  0
LINE
  5
11BC7
  8
3
 10
97.56609776433217
 20
145.91420891098599
 30
0.0
 11
97.56609776433217
 21
145.8826592802009
 31
0.0
  0
LINE
  5
11BC8
  8
3
 10
97.56609776433217
 20
145.8826592802009
 30
0.0
 11
97.56609776433217
 21
145.8511096494158
 31
0.0
  0
LINE
  5
11BC9
  8
3
 10
97.548069403883545
 20
145.25617375461141
 30
0.0
 11
97.552576493995758
 21
145.2201170337141
 31
0.0
  0
LINE
  5
11BCA
  8
3
 10
97.56609776433217
 20
146.2206910386125
 30
0.0
 11
97.56609776433217
 21
146.18914140782749
 31
0.0
  0
LINE
  5
11BCB
  8
3
 10
97.56609776433217
 20
146.27928321007059
 30
0.0
 11
97.56609776433217
 21
146.25224066939759
 31
0.0
  0
LINE
  5
11BCC
  8
3
 10
97.56609776433217
 20
146.25224066939759
 30
0.0
 11
97.56609776433217
 21
146.2206910386125
 31
0.0
  0
LINE
  5
11BCD
  8
3
 10
97.525533953322835
 20
146.43252427388381
 30
0.0
 11
97.53905522365929
 21
146.38294628265021
 31
0.0
  0
LINE
  5
11BCE
  8
3
 10
97.53905522365929
 20
146.38294628265021
 30
0.0
 11
97.56609776433217
 21
146.27928321007059
 31
0.0
  0
LINE
  5
11BCF
  8
3
 10
97.56609776433217
 20
146.18914140782749
 30
0.0
 11
97.56609776433217
 21
146.1575917770424
 31
0.0
  0
LINE
  5
11BD0
  8
3
 10
97.56609776433217
 20
146.1575917770424
 30
0.0
 11
97.56609776433217
 21
146.1260421462573
 31
0.0
  0
LINE
  5
11BD1
  8
3
 10
97.575111944556596
 20
147.20323668306241
 30
0.0
 11
97.525533953322835
 21
147.1987295929502
 31
0.0
  0
LINE
  5
11BD2
  8
3
 10
98.220056444299715
 20
149.3666399368968
 30
0.0
 11
98.030328045884147
 21
149.36213284678459
 31
0.0
  0
LINE
  5
11BD3
  8
3
 10
98.373297508112955
 20
149.3666399368968
 30
0.0
 11
98.220056444299715
 21
149.3666399368968
 31
0.0
  0
LINE
  5
11BD4
  8
3
 10
97.570604854444341
 20
148.08662634504469
 30
0.0
 11
97.570604854444341
 21
148.08211925493259
 31
0.0
  0
LINE
  5
11BD5
  8
3
 10
97.570604854444341
 20
148.08211925493259
 30
0.0
 11
97.570604854444341
 21
148.07761216482041
 31
0.0
  0
LINE
  5
11BD6
  8
3
 10
97.570604854444341
 20
148.07761216482041
 30
0.0
 11
97.575111944556596
 21
148.0685979845961
 31
0.0
  0
LINE
  5
11BD7
  8
3
 10
97.575111944556596
 20
148.0685979845961
 30
0.0
 11
97.575111944556596
 21
148.0685979845961
 31
0.0
  0
LINE
  5
11BD8
  8
3
 10
97.570604854444341
 20
148.09113343515691
 30
0.0
 11
97.570604854444341
 21
148.08662634504469
 31
0.0
  0
LINE
  5
11BD9
  8
3
 10
97.56609776433217
 20
148.10014761538119
 30
0.0
 11
97.56609776433217
 21
148.09564052526909
 31
0.0
  0
LINE
  5
11BDA
  8
3
 10
97.56609776433217
 20
148.09564052526909
 30
0.0
 11
97.56609776433217
 21
148.09113343515691
 31
0.0
  0
LINE
  5
11BDB
  8
3
 10
97.56609776433217
 20
148.09113343515691
 30
0.0
 11
97.570604854444341
 21
148.09113343515691
 31
0.0
  0
LINE
  5
11BDC
  8
3
 10
97.561590674220042
 20
148.1091617956055
 30
0.0
 11
97.561590674220042
 21
148.1046547054934
 31
0.0
  0
LINE
  5
11BDD
  8
3
 10
97.561590674220042
 20
148.1046547054934
 30
0.0
 11
97.56609776433217
 21
148.10014761538119
 31
0.0
  0
LINE
  5
11BDE
  8
3
 10
97.561590674220042
 20
148.1362043362785
 30
0.0
 11
97.561590674220042
 21
148.13169724616631
 31
0.0
  0
LINE
  5
11BDF
  8
3
 10
97.561590674220042
 20
148.13169724616631
 30
0.0
 11
97.561590674220042
 21
148.1271901560541
 31
0.0
  0
LINE
  5
11BE0
  8
3
 10
97.561590674220042
 20
148.1271901560541
 30
0.0
 11
97.561590674220042
 21
148.122683065942
 31
0.0
  0
LINE
  5
11BE1
  8
3
 10
97.561590674220042
 20
148.122683065942
 30
0.0
 11
97.561590674220042
 21
148.11366888571769
 31
0.0
  0
LINE
  5
11BE2
  8
3
 10
97.534548133547204
 20
148.27592412975531
 30
0.0
 11
97.56609776433217
 21
148.1407114263906
 31
0.0
  0
LINE
  5
11BE3
  8
3
 10
97.56609776433217
 20
148.1407114263906
 30
0.0
 11
97.561590674220042
 21
148.1362043362785
 31
0.0
  0
LINE
  5
11BE4
  8
3
 10
97.561590674220042
 20
148.11366888571769
 30
0.0
 11
97.561590674220042
 21
148.1091617956055
 31
0.0
  0
LINE
  5
11BE5
  8
3
 10
97.859058621622268
 20
149.36213284678459
 30
0.0
 11
97.674267927023934
 21
149.36213284678459
 31
0.0
  0
LINE
  5
11BE6
  8
3
 10
98.030328045884147
 20
149.36213284678459
 30
0.0
 11
97.859058621622268
 21
149.36213284678459
 31
0.0
  0
LINE
  5
11BE7
  8
3
 10
97.575111944556596
 20
148.0685979845961
 30
0.0
 11
97.575111944556596
 21
147.20323668306241
 31
0.0
  0
LINE
  5
11BE8
  8
3
 10
97.629197025902315
 20
151.16496889164659
 30
0.0
 11
97.633704116014513
 21
151.11989799052509
 31
0.0
  0
LINE
  5
11BE9
  8
3
 10
97.611168665453775
 20
151.31820995545991
 30
0.0
 11
97.611168665453775
 21
151.2956745048991
 31
0.0
  0
LINE
  5
11BEA
  8
3
 10
97.611168665453775
 20
151.2956745048991
 30
0.0
 11
97.615675755565945
 21
151.27313905433829
 31
0.0
  0
LINE
  5
11BEB
  8
3
 10
97.615675755565945
 20
151.27313905433829
 30
0.0
 11
97.620182845678102
 21
151.25060360377759
 31
0.0
  0
LINE
  5
11BEC
  8
3
 10
97.620182845678102
 20
151.25060360377759
 30
0.0
 11
97.620182845678102
 21
151.22806815321681
 31
0.0
  0
LINE
  5
11BED
  8
3
 10
97.620182845678102
 20
151.22806815321681
 30
0.0
 11
97.624689935790201
 21
151.21003979276821
 31
0.0
  0
LINE
  5
11BEE
  8
3
 10
97.624689935790201
 20
151.21003979276821
 30
0.0
 11
97.629197025902315
 21
151.1875043422074
 31
0.0
  0
LINE
  5
11BEF
  8
3
 10
97.629197025902315
 20
151.1875043422074
 30
0.0
 11
97.629197025902315
 21
151.16496889164659
 31
0.0
  0
LINE
  5
11BF0
  8
3
 10
97.633704116014513
 20
151.11989799052509
 30
0.0
 11
97.633704116014513
 21
151.11989799052509
 31
0.0
  0
LINE
  5
11BF1
  8
3
 10
97.633704116014513
 20
151.11989799052509
 30
0.0
 11
97.638211206126726
 21
150.28608631977639
 31
0.0
  0
LINE
  5
11BF2
  8
3
 10
97.521026863210665
 20
151.59314245230141
 30
0.0
 11
97.525533953322835
 21
151.57962118196491
 31
0.0
  0
LINE
  5
11BF3
  8
3
 10
97.525533953322835
 20
151.57962118196491
 30
0.0
 11
97.530041043434977
 21
151.56159282151631
 31
0.0
  0
LINE
  5
11BF4
  8
3
 10
97.530041043434977
 20
151.56159282151631
 30
0.0
 11
97.53905522365929
 21
151.54807155117979
 31
0.0
  0
LINE
  5
11BF5
  8
3
 10
97.53905522365929
 20
151.54807155117979
 30
0.0
 11
97.543562313771446
 21
151.53455028084329
 31
0.0
  0
LINE
  5
11BF6
  8
3
 10
97.543562313771446
 20
151.53455028084329
 30
0.0
 11
97.552576493995758
 21
151.52102901050691
 31
0.0
  0
LINE
  5
11BF7
  8
3
 10
97.552576493995758
 20
151.52102901050691
 30
0.0
 11
97.561590674220042
 21
151.50750774017041
 31
0.0
  0
LINE
  5
11BF8
  8
3
 10
97.561590674220042
 20
151.50750774017041
 30
0.0
 11
97.579619034668667
 21
151.4804651994975
 31
0.0
  0
LINE
  5
11BF9
  8
3
 10
97.579619034668667
 20
151.4804651994975
 30
0.0
 11
97.584126124780852
 21
151.45792974893669
 31
0.0
  0
LINE
  5
11BFA
  8
3
 10
97.584126124780852
 20
151.45792974893669
 30
0.0
 11
97.588633214892994
 21
151.43539429837591
 31
0.0
  0
LINE
  5
11BFB
  8
3
 10
97.588633214892994
 20
151.43539429837591
 30
0.0
 11
97.593140305005122
 21
151.4128588478151
 31
0.0
  0
LINE
  5
11BFC
  8
3
 10
97.593140305005122
 20
151.4128588478151
 30
0.0
 11
97.597647395117306
 21
151.39032339725441
 31
0.0
  0
LINE
  5
11BFD
  8
3
 10
97.597647395117306
 20
151.39032339725441
 30
0.0
 11
97.602154485229491
 21
151.3677879466936
 31
0.0
  0
LINE
  5
11BFE
  8
3
 10
97.602154485229491
 20
151.3677879466936
 30
0.0
 11
97.606661575341633
 21
151.34074540602069
 31
0.0
  0
LINE
  5
11BFF
  8
3
 10
97.606661575341633
 20
151.34074540602069
 30
0.0
 11
97.611168665453775
 21
151.31820995545991
 31
0.0
  0
LINE
  5
11C00
  8
3
 10
98.373297508112955
 20
149.3666399368968
 30
0.0
 11
98.373297508112955
 21
150.1722170569119
 31
0.0
  0
LINE
  5
11C01
  8
3
 10
97.56609776433217
 20
146.1260421462573
 30
0.0
 11
97.56609776433217
 21
146.09449251547221
 31
0.0
  0
POINT
  5
11C02
  8
0
 10
93.051142916361897
 20
168.0797222086519
 30
0.0
  0
ARC
  5
11C03
  8
0
 10
92.254461870957897
 20
167.0291564239246
 30
0.0
 40
1.0787333051505801
 50
103.1221338919316
 51
181.74084236471739
  0
ARC
  5
11C04
  8
0
 10
117.008950707948
 20
146.93388896490191
 30
0.0
 40
0.8333332499999999
 50
90.0
 51
180.0
  0
LINE
  5
11C05
  8
0
 10
116.17561745794799
 20
160.80888646629089
 30
0.0
 11
116.17561745794799
 21
154.22555490240191
 31
0.0
  0
LINE
  5
11C06
  8
0
 10
115.23894734683689
 20
154.22555490240191
 30
0.0
 11
115.23894734683689
 21
160.80888646629089
 31
0.0
  0
ARC
  5
11C07
  8
0
 10
117.008950707948
 20
155.183888139902
 30
0.0
 40
0.8333332499999999
 50
180.0
 51
270.0
  0
ARC
  5
11C08
  8
0
 10
117.008950707948
 20
159.85055433990189
 30
0.0
 40
0.8333332499999999
 50
90.0
 51
180.0
  0
ARC
  5
11C09
  8
0
 10
117.7574456532176
 20
167.0100699747012
 30
0.0
 40
1.1074965262286891
 50
105.021425555222
 51
167.67959494452501
  0
LINE
  5
11C0A
  8
0
 10
115.23894734683689
 20
167.2463858225409
 30
0.0
 11
115.23894734683689
 21
168.0797222086519
 31
0.0
  0
LINE
  5
11C0B
  8
1
 10
120.67561745794789
 20
170.8297190975409
 30
0.0
 11
120.67561745794789
 21
124.8297253197629
 31
0.0
  0
LINE
  5
11C0C
  8
0
 10
125.17561745794789
 20
166.99638584754089
 30
0.0
 11
125.17561745794789
 21
128.41305545865191
 31
0.0
  0
ARC
  5
11C0D
  8
0
 10
124.3422842079479
 20
128.41305545865191
 30
0.0
 40
0.8333332499999999
 50
270.0
 51
0.0
  0
ARC
  5
11C0E
  8
0
 10
124.3422842079479
 20
134.01722470101291
 30
0.0
 40
0.8333332499999999
 50
0.0
 51
90.0
  0
ARC
  5
11C0F
  8
0
 10
124.3422842079479
 20
142.2672227649019
 30
0.0
 40
0.8333332499999999
 50
270.0
 51
0.0
  0
LINE
  5
11C10
  8
0
 10
124.73910750159889
 20
140.43388961490189
 30
0.0
 11
124.73910750159889
 21
135.85055785101289
 31
0.0
  0
ARC
  5
11C11
  8
0
 10
123.9057742515989
 20
135.80889118851289
 30
0.0
 40
0.8333332499999999
 50
270.0
 51
0.0
  0
ARC
  5
11C12
  8
0
 10
123.9057742515989
 20
140.47555627740201
 30
0.0
 40
0.8333332499999999
 50
359.99999000000059
 51
90.0
  0
LINE
  5
11C13
  8
0
 10
124.73910750159889
 20
166.41305257254089
 30
0.0
 11
124.73910750159889
 21
161.6838863787909
 31
0.0
  0
ARC
  5
11C14
  8
0
 10
124.3422842079479
 20
146.93388896490191
 30
0.0
 40
0.8333332499999999
 50
0.0
 51
90.0
  0
ARC
  5
11C15
  8
0
 10
124.3422842079479
 20
155.183888139902
 30
0.0
 40
0.8333332499999999
 50
270.0
 51
0.0
  0
ARC
  5
11C16
  8
0
 10
124.3422842079479
 20
159.85055433990189
 30
0.0
 40
0.8333332499999999
 50
0.0
 51
90.0
  0
ARC
  5
11C17
  8
0
 10
123.9057742515989
 20
153.3922216524019
 30
0.0
 40
0.8333332499999999
 50
359.99999000000059
 51
90.0
  0
LINE
  5
11C18
  8
0
 10
124.73910750159889
 20
153.35055498990189
 30
0.0
 11
124.73910750159889
 21
148.7672221149019
 31
0.0
  0
ARC
  5
11C19
  8
0
 10
123.9057742515989
 20
148.7672221149019
 30
0.0
 40
0.8333332499999999
 50
270.0
 51
0.0
  0
ARC
  5
11C1A
  8
0
 10
123.9057742515989
 20
161.6838863787909
 30
0.0
 40
0.8333332499999999
 50
270.0
 51
0.0
  0
ARC
  5
11C1B
  8
0
 10
124.0973820323731
 20
167.0291564239246
 30
0.0
 40
1.0787333051505761
 50
358.25915763528252
 51
76.877866108068361
  0
ARC
  5
11C1C
  8
0
 10
123.9057742515989
 20
166.41305257254089
 30
0.0
 40
0.8333332499999999
 50
0.0
 51
90.0
  0
ARC
  5
11C1D
  8
0
 10
213.3428558734339
 20
97.333061430873983
 30
0.0
 40
0.8
 50
2.0275539340488891
 51
90.0
1001
GENIUS_GENODEF_13
1002
{
1000
HIER
1070
     0
1002
}
1002
{
1000
MANEDIT
1070
     0
1002
}
1002
{
1000
NOSEL
1070
     0
1002
}
1002
{
1000
BEHIND
1070
     0
1002
}
1002
{
1000
REACTOR
1002
}
1001
GENIUS_GENOBJ-N-FIL_13
1002
{
1000
OWNER
1000
GEN
1002
}
  0
LINE
  5
11C1E
  8
0
  6
CONTINUOUS
 62
     7
 10
209.25622578826301
 20
99.882308068493472
 30
0.0
 11
214.0724739789016
 21
99.119489294355134
 31
0.0
  0
ARC
  5
11C1F
  8
0
  6
CONTINUOUS
 62
     7
 10
209.88540075961751
 20
103.8391988345265
 30
0.0
 40
4.0066002644257832
 50
180.08776704456989
 51
260.9651830370355
  0
ARC
  5
11C20
  8
0
 10
206.42107142341399
 20
97.333061430873983
 30
0.0
 40
0.8
 50
90.0
 51
177.97244606595109
1001
GENIUS_GENODEF_13
1002
{
1000
HIER
1070
     0
1002
}
1002
{
1000
MANEDIT
1070
     0
1002
}
1002
{
1000
NOSEL
1070
     0
1002
}
1002
{
1000
BEHIND
1070
     0
1002
}
1002
{
1000
REACTOR
1002
}
1001
GENIUS_GENOBJ-N-FIL_13
1002
{
1000
OWNER
1000
GEN
1002
}
  0
LINE
  5
11C21
  8
0
 10
213.3428558734339
 20
98.133061430873951
 30
0.0
 11
206.42107142341399
 21
98.133061430873965
 31
0.0
1001
GENIUS_GENOREF_13
1005
0
  0
CIRCLE
  5
11C45
  8
0
 10
209.88196364842389
 20
103.833061430874
 30
0.0
 40
2.0
  0
LINE
  5
11C47
  8
0
 10
205.38196364842389
 20
91.333061430874039
 30
0.0
 11
205.88511960895659
 21
103.9919252850823
 31
0.0
  0
LINE
  5
11C48
  8
0
 10
213.87880768789131
 20
103.9919252850823
 30
0.0
 11
214.381963648424
 21
91.333061430874039
 31
0.0
  0
ARC
  5
11C49
  8
0
 10
209.88196364842389
 20
103.833061430874
 30
0.0
 40
3.9999999999999991
 50
2.2761557437972542
 51
177.7238442562043
  0
CIRCLE
  5
11C4A
  8
0
 10
209.88196364842389
 20
103.833061430874
 30
0.0
 40
2.0
  0
LINE
  5
11C4B
  8
1
 10
215.89291251855431
 20
103.833061430874
 30
0.0
 11
203.87101477829361
 21
103.833061430874
 31
0.0
  0
LINE
  5
11C4C
  8
1
 10
209.88196364842389
 20
88.85157110229531
 30
0.0
 11
209.88196364842389
 21
109.8440103010044
 31
0.0
  0
LINE
  5
11C4D
  8
0
 10
239.381963648424
 20
91.333061430874039
 30
0.0
 11
219.1519636484239
 21
91.333061430874039
 31
0.0
  0
LINE
  5
11C4E
  8
0
 10
239.16089091199379
 20
97.663756305236106
 30
0.0
 11
239.381963648424
 21
91.333061430874039
 31
0.0
  0
ARC
  5
11C4F
  8
0
 10
236.16271843093651
 20
97.559057815128597
 30
0.0
 40
2.9999999999999751
 50
2.000000000000385
 51
62.00000000000032
  0
LINE
  5
11C50
  8
0
 10
223.7256143401797
 20
107.5696935148066
 30
0.0
 11
237.57113311929419
 21
100.2079005937053
 31
0.0
  0
ARC
  5
11C51
  8
0
 10
222.66930332391149
 20
105.5830614308741
 30
0.0
 40
2.2499999999999458
 50
61.999999999998877
 51
90.0
  0
LINE
  5
11C52
  8
0
 10
209.88196364842389
 20
107.833061430874
 30
0.0
 11
222.66930332391149
 21
107.833061430874
 31
0.0
  0
ARC
  5
11C53
  8
0
 10
222.05521102654151
 20
106.8330614308739
 30
0.0
 40
1.0000000000000959
 50
90.0
 51
125.99999999999849
  0
LINE
  5
11C54
  8
0
 10
216.2247636484239
 20
103.833061430874
 30
0.0
 11
221.46742577424899
 21
107.642078425249
 31
0.0
  0
LINE
  5
11C55
  8
0
 10
218.87905578224661
 20
96.540453728560266
 30
0.0
 11
216.2247636484239
 21
103.833061430874
 31
0.0
  0
LINE
  5
11C56
  8
0
 10
219.1519636484239
 20
91.333061430874039
 30
0.0
 11
218.87905578224661
 21
96.540453728560266
 31
0.0
  0
ARC
  5
11C57
  8
0
 10
214.00275909604349
 20
94.068205418118907
 30
0.0
 40
4.9999999999999947
 50
4.1451491625051879
 51
80.999999999999687
  0
LINE
  5
11C58
  8
0
 10
214.0724739789016
 20
99.119489294355134
 30
0.0
 11
214.78493142124469
 21
99.006647121094574
 31
0.0
  0
CIRCLE
  5
11C59
  8
0
 10
209.88196364842389
 20
103.833061430874
 30
0.0
 40
2.0
  0
CIRCLE
  5
11C5A
  8
0
 10
120.67561745794789
 20
103.833061430874
 30
0.0
 40
2.0
  0
LINE
  5
11C5B
  8
0
 10
116.4851071274703
 20
99.119489294355134
 30
0.0
 11
115.77264968512731
 21
99.006647121094574
 31
0.0
  0
ARC
  5
11C5C
  8
0
 10
116.55482201032839
 20
94.068205418118907
 30
0.0
 40
4.9999999999999947
 50
99.000000000000298
 51
175.85485083749481
  0
LINE
  5
11C5D
  8
0
 10
111.4056174579479
 20
91.333061430874039
 30
0.0
 11
111.6785253241253
 21
96.540453728560266
 31
0.0
  0
LINE
  5
11C5E
  8
0
 10
111.567901344519
 20
94.429622452751588
 30
0.0
 11
111.6785253241253
 21
96.540453728560266
 31
0.0
  0
LINE
  5
11C5F
  8
0
 10
111.6785253241253
 20
96.540453728560266
 30
0.0
 11
114.332817457948
 21
103.833061430874
 31
0.0
  0
LINE
  5
11C60
  8
0
 10
114.332817457948
 20
103.833061430874
 30
0.0
 11
109.09015533212281
 21
107.642078425249
 31
0.0
  0
ARC
  5
11C61
  8
0
 10
108.5023700798303
 20
106.8330614308739
 30
0.0
 40
1.0000000000000959
 50
54.000000000001471
 51
90.0
  0
LINE
  5
11C62
  8
0
 10
120.67561745794789
 20
107.833061430874
 30
0.0
 11
107.88827778246041
 21
107.833061430874
 31
0.0
  0
ARC
  5
11C63
  8
0
 10
107.88827778246041
 20
105.5830614308741
 30
0.0
 40
2.2499999999999458
 50
90.0
 51
118.00000000000109
  0
LINE
  5
11C64
  8
0
 10
106.8319667661922
 20
107.5696935148066
 30
0.0
 11
92.986447987077739
 21
100.2079005937053
 31
0.0
  0
ARC
  5
11C65
  8
0
 10
94.394862675435405
 20
97.559057815128597
 30
0.0
 40
2.9999999999999751
 50
117.9999999999997
 51
177.9999999999996
  0
LINE
  5
11C66
  8
0
 10
91.396690194378166
 20
97.663756305236106
 30
0.0
 11
91.175617457947965
 21
91.333061430874039
 31
0.0
  0
LINE
  5
11C67
  8
0
 10
91.175617457947965
 20
91.333061430874039
 30
0.0
 11
111.4056174579479
 21
91.333061430874039
 31
0.0
  0
LINE
  5
11C68
  8
1
 10
120.67561745794789
 20
88.85157110229531
 30
0.0
 11
120.67561745794789
 21
109.8440103010044
 31
0.0
  0
LINE
  5
11C69
  8
1
 10
114.6646685878176
 20
103.833061430874
 30
0.0
 11
126.6865663280783
 21
103.833061430874
 31
0.0
  0
CIRCLE
  5
11C6A
  8
0
 10
120.67561745794789
 20
103.833061430874
 30
0.0
 40
2.0
  0
ARC
  5
11C6B
  8
0
 10
120.67561745794789
 20
103.833061430874
 30
0.0
 40
3.9999999999999991
 50
2.276155743795627
 51
177.72384425620271
  0
LINE
  5
11C6C
  8
0
 10
116.6787734184806
 20
103.9919252850823
 30
0.0
 11
116.17561745794789
 21
91.333061430874039
 31
0.0
  0
LINE
  5
11C6D
  8
0
 10
125.17561745794789
 20
91.333061430874039
 30
0.0
 11
124.6724614974153
 21
103.9919252850823
 31
0.0
  0
CIRCLE
  5
11C6F
  8
0
 10
120.67561745794789
 20
103.833061430874
 30
0.0
 40
2.0
  0
ARC
  5
11C94
  8
0
 10
69.811765839334456
 20
106.6297253197629
 30
0.0
 40
1.1999999999999991
 50
1.977063620443738
 51
90.0
1001
GENIUS_GENODEF_13
1002
{
1000
HIER
1070
     0
1002
}
1002
{
1000
MANEDIT
1070
     0
1002
}
1002
{
1000
NOSEL
1070
     0
1002
}
1002
{
1000
BEHIND
1070
     0
1002
}
1002
{
1000
REACTOR
1002
}
1001
GENIUS_GENOBJ-N-FIL_13
1002
{
1000
OWNER
1000
GEN
1002
}
  0
LINE
  5
11C98
  8
0
 10
71.77896215239204
 20
91.333061430873926
 30
0.0
 11
71.011051500628781
 21
106.67112462668661
 31
0.0
  0
LINE
  5
11C9F
  8
3
 10
54.98402628509146
 20
101.2907197294839
 30
0.0
 11
55.060646816998108
 21
101.2591700986988
 31
0.0
  0
LINE
  5
11CA0
  8
3
 10
54.907405753184861
 20
101.3222693602689
 30
0.0
 11
54.98402628509146
 21
101.2907197294839
 31
0.0
  0
LINE
  5
11CA1
  8
3
 10
55.132760258792608
 20
101.2186062876893
 30
0.0
 11
55.200366610474902
 21
101.17353538656781
 31
0.0
  0
LINE
  5
11CA2
  8
3
 10
55.200366610474902
 20
101.17353538656781
 30
0.0
 11
55.267972962157252
 21
101.1284644854463
 31
0.0
  0
LINE
  5
11CA3
  8
3
 10
55.267972962157252
 20
101.1284644854463
 30
0.0
 11
55.326565133615219
 21
101.0788864942126
 31
0.0
  0
LINE
  5
11CA4
  8
3
 10
55.060646816998108
 20
101.2591700986988
 30
0.0
 11
55.132760258792608
 21
101.2186062876893
 31
0.0
  0
LINE
  5
11CA5
  8
3
 10
55.326565133615219
 20
101.0788864942126
 30
0.0
 11
55.38515730507325
 21
101.02480141286669
 31
0.0
  0
CIRCLE
  5
11CA6
  8
3
 10
55.743348274633071
 20
101.24031748828349
 30
0.0
 40
0.180725893852164
  0
LINE
  5
11CA7
  8
3
 10
54.573881084885357
 20
101.4033969822877
 30
0.0
 11
54.659515797016319
 21
101.3898757119513
 31
0.0
  0
LINE
  5
11CA8
  8
3
 10
54.659515797016319
 20
101.3898757119513
 30
0.0
 11
54.745150509147237
 21
101.37184735150259
 31
0.0
  0
LINE
  5
11CA9
  8
3
 10
54.745150509147237
 20
101.37184735150259
 30
0.0
 11
54.826278131166049
 21
101.3493119009419
 31
0.0
  0
LINE
  5
11CAA
  8
3
 10
54.826278131166049
 20
101.3493119009419
 30
0.0
 11
54.907405753184861
 21
101.3222693602689
 31
0.0
  0
LINE
  5
11CAB
  8
3
 10
55.439242386419117
 20
100.96620924140861
 30
0.0
 11
55.533891278774412
 21
100.8445178083805
 31
0.0
  0
LINE
  5
11CAC
  8
3
 10
55.727696153597009
 20
100.39380879716499
 30
0.0
 11
55.745724514045627
 21
100.2676102740247
 31
0.0
  0
LINE
  5
11CAD
  8
3
 10
55.660089801914722
 20
100.6281774829971
 30
0.0
 11
55.700653612924128
 21
100.5109931400811
 31
0.0
  0
LINE
  5
11CAE
  8
3
 10
55.606004720568848
 20
100.7363476456888
 30
0.0
 11
55.660089801914722
 21
100.6281774829971
 31
0.0
  0
LINE
  5
11CAF
  8
3
 10
55.533891278774412
 20
100.8445178083805
 30
0.0
 11
55.606004720568848
 21
100.7363476456888
 31
0.0
  0
LINE
  5
11CB0
  8
3
 10
55.700653612924128
 20
100.5109931400811
 30
0.0
 11
55.727696153597009
 21
100.39380879716499
 31
0.0
  0
LINE
  5
11CB1
  8
3
 10
55.754738694269939
 20
99.889014704603696
 30
0.0
 11
55.754738694269939
 21
99.762816181463364
 31
0.0
  0
LINE
  5
11CB2
  8
3
 10
55.754738694269939
 20
100.0197203178561
 30
0.0
 11
55.754738694269939
 21
99.889014704603696
 31
0.0
  0
LINE
  5
11CB3
  8
3
 10
55.754738694269939
 20
100.1459188409966
 30
0.0
 11
55.754738694269939
 21
100.0197203178561
 31
0.0
  0
LINE
  5
11CB4
  8
3
 10
55.754738694269939
 20
99.636617658323061
 30
0.0
 11
55.759245784382102
 21
99.510419135182673
 31
0.0
  0
LINE
  5
11CB5
  8
3
 10
55.754738694269939
 20
99.762816181463364
 30
0.0
 11
55.754738694269939
 21
99.636617658323061
 31
0.0
  0
LINE
  5
11CB6
  8
3
 10
55.745724514045627
 20
100.2676102740247
 30
0.0
 11
55.754738694269939
 21
100.1459188409966
 31
0.0
  0
LINE
  5
11CB7
  8
3
 10
54.659515797016319
 20
100.5605711313147
 30
0.0
 11
54.582895265109663
 21
100.5876136719876
 31
0.0
  0
LINE
  5
11CB8
  8
3
 10
54.794728500380963
 20
100.4524009686229
 30
0.0
 11
54.794728500380963
 21
100.45690805873519
 31
0.0
  0
LINE
  5
11CB9
  8
3
 10
54.794728500380963
 20
100.45690805873519
 30
0.0
 11
54.794728500380963
 21
100.46141514884739
 31
0.0
  0
LINE
  5
11CBA
  8
3
 10
54.794728500380963
 20
100.46141514884739
 30
0.0
 11
54.794728500380963
 21
100.46592223895939
 31
0.0
  0
LINE
  5
11CBB
  8
3
 10
54.794728500380963
 20
100.46592223895939
 30
0.0
 11
54.794728500380963
 21
100.47042932907161
 31
0.0
  0
LINE
  5
11CBC
  8
3
 10
54.794728500380963
 20
100.47042932907161
 30
0.0
 11
54.794728500380963
 21
100.47493641918381
 31
0.0
  0
LINE
  5
11CBD
  8
3
 10
54.794728500380963
 20
100.47493641918381
 30
0.0
 11
54.799235590493112
 21
100.4839505994081
 31
0.0
  0
LINE
  5
11CBE
  8
3
 10
54.799235590493112
 20
100.4839505994081
 30
0.0
 11
54.727122148698612
 21
100.5245144104175
 31
0.0
  0
LINE
  5
11CBF
  8
3
 10
54.727122148698612
 20
100.5245144104175
 30
0.0
 11
54.659515797016319
 21
100.5605711313147
 31
0.0
  0
LINE
  5
11CC0
  8
3
 10
55.781781234942883
 20
99.262529179014081
 30
0.0
 11
55.808823775615821
 21
99.145344836098019
 31
0.0
  0
LINE
  5
11CC1
  8
3
 10
55.768259964606408
 20
99.384220612042299
 30
0.0
 11
55.781781234942883
 21
99.262529179014081
 31
0.0
  0
LINE
  5
11CC2
  8
3
 10
55.808823775615821
 20
99.145344836098019
 30
0.0
 11
55.90797975808325
 21
98.924497420602478
 31
0.0
  0
LINE
  5
11CC3
  8
3
 10
54.997547555427929
 20
98.969568321724054
 30
0.0
 11
54.993040465315772
 21
98.978582501948367
 31
0.0
  0
LINE
  5
11CC4
  8
3
 10
54.993040465315772
 20
98.978582501948367
 30
0.0
 11
54.988533375203623
 21
98.983089592060509
 31
0.0
  0
LINE
  5
11CC5
  8
3
 10
54.988533375203623
 20
98.983089592060509
 30
0.0
 11
54.98402628509146
 21
98.992103772284835
 31
0.0
  0
LINE
  5
11CC6
  8
3
 10
54.98402628509146
 20
98.992103772284835
 30
0.0
 11
54.98402628509146
 21
99.001117952509134
 31
0.0
  0
LINE
  5
11CC7
  8
3
 10
54.98402628509146
 20
99.001117952509134
 30
0.0
 11
54.979519194979297
 21
99.010132132733446
 31
0.0
  0
LINE
  5
11CC8
  8
3
 10
54.979519194979297
 20
99.010132132733446
 30
0.0
 11
54.97501210486714
 21
99.019146312957758
 31
0.0
  0
LINE
  5
11CC9
  8
3
 10
54.97501210486714
 20
99.019146312957758
 30
0.0
 11
54.970505014754991
 21
99.041681763518426
 31
0.0
  0
LINE
  5
11CCA
  8
3
 10
54.970505014754991
 20
99.041681763518426
 30
0.0
 11
54.965997924642842
 21
99.041681763518426
 31
0.0
  0
LINE
  5
11CCB
  8
3
 10
54.965997924642842
 20
99.041681763518426
 30
0.0
 11
54.961490834530679
 21
99.041681763518426
 31
0.0
  0
LINE
  5
11CCC
  8
3
 10
54.961490834530679
 20
99.041681763518426
 30
0.0
 11
54.961490834530679
 21
99.04618885363071
 31
0.0
  0
LINE
  5
11CCD
  8
3
 10
54.961490834530679
 20
99.04618885363071
 30
0.0
 11
54.956983744418523
 21
99.04618885363071
 31
0.0
  0
LINE
  5
11CCE
  8
3
 10
54.956983744418523
 20
99.04618885363071
 30
0.0
 11
54.952476654306359
 21
99.050695943742852
 31
0.0
  0
LINE
  5
11CCF
  8
3
 10
54.952476654306359
 20
99.050695943742852
 30
0.0
 11
54.94796956419421
 21
99.050695943742852
 31
0.0
  0
LINE
  5
11CD0
  8
3
 10
54.94796956419421
 20
99.050695943742852
 30
0.0
 11
54.943462474082061
 21
99.050695943742852
 31
0.0
  0
LINE
  5
11CD1
  8
3
 10
54.943462474082061
 20
99.050695943742852
 30
0.0
 11
54.938955383969898
 21
99.050695943742852
 31
0.0
  0
LINE
  5
11CD2
  8
3
 10
54.938955383969898
 20
99.050695943742852
 30
0.0
 11
54.934448293857741
 21
99.050695943742852
 31
0.0
  0
LINE
  5
11CD3
  8
3
 10
54.934448293857741
 20
99.050695943742852
 30
0.0
 11
54.929941203745578
 21
99.050695943742852
 31
0.0
  0
LINE
  5
11CD4
  8
3
 10
54.929941203745578
 20
99.050695943742852
 30
0.0
 11
54.925434113633422
 21
99.050695943742852
 31
0.0
  0
LINE
  5
11CD5
  8
3
 10
54.925434113633422
 20
99.050695943742852
 30
0.0
 11
54.920927023521273
 21
99.050695943742852
 31
0.0
  0
LINE
  5
11CD6
  8
3
 10
54.920927023521273
 20
99.050695943742852
 30
0.0
 11
54.916419933409117
 21
99.050695943742852
 31
0.0
  0
LINE
  5
11CD7
  8
3
 10
54.916419933409117
 20
99.050695943742852
 30
0.0
 11
54.91191284329696
 21
99.055203033854994
 31
0.0
  0
LINE
  5
11CD8
  8
3
 10
54.91191284329696
 20
99.055203033854994
 30
0.0
 11
54.902898663072641
 21
99.04618885363071
 31
0.0
  0
LINE
  5
11CD9
  8
3
 10
54.902898663072641
 20
99.04618885363071
 30
0.0
 11
54.893884482848343
 21
99.041681763518426
 31
0.0
  0
LINE
  5
11CDA
  8
3
 10
54.893884482848343
 20
99.041681763518426
 30
0.0
 11
54.884870302624023
 21
99.037174673406383
 31
0.0
  0
LINE
  5
11CDB
  8
3
 10
55.002054645540078
 20
98.960554141499728
 30
0.0
 11
54.997547555427929
 21
98.969568321724054
 31
0.0
  0
LINE
  5
11CDC
  8
3
 10
55.042618456549491
 20
98.924497420602478
 30
0.0
 11
55.033604276325178
 21
98.924497420602478
 31
0.0
  0
LINE
  5
11CDD
  8
3
 10
55.033604276325178
 20
98.924497420602478
 30
0.0
 11
55.029097186213022
 21
98.933511600826805
 31
0.0
  0
LINE
  5
11CDE
  8
3
 10
55.029097186213022
 20
98.933511600826805
 30
0.0
 11
55.02008300598871
 21
98.938018690938947
 31
0.0
  0
LINE
  5
11CDF
  8
3
 10
55.02008300598871
 20
98.938018690938947
 30
0.0
 11
55.015575915876553
 21
98.942525781051103
 31
0.0
  0
LINE
  5
11CE0
  8
3
 10
55.015575915876553
 20
98.942525781051103
 30
0.0
 11
55.011068825764397
 21
98.947032871163259
 31
0.0
  0
LINE
  5
11CE1
  8
3
 10
55.011068825764397
 20
98.947032871163259
 30
0.0
 11
55.006561735652241
 21
98.956047051387586
 31
0.0
  0
LINE
  5
11CE2
  8
3
 10
55.006561735652241
 20
98.956047051387586
 30
0.0
 11
55.002054645540078
 21
98.960554141499728
 31
0.0
  0
LINE
  5
11CE3
  8
3
 10
55.267972962157252
 20
98.924497420602478
 30
0.0
 11
55.042618456549491
 21
98.924497420602478
 31
0.0
  0
LINE
  5
11CE4
  8
3
 10
55.90797975808325
 20
98.924497420602478
 30
0.0
 11
55.267972962157252
 21
98.924497420602478
 31
0.0
  0
LINE
  5
11CE5
  8
3
 10
54.655008706904169
 20
98.947032871163259
 30
0.0
 11
54.600923625558302
 21
98.938018690938947
 31
0.0
  0
LINE
  5
11CE6
  8
3
 10
54.871349032287611
 20
99.032667583294213
 30
0.0
 11
54.862334852063299
 21
99.023653403069844
 31
0.0
  0
LINE
  5
11CE7
  8
3
 10
54.862334852063299
 20
99.023653403069844
 30
0.0
 11
54.853320671838929
 21
99.019146312957758
 31
0.0
  0
LINE
  5
11CE8
  8
3
 10
54.853320671838929
 20
99.019146312957758
 30
0.0
 11
54.844306491614667
 21
99.014639222845616
 31
0.0
  0
LINE
  5
11CE9
  8
3
 10
54.844306491614667
 20
99.014639222845616
 30
0.0
 11
54.835292311390361
 21
99.010132132733446
 31
0.0
  0
LINE
  5
11CEA
  8
3
 10
54.835292311390361
 20
99.010132132733446
 30
0.0
 11
54.821771041053893
 21
99.00562504262129
 31
0.0
  0
LINE
  5
11CEB
  8
3
 10
54.821771041053893
 20
99.00562504262129
 30
0.0
 11
54.81275686082958
 21
99.001117952509134
 31
0.0
  0
LINE
  5
11CEC
  8
3
 10
54.81275686082958
 20
99.001117952509134
 30
0.0
 11
54.803742680605261
 21
98.996610862396977
 31
0.0
  0
LINE
  5
11CED
  8
3
 10
54.803742680605261
 20
98.996610862396977
 30
0.0
 11
54.794728500380963
 21
98.992103772284835
 31
0.0
  0
LINE
  5
11CEE
  8
3
 10
54.794728500380963
 20
98.992103772284835
 30
0.0
 11
54.785714320156643
 21
98.987596682172551
 31
0.0
  0
LINE
  5
11CEF
  8
3
 10
54.785714320156643
 20
98.987596682172551
 30
0.0
 11
54.776700139932331
 21
98.983089592060509
 31
0.0
  0
LINE
  5
11CF0
  8
3
 10
54.776700139932331
 20
98.983089592060509
 30
0.0
 11
54.763178869595862
 21
98.974075411836196
 31
0.0
  0
LINE
  5
11CF1
  8
3
 10
54.763178869595862
 20
98.974075411836196
 30
0.0
 11
54.709093788250037
 21
98.960554141499728
 31
0.0
  0
LINE
  5
11CF2
  8
3
 10
54.709093788250037
 20
98.960554141499728
 30
0.0
 11
54.655008706904169
 21
98.947032871163259
 31
0.0
  0
LINE
  5
11CF3
  8
3
 10
54.884870302624023
 20
99.037174673406383
 30
0.0
 11
54.871349032287611
 21
99.032667583294213
 31
0.0
  0
LINE
  5
11CF4
  8
3
 10
55.759245784382102
 20
99.510419135182673
 30
0.0
 11
55.768259964606408
 21
99.384220612042299
 31
0.0
  0
LINE
  5
11CF5
  8
3
 10
55.38515730507325
 20
101.02480141286669
 30
0.0
 11
55.439242386419117
 21
100.96620924140861
 31
0.0
  0
POINT
  5
11CF6
  8
3
 10
55.90797975808325
 20
98.924497420602478
 30
0.0
  0
POINT
  5
11CF7
  8
3
 10
55.90797975808325
 20
98.924497420602478
 30
0.0
  0
LINE
  5
11CF9
  8
3
 10
54.01950900109032
 20
101.4033969822877
 30
0.0
 11
54.055565721987563
 21
101.4033969822877
 31
0.0
  0
LINE
  5
11CFA
  8
3
 10
54.055565721987563
 20
101.4033969822877
 30
0.0
 11
54.096129532996912
 21
101.4033969822877
 31
0.0
  0
LINE
  5
11CFB
  8
3
 10
54.132186253894162
 20
101.4033969822877
 30
0.0
 11
54.168242974791411
 21
101.4033969822877
 31
0.0
  0
LINE
  5
11CFC
  8
3
 10
54.398104570511322
 20
101.4169182526241
 30
0.0
 11
54.48373928264229
 21
101.412411162512
 31
0.0
  0
LINE
  5
11CFD
  8
3
 10
54.24486350669801
 20
101.4033969822877
 30
0.0
 11
54.285427317707473
 21
101.4033969822877
 31
0.0
  0
LINE
  5
11CFE
  8
3
 10
54.208806785800817
 20
101.4033969822877
 30
0.0
 11
54.24486350669801
 21
101.4033969822877
 31
0.0
  0
LINE
  5
11CFF
  8
3
 10
54.168242974791411
 20
101.4033969822877
 30
0.0
 11
54.208806785800817
 21
101.4033969822877
 31
0.0
  0
LINE
  5
11D00
  8
3
 10
54.285427317707473
 20
101.4033969822877
 30
0.0
 11
54.321484038604659
 21
101.4079040723999
 31
0.0
  0
LINE
  5
11D01
  8
3
 10
54.321484038604659
 20
101.4079040723999
 30
0.0
 11
54.398104570511322
 21
101.4169182526241
 31
0.0
  0
LINE
  5
11D02
  8
3
 10
54.096129532996912
 20
101.4033969822877
 30
0.0
 11
54.132186253894162
 21
101.4033969822877
 31
0.0
  0
LINE
  5
11D03
  8
3
 10
53.834718306491958
 20
101.3898757119513
 30
0.0
 11
53.870775027389151
 21
101.3943828020634
 31
0.0
  0
LINE
  5
11D04
  8
3
 10
53.798661585594722
 20
101.38536862183921
 30
0.0
 11
53.834718306491958
 21
101.3898757119513
 31
0.0
  0
LINE
  5
11D05
  8
3
 10
53.942888469183657
 20
101.3988898921756
 30
0.0
 11
53.983452280193063
 21
101.3988898921756
 31
0.0
  0
LINE
  5
11D06
  8
3
 10
53.870775027389151
 20
101.3943828020634
 30
0.0
 11
53.906831748286407
 21
101.3988898921756
 31
0.0
  0
LINE
  5
11D07
  8
3
 10
53.906831748286407
 20
101.3988898921756
 30
0.0
 11
53.942888469183657
 21
101.3988898921756
 31
0.0
  0
LINE
  5
11D08
  8
3
 10
53.266824952360388
 20
101.4169182526241
 30
0.0
 11
53.298374583145488
 21
101.4169182526241
 31
0.0
  0
LINE
  5
11D09
  8
3
 10
53.145133519332227
 20
101.4169182526241
 30
0.0
 11
53.176683150117327
 21
101.4169182526241
 31
0.0
  0
LINE
  5
11D0A
  8
3
 10
53.176683150117327
 20
101.4169182526241
 30
0.0
 11
53.203725690790208
 21
101.4169182526241
 31
0.0
  0
LINE
  5
11D0B
  8
3
 10
53.203725690790208
 20
101.4169182526241
 30
0.0
 11
53.235275321575301
 21
101.4169182526241
 31
0.0
  0
LINE
  5
11D0C
  8
3
 10
53.235275321575301
 20
101.4169182526241
 30
0.0
 11
53.266824952360388
 21
101.4169182526241
 31
0.0
  0
LINE
  5
11D0D
  8
3
 10
53.388516385388613
 20
101.4169182526241
 30
0.0
 11
53.45161564695875
 21
101.4169182526241
 31
0.0
  0
LINE
  5
11D0E
  8
3
 10
53.298374583145488
 20
101.4169182526241
 30
0.0
 11
53.325417123818433
 21
101.4169182526241
 31
0.0
  0
LINE
  5
11D0F
  8
3
 10
53.325417123818433
 20
101.4169182526241
 30
0.0
 11
53.356966754603519
 21
101.4169182526241
 31
0.0
  0
LINE
  5
11D10
  8
3
 10
53.356966754603519
 20
101.4169182526241
 30
0.0
 11
53.388516385388613
 21
101.4169182526241
 31
0.0
  0
LINE
  5
11D11
  8
3
 10
53.564292899762648
 20
101.0067730524181
 30
0.0
 11
53.568799989874748
 21
101.0473368634275
 31
0.0
  0
LINE
  5
11D12
  8
3
 10
53.568799989874748
 20
101.0473368634275
 30
0.0
 11
53.573307079986897
 21
101.0833935843247
 31
0.0
  0
LINE
  5
11D13
  8
3
 10
53.573307079986897
 20
101.0833935843247
 30
0.0
 11
53.582321260211209
 21
101.1239573953341
 31
0.0
  0
LINE
  5
11D14
  8
3
 10
53.582321260211209
 20
101.1239573953341
 30
0.0
 11
53.595842530547692
 21
101.1600141162313
 31
0.0
  0
LINE
  5
11D15
  8
3
 10
53.595842530547692
 20
101.1600141162313
 30
0.0
 11
53.627392161332772
 21
101.23212755802579
 31
0.0
  0
LINE
  5
11D16
  8
3
 10
53.627392161332772
 20
101.23212755802579
 30
0.0
 11
53.798661585594722
 21
101.38536862183921
 31
0.0
  0
LINE
  5
11D17
  8
3
 10
53.983452280193063
 20
101.3988898921756
 30
0.0
 11
54.01950900109032
 21
101.4033969822877
 31
0.0
  0
LINE
  5
11D18
  8
3
 10
54.17275006490356
 20
100.6191633027728
 30
0.0
 11
54.087115352772599
 21
100.61465621266061
 31
0.0
  0
LINE
  5
11D19
  8
3
 10
54.506274733203007
 20
100.60564203243629
 30
0.0
 11
54.425147111184259
 21
100.61465621266061
 31
0.0
  0
LINE
  5
11D1A
  8
3
 10
54.34401948916544
 20
100.6191633027728
 30
0.0
 11
54.258384777034543
 21
100.6191633027728
 31
0.0
  0
LINE
  5
11D1B
  8
3
 10
54.258384777034543
 20
100.6191633027728
 30
0.0
 11
54.17275006490356
 21
100.6191633027728
 31
0.0
  0
LINE
  5
11D1C
  8
3
 10
54.425147111184259
 20
100.61465621266061
 30
0.0
 11
54.34401948916544
 21
100.6191633027728
 31
0.0
  0
LINE
  5
11D1D
  8
3
 10
53.91584592851072
 20
100.60564203243629
 30
0.0
 11
53.830211216379801
 21
100.60113494232409
 31
0.0
  0
LINE
  5
11D1E
  8
3
 10
53.830211216379801
 20
100.60113494232409
 30
0.0
 11
53.74457650424884
 21
100.60113494232409
 31
0.0
  0
LINE
  5
11D1F
  8
3
 10
54.001480640641681
 20
100.61014912254851
 30
0.0
 11
53.91584592851072
 21
100.60564203243629
 31
0.0
  0
LINE
  5
11D20
  8
3
 10
53.546264539313967
 20
100.88958870950199
 30
0.0
 11
53.55077162942618
 21
100.9301525205114
 31
0.0
  0
LINE
  5
11D21
  8
3
 10
53.55077162942618
 20
100.9301525205114
 30
0.0
 11
53.555278719538329
 21
100.9707163315208
 31
0.0
  0
LINE
  5
11D22
  8
3
 10
53.541757449201867
 20
100.8535319886048
 30
0.0
 11
53.546264539313967
 21
100.88958870950199
 31
0.0
  0
LINE
  5
11D23
  8
3
 10
53.31189585348195
 20
100.61465621266061
 30
0.0
 11
53.284853312809012
 21
100.61465621266061
 31
0.0
  0
LINE
  5
11D24
  8
3
 10
53.284853312809012
 20
100.61465621266061
 30
0.0
 11
53.257810772136082
 21
100.6191633027728
 31
0.0
  0
LINE
  5
11D25
  8
3
 10
53.257810772136082
 20
100.6191633027728
 30
0.0
 11
53.235275321575301
 21
100.6191633027728
 31
0.0
  0
LINE
  5
11D26
  8
3
 10
53.235275321575301
 20
100.6191633027728
 30
0.0
 11
53.208232780902357
 21
100.6191633027728
 31
0.0
  0
LINE
  5
11D27
  8
3
 10
53.208232780902357
 20
100.6191633027728
 30
0.0
 11
53.185697330341583
 21
100.6191633027728
 31
0.0
  0
LINE
  5
11D28
  8
3
 10
53.185697330341583
 20
100.6191633027728
 30
0.0
 11
53.163161879780802
 21
100.6191633027728
 31
0.0
  0
LINE
  5
11D29
  8
3
 10
53.163161879780802
 20
100.6191633027728
 30
0.0
 11
53.140626429220021
 21
100.6191633027728
 31
0.0
  0
LINE
  5
11D2A
  8
3
 10
53.45161564695875
 20
100.6326845731092
 30
0.0
 11
53.45161564695875
 21
100.6281774829971
 31
0.0
  0
LINE
  5
11D2B
  8
3
 10
53.45161564695875
 20
100.6281774829971
 30
0.0
 11
53.456122737070892
 21
100.6281774829971
 31
0.0
  0
LINE
  5
11D2C
  8
3
 10
53.456122737070892
 20
100.6281774829971
 30
0.0
 11
53.465136917295212
 21
100.6326845731092
 31
0.0
  0
LINE
  5
11D2D
  8
3
 10
53.465136917295212
 20
100.6326845731092
 30
0.0
 11
53.483165277743829
 21
100.6642342038943
 31
0.0
  0
LINE
  5
11D2E
  8
3
 10
53.483165277743829
 20
100.6642342038943
 30
0.0
 11
53.501193638192461
 21
100.7002909247916
 31
0.0
  0
LINE
  5
11D2F
  8
3
 10
53.501193638192461
 20
100.7002909247916
 30
0.0
 11
53.51471490852893
 21
100.7363476456888
 31
0.0
  0
LINE
  5
11D30
  8
3
 10
53.51471490852893
 20
100.7363476456888
 30
0.0
 11
53.523729088753242
 21
100.7769114566982
 31
0.0
  0
LINE
  5
11D31
  8
3
 10
53.523729088753242
 20
100.7769114566982
 30
0.0
 11
53.532743268977548
 21
100.81296817759539
 31
0.0
  0
LINE
  5
11D32
  8
3
 10
53.487672367855993
 20
100.2450748234639
 30
0.0
 11
53.510207818416767
 21
100.2856386344733
 31
0.0
  0
LINE
  5
11D33
  8
3
 10
53.510207818416767
 20
100.2856386344733
 30
0.0
 11
53.528236178865399
 21
100.32169535537049
 31
0.0
  0
LINE
  5
11D34
  8
3
 10
53.528236178865399
 20
100.32169535537049
 30
0.0
 11
53.55077162942618
 21
100.3577520762678
 31
0.0
  0
LINE
  5
11D35
  8
3
 10
53.55077162942618
 20
100.3577520762678
 30
0.0
 11
53.60485671077199
 21
100.4253584279501
 31
0.0
  0
LINE
  5
11D36
  8
3
 10
53.60485671077199
 20
100.4253584279501
 30
0.0
 11
53.609363800884147
 21
100.4253584279501
 31
0.0
  0
LINE
  5
11D37
  8
3
 10
53.609363800884147
 20
100.4253584279501
 30
0.0
 11
53.609363800884147
 21
100.4298655180623
 31
0.0
  0
LINE
  5
11D38
  8
3
 10
53.609363800884147
 20
100.4298655180623
 30
0.0
 11
53.61387089099631
 21
100.4298655180623
 31
0.0
  0
LINE
  5
11D39
  8
3
 10
53.61387089099631
 20
100.4298655180623
 30
0.0
 11
53.618377981108473
 21
100.4298655180623
 31
0.0
  0
LINE
  5
11D3A
  8
3
 10
53.618377981108473
 20
100.4298655180623
 30
0.0
 11
53.622885071220622
 21
100.4343726081744
 31
0.0
  0
LINE
  5
11D3B
  8
3
 10
53.622885071220622
 20
100.4343726081744
 30
0.0
 11
53.627392161332772
 21
100.4343726081744
 31
0.0
  0
LINE
  5
11D3C
  8
3
 10
53.627392161332772
 20
100.4343726081744
 30
0.0
 11
53.631899251444928
 21
100.4343726081744
 31
0.0
  0
LINE
  5
11D3D
  8
3
 10
53.631899251444928
 20
100.4343726081744
 30
0.0
 11
53.636406341557091
 21
100.4388796982866
 31
0.0
  0
LINE
  5
11D3E
  8
3
 10
53.496686548080312
 20
100.6236703928849
 30
0.0
 11
53.45161564695875
 21
100.6191633027728
 31
0.0
  0
LINE
  5
11D3F
  8
3
 10
53.45161564695875
 20
100.6191633027728
 30
0.0
 11
53.41105183594933
 21
100.61465621266061
 31
0.0
  0
LINE
  5
11D40
  8
3
 10
53.374995115052137
 20
100.61465621266061
 30
0.0
 11
53.34344548426705
 21
100.61465621266061
 31
0.0
  0
LINE
  5
11D41
  8
3
 10
53.34344548426705
 20
100.61465621266061
 30
0.0
 11
53.31189585348195
 21
100.61465621266061
 31
0.0
  0
LINE
  5
11D42
  8
3
 10
53.41105183594933
 20
100.61465621266061
 30
0.0
 11
53.374995115052137
 21
100.61465621266061
 31
0.0
  0
LINE
  5
11D43
  8
3
 10
53.658941792117872
 20
100.60113494232409
 30
0.0
 11
53.496686548080312
 21
100.6236703928849
 31
0.0
  0
LINE
  5
11D44
  8
3
 10
53.532743268977548
 20
100.81296817759539
 30
0.0
 11
53.541757449201867
 21
100.8535319886048
 31
0.0
  0
LINE
  5
11D45
  8
3
 10
53.74457650424884
 20
100.60113494232409
 30
0.0
 11
53.658941792117872
 21
100.60113494232409
 31
0.0
  0
LINE
  5
11D46
  8
3
 10
54.087115352772599
 20
100.61465621266061
 30
0.0
 11
54.001480640641681
 21
100.61014912254851
 31
0.0
  0
LINE
  5
11D47
  8
3
 10
53.176683150117327
 20
100.2360606432396
 30
0.0
 11
53.199218600678108
 21
100.18197556189369
 31
0.0
  0
LINE
  5
11D48
  8
3
 10
53.199218600678108
 20
100.18197556189369
 30
0.0
 11
53.221754051238833
 21
100.1278904805478
 31
0.0
  0
LINE
  5
11D49
  8
3
 10
53.221754051238833
 20
100.1278904805478
 30
0.0
 11
53.235275321575301
 21
100.0738053992019
 31
0.0
  0
LINE
  5
11D4A
  8
3
 10
53.235275321575301
 20
100.0738053992019
 30
0.0
 11
53.24879659191177
 21
100.0197203178561
 31
0.0
  0
LINE
  5
11D4B
  8
3
 10
53.24879659191177
 20
100.0197203178561
 30
0.0
 11
53.257810772136082
 21
99.965635236510224
 31
0.0
  0
LINE
  5
11D4C
  8
3
 10
53.402037655725017
 20
99.943099785949556
 30
0.0
 11
53.41105183594933
 21
99.988170687071104
 31
0.0
  0
LINE
  5
11D4D
  8
3
 10
53.41105183594933
 20
99.988170687071104
 30
0.0
 11
53.420066016173649
 21
100.03324158819269
 31
0.0
  0
LINE
  5
11D4E
  8
3
 10
53.420066016173649
 20
100.03324158819269
 30
0.0
 11
53.429080196397962
 21
100.0783124893141
 31
0.0
  0
LINE
  5
11D4F
  8
3
 10
53.429080196397962
 20
100.0783124893141
 30
0.0
 11
53.44260146673443
 21
100.12338339043571
 31
0.0
  0
LINE
  5
11D50
  8
3
 10
53.44260146673443
 20
100.12338339043571
 30
0.0
 11
53.456122737070892
 21
100.1639472014451
 31
0.0
  0
LINE
  5
11D51
  8
3
 10
53.456122737070892
 20
100.1639472014451
 30
0.0
 11
53.474151097519531
 21
100.2045110124545
 31
0.0
  0
LINE
  5
11D52
  8
3
 10
53.271332042472551
 20
99.794365812248401
 30
0.0
 11
53.271332042472551
 21
99.740280730902526
 31
0.0
  0
LINE
  5
11D53
  8
3
 10
53.393023475500769
 20
99.762816181463364
 30
0.0
 11
53.393023475500769
 21
99.807887082584855
 31
0.0
  0
LINE
  5
11D54
  8
3
 10
53.271332042472551
 20
99.852957983706432
 30
0.0
 11
53.271332042472551
 21
99.794365812248401
 31
0.0
  0
LINE
  5
11D55
  8
3
 10
53.393023475500769
 20
99.807887082584855
 30
0.0
 11
53.393023475500769
 21
99.852957983706432
 31
0.0
  0
LINE
  5
11D56
  8
3
 10
53.257810772136082
 20
99.965635236510224
 30
0.0
 11
53.266824952360388
 21
99.907043065052363
 31
0.0
  0
LINE
  5
11D57
  8
3
 10
53.397530565612918
 20
99.898028884827994
 30
0.0
 11
53.402037655725017
 21
99.943099785949556
 31
0.0
  0
LINE
  5
11D58
  8
3
 10
53.266824952360388
 20
99.907043065052363
 30
0.0
 11
53.271332042472551
 21
99.852957983706432
 31
0.0
  0
LINE
  5
11D59
  8
3
 10
53.393023475500769
 20
99.852957983706432
 30
0.0
 11
53.397530565612918
 21
99.898028884827994
 31
0.0
  0
LINE
  5
11D5A
  8
3
 10
53.262317862248231
 20
99.681688559444495
 30
0.0
 11
53.257810772136082
 21
99.627603478098735
 31
0.0
  0
LINE
  5
11D5B
  8
3
 10
53.257810772136082
 20
99.627603478098735
 30
0.0
 11
53.244289501799607
 21
99.573518396752803
 31
0.0
  0
LINE
  5
11D5C
  8
3
 10
53.429080196397962
 20
99.578025486864902
 30
0.0
 11
53.415558926061493
 21
99.636617658323061
 31
0.0
  0
LINE
  5
11D5D
  8
3
 10
53.244289501799607
 20
99.573518396752803
 30
0.0
 11
53.230768231463152
 21
99.519433315406985
 31
0.0
  0
LINE
  5
11D5E
  8
3
 10
53.447108556846587
 20
99.519433315406985
 30
0.0
 11
53.429080196397962
 21
99.578025486864902
 31
0.0
  0
LINE
  5
11D5F
  8
3
 10
53.415558926061493
 20
99.636617658323061
 30
0.0
 11
53.393023475500769
 21
99.762816181463364
 31
0.0
  0
LINE
  5
11D60
  8
3
 10
53.271332042472551
 20
99.740280730902526
 30
0.0
 11
53.262317862248231
 21
99.681688559444495
 31
0.0
  0
LINE
  5
11D61
  8
3
 10
53.474151097519531
 20
100.2045110124545
 30
0.0
 11
53.487672367855993
 21
100.2450748234639
 31
0.0
  0
LINE
  5
11D62
  8
3
 10
53.154147699556489
 20
100.2901457245854
 30
0.0
 11
53.176683150117327
 21
100.2360606432396
 31
0.0
  0
LINE
  5
11D63
  8
3
 10
54.497260552978702
 20
98.924497420602478
 30
0.0
 11
54.44768256174504
 21
98.919990330490265
 31
0.0
  0
LINE
  5
11D64
  8
3
 10
54.294441497931778
 20
98.915483240378165
 30
0.0
 11
54.24486350669801
 21
98.919990330490265
 31
0.0
  0
LINE
  5
11D65
  8
3
 10
54.24486350669801
 20
98.919990330490265
 30
0.0
 11
54.195285515464342
 21
98.924497420602478
 31
0.0
  0
LINE
  5
11D66
  8
3
 10
54.398104570511322
 20
98.915483240378165
 30
0.0
 11
54.348526579277603
 21
98.915483240378165
 31
0.0
  0
LINE
  5
11D67
  8
3
 10
54.348526579277603
 20
98.915483240378165
 30
0.0
 11
54.294441497931778
 21
98.915483240378165
 31
0.0
  0
LINE
  5
11D68
  8
3
 10
54.44768256174504
 20
98.919990330490265
 30
0.0
 11
54.398104570511322
 21
98.915483240378165
 31
0.0
  0
LINE
  5
11D69
  8
3
 10
54.551345634324584
 20
98.929004510714535
 30
0.0
 11
54.497260552978702
 21
98.924497420602478
 31
0.0
  0
LINE
  5
11D6A
  8
3
 10
54.14570752423063
 20
98.929004510714535
 30
0.0
 11
54.096129532996912
 21
98.938018690938947
 31
0.0
  0
LINE
  5
11D6B
  8
3
 10
54.096129532996912
 20
98.938018690938947
 30
0.0
 11
54.046551541763193
 21
98.951539961275415
 31
0.0
  0
LINE
  5
11D6C
  8
3
 10
54.195285515464342
 20
98.924497420602478
 30
0.0
 11
54.14570752423063
 21
98.929004510714535
 31
0.0
  0
LINE
  5
11D6D
  8
3
 10
53.875282117501307
 20
99.010132132733446
 30
0.0
 11
53.825704126267588
 21
99.037174673406383
 31
0.0
  0
LINE
  5
11D6E
  8
3
 10
53.776126135033927
 20
99.068724304191491
 30
0.0
 11
53.731055233912372
 21
99.100273934976514
 31
0.0
  0
LINE
  5
11D6F
  8
3
 10
53.825704126267588
 20
99.037174673406383
 30
0.0
 11
53.776126135033927
 21
99.068724304191491
 31
0.0
  0
LINE
  5
11D70
  8
3
 10
53.947395559295813
 20
98.978582501948367
 30
0.0
 11
53.938381379071501
 21
98.978582501948367
 31
0.0
  0
LINE
  5
11D71
  8
3
 10
53.938381379071501
 20
98.978582501948367
 30
0.0
 11
53.933874288959338
 21
98.983089592060509
 31
0.0
  0
LINE
  5
11D72
  8
3
 10
53.933874288959338
 20
98.983089592060509
 30
0.0
 11
53.929367198847189
 21
98.983089592060509
 31
0.0
  0
LINE
  5
11D73
  8
3
 10
53.929367198847189
 20
98.983089592060509
 30
0.0
 11
53.924860108735032
 21
98.987596682172551
 31
0.0
  0
LINE
  5
11D74
  8
3
 10
53.924860108735032
 20
98.987596682172551
 30
0.0
 11
53.920353018622869
 21
98.987596682172551
 31
0.0
  0
LINE
  5
11D75
  8
3
 10
53.91584592851072
 20
98.992103772284835
 30
0.0
 11
53.911338838398557
 21
98.996610862396977
 31
0.0
  0
LINE
  5
11D76
  8
3
 10
53.911338838398557
 20
98.996610862396977
 30
0.0
 11
53.906831748286407
 21
98.996610862396977
 31
0.0
  0
LINE
  5
11D77
  8
3
 10
53.906831748286407
 20
98.996610862396977
 30
0.0
 11
53.902324658174251
 21
99.001117952509134
 31
0.0
  0
LINE
  5
11D78
  8
3
 10
53.902324658174251
 20
99.001117952509134
 30
0.0
 11
53.897817568062088
 21
99.001117952509134
 31
0.0
  0
LINE
  5
11D79
  8
3
 10
53.897817568062088
 20
99.001117952509134
 30
0.0
 11
53.893310477949939
 21
99.001117952509134
 31
0.0
  0
LINE
  5
11D7A
  8
3
 10
53.893310477949939
 20
99.001117952509134
 30
0.0
 11
53.893310477949939
 21
99.00562504262129
 31
0.0
  0
LINE
  5
11D7B
  8
3
 10
53.893310477949939
 20
99.00562504262129
 30
0.0
 11
53.888803387837783
 21
99.00562504262129
 31
0.0
  0
LINE
  5
11D7C
  8
3
 10
53.884296297725633
 20
99.00562504262129
 30
0.0
 11
53.875282117501307
 21
99.010132132733446
 31
0.0
  0
LINE
  5
11D7D
  8
3
 10
53.888803387837783
 20
99.00562504262129
 30
0.0
 11
53.884296297725633
 21
99.00562504262129
 31
0.0
  0
LINE
  5
11D7E
  8
3
 10
53.920353018622869
 20
98.987596682172551
 30
0.0
 11
53.91584592851072
 21
98.992103772284835
 31
0.0
  0
LINE
  5
11D7F
  8
3
 10
53.190204420453739
 20
99.420277332939534
 30
0.0
 11
53.167668969892958
 21
99.379713521930157
 31
0.0
  0
LINE
  5
11D80
  8
3
 10
53.167668969892958
 20
99.379713521930157
 30
0.0
 11
53.145133519332227
 21
99.339149710920736
 31
0.0
  0
LINE
  5
11D81
  8
3
 10
53.55077162942618
 20
99.312107170247799
 30
0.0
 11
53.519221998641093
 21
99.357178071369376
 31
0.0
  0
LINE
  5
11D82
  8
3
 10
53.519221998641093
 20
99.357178071369376
 30
0.0
 11
53.492179457968149
 21
99.41126315271525
 31
0.0
  0
LINE
  5
11D83
  8
3
 10
53.492179457968149
 20
99.41126315271525
 30
0.0
 11
53.469644007407368
 21
99.465348234061111
 31
0.0
  0
LINE
  5
11D84
  8
3
 10
53.690491422902973
 20
99.136330655873763
 30
0.0
 11
53.649927611893553
 21
99.176894466883226
 31
0.0
  0
LINE
  5
11D85
  8
3
 10
53.61387089099631
 20
99.217458277892504
 30
0.0
 11
53.582321260211209
 21
99.262529179014081
 31
0.0
  0
LINE
  5
11D86
  8
3
 10
53.649927611893553
 20
99.176894466883226
 30
0.0
 11
53.61387089099631
 21
99.217458277892504
 31
0.0
  0
LINE
  5
11D87
  8
3
 10
53.582321260211209
 20
99.262529179014081
 30
0.0
 11
53.55077162942618
 21
99.312107170247799
 31
0.0
  0
LINE
  5
11D88
  8
3
 10
53.731055233912372
 20
99.100273934976514
 30
0.0
 11
53.690491422902973
 21
99.136330655873763
 31
0.0
  0
LINE
  5
11D89
  8
3
 10
54.046551541763193
 20
98.951539961275415
 30
0.0
 11
53.947395559295813
 21
98.978582501948367
 31
0.0
  0
LINE
  5
11D8A
  8
3
 10
53.230768231463152
 20
99.519433315406985
 30
0.0
 11
53.190204420453739
 21
99.420277332939534
 31
0.0
  0
LINE
  5
11D8B
  8
3
 10
53.469644007407368
 20
99.465348234061111
 30
0.0
 11
53.447108556846587
 21
99.519433315406985
 31
0.0
  0
LINE
  5
11D8C
  8
3
 10
53.555278719538329
 20
100.9707163315208
 30
0.0
 11
53.564292899762648
 21
101.0067730524181
 31
0.0
  0
LINE
  5
11D8D
  8
3
 10
53.45161564695875
 20
101.4169182526241
 30
0.0
 11
53.45161564695875
 21
100.6326845731092
 31
0.0
  0
LINE
  5
11D8E
  8
3
 10
52.374421110153747
 20
101.0428297733153
 30
0.0
 11
52.405970740938777
 21
101.0788864942126
 31
0.0
  0
LINE
  5
11D8F
  8
3
 10
52.473577092621127
 20
101.1555070261192
 30
0.0
 11
52.50963381351832
 21
101.1870566569043
 31
0.0
  0
LINE
  5
11D90
  8
3
 10
52.405970740938777
 20
101.0788864942126
 30
0.0
 11
52.437520371723878
 21
101.1194503052219
 31
0.0
  0
LINE
  5
11D91
  8
3
 10
52.437520371723878
 20
101.1194503052219
 30
0.0
 11
52.473577092621127
 21
101.1555070261192
 31
0.0
  0
LINE
  5
11D92
  8
3
 10
52.50963381351832
 20
101.1870566569043
 30
0.0
 11
52.545690534415627
 21
101.2186062876893
 31
0.0
  0
LINE
  5
11D93
  8
3
 10
52.545690534415627
 20
101.2186062876893
 30
0.0
 11
52.586254345424983
 21
101.2501559184745
 31
0.0
  0
LINE
  5
11D94
  8
3
 10
52.586254345424983
 20
101.2501559184745
 30
0.0
 11
52.626818156434382
 21
101.2817055492595
 31
0.0
  0
LINE
  5
11D95
  8
3
 10
52.626818156434382
 20
101.2817055492595
 30
0.0
 11
52.667381967443788
 21
101.30874808993249
 31
0.0
  0
LINE
  5
11D96
  8
3
 10
53.018934996191909
 20
101.4169182526241
 30
0.0
 11
53.050484626976953
 21
101.4169182526241
 31
0.0
  0
LINE
  5
11D97
  8
3
 10
52.960342824733893
 20
101.4169182526241
 30
0.0
 11
52.987385365406823
 21
101.4169182526241
 31
0.0
  0
LINE
  5
11D98
  8
3
 10
52.987385365406823
 20
101.4169182526241
 30
0.0
 11
53.018934996191909
 21
101.4169182526241
 31
0.0
  0
LINE
  5
11D99
  8
3
 10
52.7124528685653
 20
101.3312835404933
 30
0.0
 11
52.757523769686912
 21
101.353818991054
 31
0.0
  0
LINE
  5
11D9A
  8
3
 10
52.757523769686912
 20
101.353818991054
 30
0.0
 11
52.807101760920631
 21
101.37635444161479
 31
0.0
  0
LINE
  5
11D9B
  8
3
 10
52.807101760920631
 20
101.37635444161479
 30
0.0
 11
52.856679752154292
 21
101.3898757119513
 31
0.0
  0
LINE
  5
11D9C
  8
3
 10
52.856679752154292
 20
101.3898757119513
 30
0.0
 11
52.960342824733893
 21
101.4169182526241
 31
0.0
  0
LINE
  5
11D9D
  8
3
 10
53.050484626976953
 20
101.4169182526241
 30
0.0
 11
53.082034257762047
 21
101.4169182526241
 31
0.0
  0
LINE
  5
11D9E
  8
3
 10
53.082034257762047
 20
101.4169182526241
 30
0.0
 11
53.11358388854714
 21
101.4169182526241
 31
0.0
  0
LINE
  5
11D9F
  8
3
 10
52.667381967443788
 20
101.30874808993249
 30
0.0
 11
52.7124528685653
 21
101.3312835404933
 31
0.0
  0
LINE
  5
11DA0
  8
3
 10
52.040896441854237
 20
101.37635444161479
 30
0.0
 11
52.0454035319664
 21
101.3312835404933
 31
0.0
  0
LINE
  5
11DA1
  8
3
 10
52.0454035319664
 20
101.3312835404933
 30
0.0
 11
52.0454035319664
 21
101.2862126393716
 31
0.0
  0
LINE
  5
11DA2
  8
3
 10
52.0454035319664
 20
101.2862126393716
 30
0.0
 11
52.049910622078563
 21
101.23663464813799
 31
0.0
  0
LINE
  5
11DA3
  8
3
 10
52.049910622078563
 20
101.23663464813799
 30
0.0
 11
52.049910622078563
 21
101.1915637470164
 31
0.0
  0
LINE
  5
11DA4
  8
3
 10
52.049910622078563
 20
101.1915637470164
 30
0.0
 11
52.049910622078563
 21
101.1464928458949
 31
0.0
  0
LINE
  5
11DA5
  8
3
 10
52.049910622078563
 20
101.1464928458949
 30
0.0
 11
52.049910622078563
 21
101.09691485466119
 31
0.0
  0
LINE
  5
11DA6
  8
3
 10
52.049910622078563
 20
101.09691485466119
 30
0.0
 11
52.0454035319664
 21
101.0518439535396
 31
0.0
  0
LINE
  5
11DA7
  8
3
 10
52.0454035319664
 20
101.0518439535396
 30
0.0
 11
52.0454035319664
 21
101.0067730524181
 31
0.0
  0
LINE
  5
11DA8
  8
3
 10
52.036389351742081
 20
101.4259324328486
 30
0.0
 11
52.040896441854237
 21
101.37635444161479
 31
0.0
  0
LINE
  5
11DA9
  8
3
 10
51.152999689759689
 20
101.4214253427363
 30
0.0
 11
51.157506779871852
 21
101.4214253427363
 31
0.0
  0
LINE
  5
11DAA
  8
3
 10
51.157506779871852
 20
101.4214253427363
 30
0.0
 11
51.162013869984008
 21
101.4214253427363
 31
0.0
  0
LINE
  5
11DAB
  8
3
 10
51.162013869984008
 20
101.4214253427363
 30
0.0
 11
51.171028050208321
 21
101.4259324328486
 31
0.0
  0
LINE
  5
11DAC
  8
3
 10
51.171028050208321
 20
101.4259324328486
 30
0.0
 11
51.171028050208321
 21
101.4259324328486
 31
0.0
  0
LINE
  5
11DAD
  8
3
 10
51.14849259964754
 20
101.4214253427363
 30
0.0
 11
51.152999689759689
 21
101.4214253427363
 31
0.0
  0
LINE
  5
11DAE
  8
3
 10
51.139478419423227
 20
101.4169182526241
 30
0.0
 11
51.143985509535383
 21
101.4169182526241
 31
0.0
  0
LINE
  5
11DAF
  8
3
 10
51.143985509535383
 20
101.4169182526241
 30
0.0
 11
51.14849259964754
 21
101.4169182526241
 31
0.0
  0
LINE
  5
11DB0
  8
3
 10
51.14849259964754
 20
101.4169182526241
 30
0.0
 11
51.14849259964754
 21
101.4214253427363
 31
0.0
  0
LINE
  5
11DB1
  8
3
 10
51.130464239198908
 20
101.412411162512
 30
0.0
 11
51.134971329311071
 21
101.412411162512
 31
0.0
  0
LINE
  5
11DB2
  8
3
 10
51.134971329311071
 20
101.412411162512
 30
0.0
 11
51.139478419423227
 21
101.4169182526241
 31
0.0
  0
LINE
  5
11DB3
  8
3
 10
50.774404120338687
 20
101.3267764503811
 30
0.0
 11
50.837503381908867
 21
101.3493119009419
 31
0.0
  0
LINE
  5
11DB4
  8
3
 10
50.715811948880649
 20
101.30424099982029
 30
0.0
 11
50.774404120338687
 21
101.3267764503811
 31
0.0
  0
LINE
  5
11DB5
  8
3
 10
50.603134696076808
 20
101.24564882836231
 30
0.0
 11
50.657219777422632
 21
101.2771984591475
 31
0.0
  0
LINE
  5
11DB6
  8
3
 10
50.657219777422632
 20
101.2771984591475
 30
0.0
 11
50.715811948880649
 21
101.30424099982029
 31
0.0
  0
LINE
  5
11DB7
  8
3
 10
50.837503381908867
 20
101.3493119009419
 30
0.0
 11
50.900602643479012
 21
101.3673402613905
 31
0.0
  0
LINE
  5
11DB8
  8
3
 10
50.900602643479012
 20
101.3673402613905
 30
0.0
 11
50.963701905049192
 21
101.38536862183921
 31
0.0
  0
LINE
  5
11DB9
  8
3
 10
51.10342169852597
 20
101.412411162512
 30
0.0
 11
51.107928788638127
 21
101.412411162512
 31
0.0
  0
LINE
  5
11DBA
  8
3
 10
51.107928788638127
 20
101.412411162512
 30
0.0
 11
51.11243587875034
 21
101.412411162512
 31
0.0
  0
LINE
  5
11DBB
  8
3
 10
51.11243587875034
 20
101.412411162512
 30
0.0
 11
51.116942968862453
 21
101.412411162512
 31
0.0
  0
LINE
  5
11DBC
  8
3
 10
51.116942968862453
 20
101.412411162512
 30
0.0
 11
51.125957149086759
 21
101.412411162512
 31
0.0
  0
LINE
  5
11DBD
  8
3
 10
50.963701905049192
 20
101.38536862183921
 30
0.0
 11
51.098914608413878
 21
101.4169182526241
 31
0.0
  0
LINE
  5
11DBE
  8
3
 10
51.098914608413878
 20
101.4169182526241
 30
0.0
 11
51.10342169852597
 21
101.412411162512
 31
0.0
  0
LINE
  5
11DBF
  8
3
 10
51.125957149086759
 20
101.412411162512
 30
0.0
 11
51.130464239198908
 21
101.412411162512
 31
0.0
  0
LINE
  5
11DC0
  8
3
 10
51.171028050208321
 20
101.4259324328486
 30
0.0
 11
52.036389351742081
 21
101.4259324328486
 31
0.0
  0
LINE
  5
11DC1
  8
3
 10
53.095555528098508
 20
100.61465621266061
 30
0.0
 11
53.04597753686479
 21
100.61014912254851
 31
0.0
  0
LINE
  5
11DC2
  8
3
 10
53.04597753686479
 20
100.4298655180623
 30
0.0
 11
53.054991717089109
 21
100.4163442477258
 31
0.0
  0
LINE
  5
11DC3
  8
3
 10
53.04597753686479
 20
100.61014912254851
 30
0.0
 11
53.036963356640477
 21
100.60113494232409
 31
0.0
  0
LINE
  5
11DC4
  8
3
 10
53.036963356640477
 20
100.60113494232409
 30
0.0
 11
53.032456266528328
 21
100.59662785221199
 31
0.0
  0
LINE
  5
11DC5
  8
3
 10
53.032456266528328
 20
100.59662785221199
 30
0.0
 11
53.023442086304009
 21
100.5921207620998
 31
0.0
  0
LINE
  5
11DC6
  8
3
 10
53.023442086304009
 20
100.5921207620998
 30
0.0
 11
53.018934996191909
 21
100.5831065818756
 31
0.0
  0
LINE
  5
11DC7
  8
3
 10
53.018934996191909
 20
100.5831065818756
 30
0.0
 11
53.01442790607976
 21
100.5740924016513
 31
0.0
  0
LINE
  5
11DC8
  8
3
 10
53.01442790607976
 20
100.5740924016513
 30
0.0
 11
53.009920815967547
 21
100.5650782214269
 31
0.0
  0
LINE
  5
11DC9
  8
3
 10
53.009920815967547
 20
100.5650782214269
 30
0.0
 11
53.009920815967547
 21
100.5560640412026
 31
0.0
  0
LINE
  5
11DCA
  8
3
 10
53.009920815967547
 20
100.5560640412026
 30
0.0
 11
53.005413725855448
 21
100.5470498609783
 31
0.0
  0
LINE
  5
11DCB
  8
3
 10
53.005413725855448
 20
100.5470498609783
 30
0.0
 11
53.005413725855448
 21
100.53803568075401
 31
0.0
  0
LINE
  5
11DCC
  8
3
 10
53.005413725855448
 20
100.53803568075401
 30
0.0
 11
53.000906635743227
 21
100.52902150052959
 31
0.0
  0
LINE
  5
11DCD
  8
3
 10
53.000906635743227
 20
100.52902150052959
 30
0.0
 11
53.000906635743227
 21
100.5200073203054
 31
0.0
  0
LINE
  5
11DCE
  8
3
 10
53.000906635743227
 20
100.5200073203054
 30
0.0
 11
53.000906635743227
 21
100.5064860499689
 31
0.0
  0
LINE
  5
11DCF
  8
3
 10
53.000906635743227
 20
100.5064860499689
 30
0.0
 11
53.005413725855448
 21
100.4974718697446
 31
0.0
  0
LINE
  5
11DD0
  8
3
 10
53.005413725855448
 20
100.4974718697446
 30
0.0
 11
53.005413725855448
 21
100.4884576895202
 31
0.0
  0
LINE
  5
11DD1
  8
3
 10
53.005413725855448
 20
100.4884576895202
 30
0.0
 11
53.01442790607976
 21
100.47042932907161
 31
0.0
  0
LINE
  5
11DD2
  8
3
 10
53.01442790607976
 20
100.47042932907161
 30
0.0
 11
53.023442086304009
 21
100.45690805873519
 31
0.0
  0
LINE
  5
11DD3
  8
3
 10
53.023442086304009
 20
100.45690805873519
 30
0.0
 11
53.032456266528328
 21
100.4478938785108
 31
0.0
  0
LINE
  5
11DD4
  8
3
 10
53.032456266528328
 20
100.4478938785108
 30
0.0
 11
53.041470446752641
 21
100.4388796982866
 31
0.0
  0
LINE
  5
11DD5
  8
3
 10
53.041470446752641
 20
100.4388796982866
 30
0.0
 11
53.04597753686479
 21
100.4298655180623
 31
0.0
  0
LINE
  5
11DD6
  8
3
 10
53.118090978659239
 20
100.6191633027728
 30
0.0
 11
53.095555528098508
 21
100.61465621266061
 31
0.0
  0
LINE
  5
11DD7
  8
3
 10
53.054991717089109
 20
100.4163442477258
 30
0.0
 11
53.064005897313422
 21
100.4073300675015
 31
0.0
  0
LINE
  5
11DD8
  8
3
 10
53.064005897313422
 20
100.4073300675015
 30
0.0
 11
53.073020077537727
 21
100.39380879716499
 31
0.0
  0
LINE
  5
11DD9
  8
3
 10
53.073020077537727
 20
100.39380879716499
 30
0.0
 11
53.082034257762047
 21
100.3847946169407
 31
0.0
  0
LINE
  5
11DDA
  8
3
 10
53.082034257762047
 20
100.3847946169407
 30
0.0
 11
53.091048437986352
 21
100.3712733466043
 31
0.0
  0
LINE
  5
11DDB
  8
3
 10
53.091048437986352
 20
100.3712733466043
 30
0.0
 11
53.100062618210671
 21
100.3577520762678
 31
0.0
  0
LINE
  5
11DDC
  8
3
 10
53.100062618210671
 20
100.3577520762678
 30
0.0
 11
53.109076798434991
 21
100.3487378960435
 31
0.0
  0
LINE
  5
11DDD
  8
3
 10
53.109076798434991
 20
100.3487378960435
 30
0.0
 11
53.118090978659239
 21
100.33521662570701
 31
0.0
  0
LINE
  5
11DDE
  8
3
 10
53.118090978659239
 20
100.33521662570701
 30
0.0
 11
53.122598068771403
 21
100.32169535537049
 31
0.0
  0
LINE
  5
11DDF
  8
3
 10
53.122598068771403
 20
100.32169535537049
 30
0.0
 11
53.131612248995701
 21
100.3126811751462
 31
0.0
  0
LINE
  5
11DE0
  8
3
 10
52.31582893869566
 20
100.95719506118439
 30
0.0
 11
52.320336028807823
 21
100.96620924140861
 31
0.0
  0
LINE
  5
11DE1
  8
3
 10
52.320336028807823
 20
100.96620924140861
 30
0.0
 11
52.34737856948076
 21
101.0022659623059
 31
0.0
  0
LINE
  5
11DE2
  8
3
 10
52.270758037574147
 20
100.82648944793191
 30
0.0
 11
52.270758037574147
 21
100.8400107182683
 31
0.0
  0
LINE
  5
11DE3
  8
3
 10
52.270758037574147
 20
100.8400107182683
 30
0.0
 11
52.275265127686311
 21
100.8490248984927
 31
0.0
  0
LINE
  5
11DE4
  8
3
 10
52.275265127686311
 20
100.8490248984927
 30
0.0
 11
52.279772217798467
 21
100.8625461688291
 31
0.0
  0
LINE
  5
11DE5
  8
3
 10
52.266250947461998
 20
100.799446907259
 30
0.0
 11
52.266250947461998
 21
100.81296817759539
 31
0.0
  0
LINE
  5
11DE6
  8
3
 10
52.266250947461998
 20
100.81296817759539
 30
0.0
 11
52.270758037574147
 21
100.82648944793191
 31
0.0
  0
LINE
  5
11DE7
  8
3
 10
52.284279307910559
 20
100.8715603490536
 30
0.0
 11
52.288786398022779
 21
100.88057452927779
 31
0.0
  0
LINE
  5
11DE8
  8
3
 10
52.279772217798467
 20
100.8625461688291
 30
0.0
 11
52.284279307910559
 21
100.8715603490536
 31
0.0
  0
LINE
  5
11DE9
  8
3
 10
52.288786398022779
 20
100.88057452927779
 30
0.0
 11
52.302307668359248
 21
100.9031099798386
 31
0.0
  0
LINE
  5
11DEA
  8
3
 10
52.302307668359248
 20
100.9031099798386
 30
0.0
 11
52.302307668359248
 21
100.9076170699507
 31
0.0
  0
LINE
  5
11DEB
  8
3
 10
52.302307668359248
 20
100.9076170699507
 30
0.0
 11
52.302307668359248
 21
100.9121241600629
 31
0.0
  0
LINE
  5
11DEC
  8
3
 10
52.302307668359248
 20
100.9121241600629
 30
0.0
 11
52.302307668359248
 21
100.916631250175
 31
0.0
  0
LINE
  5
11DED
  8
3
 10
52.302307668359248
 20
100.916631250175
 30
0.0
 11
52.302307668359248
 21
100.9211383402871
 31
0.0
  0
LINE
  5
11DEE
  8
3
 10
52.302307668359248
 20
100.9211383402871
 30
0.0
 11
52.302307668359248
 21
100.9256454303992
 31
0.0
  0
LINE
  5
11DEF
  8
3
 10
52.302307668359248
 20
100.9256454303992
 30
0.0
 11
52.30681475847134
 21
100.9301525205114
 31
0.0
  0
LINE
  5
11DF0
  8
3
 10
52.30681475847134
 20
100.9301525205114
 30
0.0
 11
52.30681475847134
 21
100.9346596106236
 31
0.0
  0
LINE
  5
11DF1
  8
3
 10
52.30681475847134
 20
100.9346596106236
 30
0.0
 11
52.30681475847134
 21
100.9391667007358
 31
0.0
  0
LINE
  5
11DF2
  8
3
 10
52.30681475847134
 20
100.9391667007358
 30
0.0
 11
52.30681475847134
 21
100.943673790848
 31
0.0
  0
LINE
  5
11DF3
  8
3
 10
52.30681475847134
 20
100.943673790848
 30
0.0
 11
52.30681475847134
 21
100.94818088096009
 31
0.0
  0
LINE
  5
11DF4
  8
3
 10
52.30681475847134
 20
100.94818088096009
 30
0.0
 11
52.31132184858356
 21
100.95268797107219
 31
0.0
  0
LINE
  5
11DF5
  8
3
 10
52.31132184858356
 20
100.95268797107219
 30
0.0
 11
52.31132184858356
 21
100.95719506118439
 31
0.0
  0
LINE
  5
11DF6
  8
3
 10
52.31132184858356
 20
100.95719506118439
 30
0.0
 11
52.31582893869566
 21
100.95719506118439
 31
0.0
  0
LINE
  5
11DF7
  8
3
 10
51.901176648377458
 20
100.6642342038943
 30
0.0
 11
51.829063206582958
 21
100.6642342038943
 31
0.0
  0
LINE
  5
11DF8
  8
3
 10
51.522581078956392
 20
100.6687412940064
 30
0.0
 11
51.450467637161893
 21
100.6687412940064
 31
0.0
  0
LINE
  5
11DF9
  8
3
 10
51.599201610863041
 20
100.6687412940064
 30
0.0
 11
51.522581078956392
 21
100.6687412940064
 31
0.0
  0
LINE
  5
11DFA
  8
3
 10
51.752442674676303
 20
100.6642342038943
 30
0.0
 11
51.675822142769697
 21
100.6687412940064
 31
0.0
  0
LINE
  5
11DFB
  8
3
 10
51.675822142769697
 20
100.6687412940064
 30
0.0
 11
51.599201610863041
 21
100.6687412940064
 31
0.0
  0
LINE
  5
11DFC
  8
3
 10
51.829063206582958
 20
100.6642342038943
 30
0.0
 11
51.752442674676303
 21
100.6642342038943
 31
0.0
  0
LINE
  5
11DFD
  8
3
 10
52.0454035319664
 20
100.9121241600629
 30
0.0
 11
52.040896441854237
 21
100.8625461688291
 31
0.0
  0
LINE
  5
11DFE
  8
3
 10
52.0454035319664
 20
100.95719506118439
 30
0.0
 11
52.0454035319664
 21
100.9121241600629
 31
0.0
  0
LINE
  5
11DFF
  8
3
 10
52.261743857349842
 20
100.2676102740247
 30
0.0
 11
52.248222587013373
 21
100.3126811751462
 31
0.0
  0
LINE
  5
11E00
  8
3
 10
52.248222587013373
 20
100.3126811751462
 30
0.0
 11
52.239208406789061
 21
100.3622591663799
 31
0.0
  0
LINE
  5
11E01
  8
3
 10
52.239208406789061
 20
100.3622591663799
 30
0.0
 11
52.230194226564748
 21
100.4118371576135
 31
0.0
  0
LINE
  5
11E02
  8
3
 10
52.230194226564748
 20
100.4118371576135
 30
0.0
 11
52.225687136452592
 21
100.46141514884739
 31
0.0
  0
LINE
  5
11E03
  8
3
 10
52.225687136452592
 20
100.46141514884739
 30
0.0
 11
52.221180046340443
 21
100.5109931400811
 31
0.0
  0
LINE
  5
11E04
  8
3
 10
52.221180046340443
 20
100.5109931400811
 30
0.0
 11
52.221180046340443
 21
100.5605711313147
 31
0.0
  0
LINE
  5
11E05
  8
3
 10
52.221180046340443
 20
100.5605711313147
 30
0.0
 11
52.221180046340443
 21
100.61014912254851
 31
0.0
  0
LINE
  5
11E06
  8
3
 10
52.221180046340443
 20
100.61014912254851
 30
0.0
 11
52.239208406789061
 21
100.7093051050159
 31
0.0
  0
LINE
  5
11E07
  8
3
 10
52.239208406789061
 20
100.7093051050159
 30
0.0
 11
52.243715496901217
 21
100.7228263753523
 31
0.0
  0
LINE
  5
11E08
  8
3
 10
52.243715496901217
 20
100.7228263753523
 30
0.0
 11
52.248222587013373
 21
100.7363476456888
 31
0.0
  0
LINE
  5
11E09
  8
3
 10
52.248222587013373
 20
100.7363476456888
 30
0.0
 11
52.252729677125529
 21
100.74986891602509
 31
0.0
  0
LINE
  5
11E0A
  8
3
 10
52.252729677125529
 20
100.74986891602509
 30
0.0
 11
52.257236767237679
 21
100.7633901863618
 31
0.0
  0
LINE
  5
11E0B
  8
3
 10
52.257236767237679
 20
100.7633901863618
 30
0.0
 11
52.257236767237679
 21
100.7769114566982
 31
0.0
  0
LINE
  5
11E0C
  8
3
 10
52.257236767237679
 20
100.7769114566982
 30
0.0
 11
52.261743857349842
 21
100.7904327270346
 31
0.0
  0
LINE
  5
11E0D
  8
3
 10
52.0454035319664
 20
100.81747526770749
 30
0.0
 11
52.0454035319664
 21
100.7678972764738
 31
0.0
  0
LINE
  5
11E0E
  8
3
 10
52.0454035319664
 20
100.7678972764738
 30
0.0
 11
52.054417712190713
 21
100.67775547423069
 31
0.0
  0
LINE
  5
11E0F
  8
3
 10
52.054417712190713
 20
100.67775547423069
 30
0.0
 11
51.977797180284057
 21
100.6687412940064
 31
0.0
  0
LINE
  5
11E10
  8
3
 10
51.959768819835432
 20
100.47493641918381
 30
0.0
 11
51.959768819835432
 21
100.4298655180623
 31
0.0
  0
LINE
  5
11E11
  8
3
 10
51.959768819835432
 20
100.4298655180623
 30
0.0
 11
51.959768819835432
 21
100.38930170705289
 31
0.0
  0
LINE
  5
11E12
  8
3
 10
51.959768819835432
 20
100.38930170705289
 30
0.0
 11
51.964275909947581
 21
100.3532449861556
 31
0.0
  0
LINE
  5
11E13
  8
3
 10
51.964275909947581
 20
100.3532449861556
 30
0.0
 11
51.964275909947581
 21
100.31718826525839
 31
0.0
  0
LINE
  5
11E14
  8
3
 10
51.964275909947581
 20
100.31718826525839
 30
0.0
 11
51.964275909947581
 21
100.2856386344733
 31
0.0
  0
LINE
  5
11E15
  8
3
 10
51.964275909947581
 20
100.2856386344733
 30
0.0
 11
51.968783000059737
 21
100.25408900368809
 31
0.0
  0
LINE
  5
11E16
  8
3
 10
51.977797180284057
 20
100.6687412940064
 30
0.0
 11
51.901176648377458
 21
100.6642342038943
 31
0.0
  0
LINE
  5
11E17
  8
3
 10
52.040896441854237
 20
100.8625461688291
 30
0.0
 11
52.0454035319664
 21
100.81747526770749
 31
0.0
  0
LINE
  5
11E18
  8
3
 10
52.261743857349842
 20
100.7904327270346
 30
0.0
 11
52.266250947461998
 21
100.799446907259
 31
0.0
  0
LINE
  5
11E19
  8
3
 10
52.41047783105094
 20
99.97464941673465
 30
0.0
 11
52.383435290378003
 21
100.0107061376318
 31
0.0
  0
LINE
  5
11E1A
  8
3
 10
52.505126723406221
 20
99.780844541912046
 30
0.0
 11
52.505126723406221
 21
99.798872902360571
 31
0.0
  0
LINE
  5
11E1B
  8
3
 10
52.500619633294001
 20
99.740280730902526
 30
0.0
 11
52.505126723406221
 21
99.753802001238995
 31
0.0
  0
LINE
  5
11E1C
  8
3
 10
52.496112543181908
 20
99.722252370453916
 30
0.0
 11
52.500619633294001
 21
99.731266550678214
 31
0.0
  0
LINE
  5
11E1D
  8
3
 10
52.500619633294001
 20
99.731266550678214
 30
0.0
 11
52.500619633294001
 21
99.740280730902526
 31
0.0
  0
LINE
  5
11E1E
  8
3
 10
52.505126723406221
 20
99.753802001238995
 30
0.0
 11
52.505126723406221
 21
99.767323271575464
 31
0.0
  0
LINE
  5
11E1F
  8
3
 10
52.505126723406221
 20
99.767323271575464
 30
0.0
 11
52.505126723406221
 21
99.780844541912046
 31
0.0
  0
LINE
  5
11E20
  8
3
 10
52.500619633294001
 20
99.848450893594276
 30
0.0
 11
52.500619633294001
 21
99.861972163930744
 31
0.0
  0
LINE
  5
11E21
  8
3
 10
52.505126723406221
 20
99.830422533145651
 30
0.0
 11
52.500619633294001
 21
99.848450893594276
 31
0.0
  0
LINE
  5
11E22
  8
3
 10
52.505126723406221
 20
99.798872902360571
 30
0.0
 11
52.505126723406221
 21
99.812394172697026
 31
0.0
  0
LINE
  5
11E23
  8
3
 10
52.505126723406221
 20
99.812394172697026
 30
0.0
 11
52.505126723406221
 21
99.830422533145651
 31
0.0
  0
LINE
  5
11E24
  8
3
 10
52.491605453069752
 20
99.902535974940164
 30
0.0
 11
52.41047783105094
 21
99.97464941673465
 31
0.0
  0
LINE
  5
11E25
  8
3
 10
52.500619633294001
 20
99.861972163930744
 30
0.0
 11
52.496112543181908
 21
99.875493434267213
 31
0.0
  0
LINE
  5
11E26
  8
3
 10
52.496112543181908
 20
99.875493434267213
 30
0.0
 11
52.491605453069752
 21
99.902535974940164
 31
0.0
  0
LINE
  5
11E27
  8
3
 10
52.356392749705122
 20
100.04676285852911
 30
0.0
 11
52.333857299144277
 21
100.0873266695385
 31
0.0
  0
LINE
  5
11E28
  8
3
 10
52.333857299144277
 20
100.0873266695385
 30
0.0
 11
52.31132184858356
 21
100.13239757066
 31
0.0
  0
LINE
  5
11E29
  8
3
 10
52.31132184858356
 20
100.13239757066
 30
0.0
 11
52.293293488134928
 21
100.1729613816694
 31
0.0
  0
LINE
  5
11E2A
  8
3
 10
52.293293488134928
 20
100.1729613816694
 30
0.0
 11
52.275265127686311
 21
100.2225393729031
 31
0.0
  0
LINE
  5
11E2B
  8
3
 10
52.383435290378003
 20
100.0107061376318
 30
0.0
 11
52.356392749705122
 21
100.04676285852911
 31
0.0
  0
LINE
  5
11E2C
  8
3
 10
52.491605453069752
 20
99.713238190229589
 30
0.0
 11
52.496112543181908
 21
99.713238190229589
 31
0.0
  0
LINE
  5
11E2D
  8
3
 10
52.324843118920029
 20
99.690702739668808
 30
0.0
 11
52.491605453069752
 21
99.713238190229589
 31
0.0
  0
LINE
  5
11E2E
  8
3
 10
52.496112543181908
 20
99.713238190229589
 30
0.0
 11
52.496112543181908
 21
99.722252370453916
 31
0.0
  0
LINE
  5
11E2F
  8
3
 10
51.833570296695051
 20
99.654646018771558
 30
0.0
 11
51.914697918713927
 21
99.659153108883714
 31
0.0
  0
LINE
  5
11E30
  8
3
 10
51.423425096489012
 20
99.668167289108084
 30
0.0
 11
51.509059808619917
 21
99.663660198995984
 31
0.0
  0
LINE
  5
11E31
  8
3
 10
51.509059808619917
 20
99.663660198995984
 30
0.0
 11
51.590187430638743
 21
99.659153108883714
 31
0.0
  0
LINE
  5
11E32
  8
3
 10
51.67131505265754
 20
99.659153108883714
 30
0.0
 11
51.752442674676303
 21
99.654646018771558
 31
0.0
  0
LINE
  5
11E33
  8
3
 10
51.590187430638743
 20
99.659153108883714
 30
0.0
 11
51.67131505265754
 21
99.659153108883714
 31
0.0
  0
LINE
  5
11E34
  8
3
 10
51.752442674676303
 20
99.654646018771558
 30
0.0
 11
51.833570296695051
 21
99.654646018771558
 31
0.0
  0
LINE
  5
11E35
  8
3
 10
51.968783000059737
 20
100.2225393729031
 30
0.0
 11
51.968783000059737
 21
100.19549683223021
 31
0.0
  0
LINE
  5
11E36
  8
3
 10
51.968783000059737
 20
100.19549683223021
 30
0.0
 11
51.968783000059737
 21
100.1684542915573
 31
0.0
  0
LINE
  5
11E37
  8
3
 10
51.968783000059737
 20
100.1684542915573
 30
0.0
 11
51.968783000059737
 21
100.1414117508844
 31
0.0
  0
LINE
  5
11E38
  8
3
 10
51.968783000059737
 20
100.1414117508844
 30
0.0
 11
51.968783000059737
 21
100.11436921021129
 31
0.0
  0
LINE
  5
11E39
  8
3
 10
51.968783000059737
 20
100.11436921021129
 30
0.0
 11
51.968783000059737
 21
100.0873266695385
 31
0.0
  0
LINE
  5
11E3A
  8
3
 10
51.968783000059737
 20
100.0873266695385
 30
0.0
 11
51.973290090171901
 21
100.0602841288655
 31
0.0
  0
LINE
  5
11E3B
  8
3
 10
51.973290090171901
 20
100.0602841288655
 30
0.0
 11
51.973290090171901
 21
100.03324158819269
 31
0.0
  0
LINE
  5
11E3C
  8
3
 10
51.973290090171901
 20
100.03324158819269
 30
0.0
 11
51.977797180284057
 21
99.97915650684682
 31
0.0
  0
LINE
  5
11E3D
  8
3
 10
51.977797180284057
 20
99.97915650684682
 30
0.0
 11
51.973290090171901
 21
99.97464941673465
 31
0.0
  0
LINE
  5
11E3E
  8
3
 10
51.973290090171901
 20
99.97464941673465
 30
0.0
 11
51.973290090171901
 21
99.970142326622494
 31
0.0
  0
LINE
  5
11E3F
  8
3
 10
51.973290090171901
 20
99.970142326622494
 30
0.0
 11
51.973290090171901
 21
99.965635236510224
 31
0.0
  0
LINE
  5
11E40
  8
3
 10
51.973290090171901
 20
99.965635236510224
 30
0.0
 11
51.973290090171901
 21
99.961128146398181
 31
0.0
  0
LINE
  5
11E41
  8
3
 10
51.973290090171901
 20
99.961128146398181
 30
0.0
 11
51.973290090171901
 21
99.956621056285911
 31
0.0
  0
LINE
  5
11E42
  8
3
 10
51.973290090171901
 20
99.956621056285911
 30
0.0
 11
51.973290090171901
 21
99.952113966173755
 31
0.0
  0
LINE
  5
11E43
  8
3
 10
51.973290090171901
 20
99.952113966173755
 30
0.0
 11
51.973290090171901
 21
99.947606876061585
 31
0.0
  0
LINE
  5
11E44
  8
3
 10
51.973290090171901
 20
99.947606876061585
 30
0.0
 11
51.968783000059737
 21
99.947606876061585
 31
0.0
  0
LINE
  5
11E45
  8
3
 10
51.968783000059737
 20
99.947606876061585
 30
0.0
 11
51.968783000059737
 21
99.943099785949556
 31
0.0
  0
LINE
  5
11E46
  8
3
 10
51.968783000059737
 20
99.943099785949556
 30
0.0
 11
51.968783000059737
 21
99.938592695837301
 31
0.0
  0
LINE
  5
11E47
  8
3
 10
51.968783000059737
 20
99.938592695837301
 30
0.0
 11
51.968783000059737
 21
99.93408560572513
 31
0.0
  0
LINE
  5
11E48
  8
3
 10
51.968783000059737
 20
99.93408560572513
 30
0.0
 11
51.968783000059737
 21
99.929578515613088
 31
0.0
  0
ARC
  5
11E49
  8
3
 10
52.111369965914292
 20
99.569479094086816
 30
0.0
 40
0.1008760780793214
 50
101.9548373798287
 51
174.968359139189
  0
LINE
  5
11E4A
  8
3
 10
52.076953162751487
 20
99.668167289108084
 30
0.0
 11
52.158080784770242
 21
99.672674379220183
 31
0.0
  0
LINE
  5
11E4B
  8
3
 10
52.094981523200119
 20
99.483376594509735
 30
0.0
 11
52.090474433087962
 21
99.668167289108084
 31
0.0
  0
LINE
  5
11E4C
  8
3
 10
52.004839720957001
 20
99.523940405519028
 30
0.0
 11
52.000332630844838
 21
99.483376594509735
 31
0.0
  0
LINE
  5
11E4D
  8
3
 10
52.010882622320729
 20
99.578326517792647
 30
0.0
 11
52.004839720957001
 21
99.523940405519028
 31
0.0
  0
LINE
  5
11E4E
  8
3
 10
52.090474433087962
 20
99.668167289108084
 30
0.0
 11
52.076953162751487
 21
99.668167289108084
 31
0.0
  0
LINE
  5
11E4F
  8
3
 10
51.995825540732682
 20
99.659153108883714
 30
0.0
 11
52.076953162751487
 21
99.668167289108084
 31
0.0
  0
LINE
  5
11E50
  8
3
 10
51.914697918713927
 20
99.659153108883714
 30
0.0
 11
51.995825540732682
 21
99.659153108883714
 31
0.0
  0
LINE
  5
11E51
  8
3
 10
52.158080784770242
 20
99.672674379220183
 30
0.0
 11
52.239208406789061
 21
99.681688559444495
 31
0.0
  0
LINE
  5
11E52
  8
3
 10
52.239208406789061
 20
99.681688559444495
 30
0.0
 11
52.324843118920029
 21
99.690702739668808
 31
0.0
  0
LINE
  5
11E53
  8
3
 10
52.275265127686311
 20
100.2225393729031
 30
0.0
 11
52.261743857349842
 21
100.2676102740247
 31
0.0
  0
LINE
  5
11E54
  8
3
 10
51.968783000059737
 20
100.25408900368809
 30
0.0
 11
51.968783000059737
 21
100.2225393729031
 31
0.0
  0
LINE
  5
11E55
  8
3
 10
51.37835419536745
 20
100.6687412940064
 30
0.0
 11
51.306240753572951
 21
100.6597271137822
 31
0.0
  0
LINE
  5
11E56
  8
3
 10
51.306240753572951
 20
100.6597271137822
 30
0.0
 11
51.238634401890657
 21
100.6507129335579
 31
0.0
  0
LINE
  5
11E57
  8
3
 10
51.238634401890657
 20
100.6507129335579
 30
0.0
 11
51.175535140320477
 21
100.6326845731092
 31
0.0
  0
LINE
  5
11E58
  8
3
 10
51.175535140320477
 20
100.6326845731092
 30
0.0
 11
51.11243587875029
 21
100.61014912254851
 31
0.0
  0
LINE
  5
11E59
  8
3
 10
51.11243587875029
 20
100.61014912254851
 30
0.0
 11
51.04933661718016
 21
100.5831065818756
 31
0.0
  0
LINE
  5
11E5A
  8
3
 10
51.04933661718016
 20
100.5831065818756
 30
0.0
 11
50.945673544600567
 21
100.5019789598567
 31
0.0
  0
LINE
  5
11E5B
  8
3
 10
50.945673544600567
 20
100.5019789598567
 30
0.0
 11
50.945673544600567
 21
100.4974718697446
 31
0.0
  0
LINE
  5
11E5C
  8
3
 10
50.945673544600567
 20
100.4974718697446
 30
0.0
 11
50.945673544600567
 21
100.4929647796325
 31
0.0
  0
LINE
  5
11E5D
  8
3
 10
50.945673544600567
 20
100.4929647796325
 30
0.0
 11
50.945673544600567
 21
100.4884576895202
 31
0.0
  0
LINE
  5
11E5E
  8
3
 10
50.945673544600567
 20
100.4884576895202
 30
0.0
 11
50.945673544600567
 21
100.4839505994081
 31
0.0
  0
LINE
  5
11E5F
  8
3
 10
50.945673544600567
 20
100.4839505994081
 30
0.0
 11
50.950180634712723
 21
100.4839505994081
 31
0.0
  0
LINE
  5
11E60
  8
3
 10
50.950180634712723
 20
100.4839505994081
 30
0.0
 11
50.950180634712723
 21
100.4794435092959
 31
0.0
  0
LINE
  5
11E61
  8
3
 10
50.950180634712723
 20
100.4794435092959
 30
0.0
 11
50.954687724824879
 21
100.4794435092959
 31
0.0
  0
LINE
  5
11E62
  8
3
 10
50.954687724824879
 20
100.4794435092959
 30
0.0
 11
50.954687724824879
 21
100.47493641918381
 31
0.0
  0
LINE
  5
11E63
  8
3
 10
50.954687724824879
 20
100.47493641918381
 30
0.0
 11
50.959194814937028
 21
100.47493641918381
 31
0.0
  0
LINE
  5
11E64
  8
3
 10
50.959194814937028
 20
100.47493641918381
 30
0.0
 11
50.968208995161348
 21
100.47493641918381
 31
0.0
  0
LINE
  5
11E65
  8
3
 10
51.035815346843627
 20
99.794365812248401
 30
0.0
 11
51.053843707292252
 21
99.77633745179979
 31
0.0
  0
LINE
  5
11E66
  8
3
 10
51.053843707292252
 20
99.77633745179979
 30
0.0
 11
51.076379157853097
 21
99.762816181463364
 31
0.0
  0
LINE
  5
11E67
  8
3
 10
51.076379157853097
 20
99.762816181463364
 30
0.0
 11
51.094407518301722
 21
99.744787821014739
 31
0.0
  0
LINE
  5
11E68
  8
3
 10
51.094407518301722
 20
99.744787821014739
 30
0.0
 11
51.116942968862453
 21
99.731266550678214
 31
0.0
  0
LINE
  5
11E69
  8
3
 10
51.116942968862453
 20
99.731266550678214
 30
0.0
 11
51.134971329311071
 21
99.722252370453916
 31
0.0
  0
LINE
  5
11E6A
  8
3
 10
50.963701905049192
 20
99.861972163930744
 30
0.0
 11
50.981730265497809
 21
99.843943803482134
 31
0.0
  0
LINE
  5
11E6B
  8
3
 10
50.981730265497809
 20
99.843943803482134
 30
0.0
 11
50.995251535834278
 21
99.830422533145651
 31
0.0
  0
LINE
  5
11E6C
  8
3
 10
50.995251535834278
 20
99.830422533145651
 30
0.0
 11
51.017786986395059
 21
99.812394172697026
 31
0.0
  0
LINE
  5
11E6D
  8
3
 10
51.017786986395059
 20
99.812394172697026
 30
0.0
 11
51.035815346843627
 21
99.794365812248401
 31
0.0
  0
LINE
  5
11E6E
  8
3
 10
50.936659364376247
 20
99.911550155164477
 30
0.0
 11
50.94116645448841
 21
99.893521794715838
 31
0.0
  0
LINE
  5
11E6F
  8
3
 10
50.94116645448841
 20
99.893521794715838
 30
0.0
 11
50.950180634712723
 21
99.880000524379369
 31
0.0
  0
LINE
  5
11E70
  8
3
 10
50.950180634712723
 20
99.880000524379369
 30
0.0
 11
50.963701905049192
 21
99.861972163930744
 31
0.0
  0
LINE
  5
11E71
  8
3
 10
50.936659364376247
 20
99.925071425500946
 30
0.0
 11
50.936659364376247
 21
99.911550155164477
 31
0.0
  0
LINE
  5
11E72
  8
3
 10
51.14849259964754
 20
99.708731100117447
 30
0.0
 11
51.175535140320477
 21
99.695209829780964
 31
0.0
  0
LINE
  5
11E73
  8
3
 10
51.175535140320477
 20
99.695209829780964
 30
0.0
 11
51.256662762339282
 21
99.681688559444495
 31
0.0
  0
LINE
  5
11E74
  8
3
 10
51.256662762339282
 20
99.681688559444495
 30
0.0
 11
51.3422974744702
 21
99.677181469332396
 31
0.0
  0
LINE
  5
11E75
  8
3
 10
51.134971329311071
 20
99.722252370453916
 30
0.0
 11
51.14849259964754
 21
99.708731100117447
 31
0.0
  0
LINE
  5
11E76
  8
3
 10
50.968208995161348
 20
100.47493641918381
 30
0.0
 11
51.959768819835432
 21
100.47493641918381
 31
0.0
  0
LINE
  5
11E77
  8
3
 10
51.968783000059737
 20
99.929578515613088
 30
0.0
 11
50.936659364376247
 21
99.925071425500946
 31
0.0
  0
LINE
  5
11E78
  8
3
 10
51.3422974744702
 20
99.677181469332396
 30
0.0
 11
51.423425096489012
 21
99.668167289108084
 31
0.0
  0
LINE
  5
11E79
  8
3
 10
51.450467637161893
 20
100.6687412940064
 30
0.0
 11
51.37835419536745
 21
100.6687412940064
 31
0.0
  0
LINE
  5
11E7A
  8
3
 10
52.423999101387409
 20
98.938018690938947
 30
0.0
 11
52.387942380490159
 21
98.933511600826805
 31
0.0
  0
LINE
  5
11E7B
  8
3
 10
52.753016679574699
 20
99.001117952509134
 30
0.0
 11
52.67188905755588
 21
98.974075411836196
 31
0.0
  0
LINE
  5
11E7C
  8
3
 10
52.527662173967002
 20
98.942525781051103
 30
0.0
 11
52.491605453069752
 21
98.942525781051103
 31
0.0
  0
LINE
  5
11E7D
  8
3
 10
52.491605453069752
 20
98.942525781051103
 30
0.0
 11
52.460055822284659
 21
98.938018690938947
 31
0.0
  0
LINE
  5
11E7E
  8
3
 10
52.460055822284659
 20
98.938018690938947
 30
0.0
 11
52.423999101387409
 21
98.938018690938947
 31
0.0
  0
LINE
  5
11E7F
  8
3
 10
52.599775615761438
 20
98.956047051387586
 30
0.0
 11
52.563718894864202
 21
98.947032871163259
 31
0.0
  0
LINE
  5
11E80
  8
3
 10
52.563718894864202
 20
98.947032871163259
 30
0.0
 11
52.527662173967002
 21
98.942525781051103
 31
0.0
  0
LINE
  5
11E81
  8
3
 10
52.635832336658687
 20
98.960554141499728
 30
0.0
 11
52.599775615761438
 21
98.956047051387586
 31
0.0
  0
LINE
  5
11E82
  8
3
 10
52.67188905755588
 20
98.974075411836196
 30
0.0
 11
52.635832336658687
 21
98.960554141499728
 31
0.0
  0
LINE
  5
11E83
  8
3
 10
53.068512987425571
 20
99.230979548229101
 30
0.0
 11
53.036963356640477
 21
99.199429917444007
 31
0.0
  0
LINE
  5
11E84
  8
3
 10
53.036963356640477
 20
99.199429917444007
 30
0.0
 11
53.005413725855448
 21
99.1678802866588
 31
0.0
  0
LINE
  5
11E85
  8
3
 10
53.005413725855448
 20
99.1678802866588
 30
0.0
 11
52.973864095070297
 21
99.140837745985976
 31
0.0
  0
LINE
  5
11E86
  8
3
 10
52.973864095070297
 20
99.140837745985976
 30
0.0
 11
52.942314464285261
 21
99.109288115200883
 31
0.0
  0
LINE
  5
11E87
  8
3
 10
52.942314464285261
 20
99.109288115200883
 30
0.0
 11
52.906257743388011
 21
99.086752664640102
 31
0.0
  0
LINE
  5
11E88
  8
3
 10
52.906257743388011
 20
99.086752664640102
 30
0.0
 11
52.870201022490761
 21
99.059710123967164
 31
0.0
  0
LINE
  5
11E89
  8
3
 10
52.870201022490761
 20
99.059710123967164
 30
0.0
 11
52.829637211481348
 21
99.041681763518426
 31
0.0
  0
LINE
  5
11E8A
  8
3
 10
52.829637211481348
 20
99.041681763518426
 30
0.0
 11
52.793580490584098
 21
99.019146312957758
 31
0.0
  0
LINE
  5
11E8B
  8
3
 10
52.793580490584098
 20
99.019146312957758
 30
0.0
 11
52.753016679574699
 21
99.001117952509134
 31
0.0
  0
LINE
  5
11E8C
  8
3
 10
53.095555528098508
 20
99.267036269126351
 30
0.0
 11
53.068512987425571
 21
99.230979548229101
 31
0.0
  0
LINE
  5
11E8D
  8
3
 10
53.122598068771403
 20
99.303092990023487
 30
0.0
 11
53.095555528098508
 21
99.267036269126351
 31
0.0
  0
LINE
  5
11E8E
  8
3
 10
52.351885659592973
 20
98.933511600826805
 30
0.0
 11
52.320336028807823
 21
98.933511600826805
 31
0.0
  0
LINE
  5
11E8F
  8
3
 10
52.320336028807823
 20
98.933511600826805
 30
0.0
 11
52.284279307910559
 21
98.933511600826805
 31
0.0
  0
LINE
  5
11E90
  8
3
 10
52.387942380490159
 20
98.933511600826805
 30
0.0
 11
52.351885659592973
 21
98.933511600826805
 31
0.0
  0
LINE
  5
11E91
  8
3
 10
51.905683738489557
 20
99.010132132733446
 30
0.0
 11
51.847091567031583
 21
98.987596682172551
 31
0.0
  0
LINE
  5
11E92
  8
3
 10
51.847091567031583
 20
98.987596682172551
 30
0.0
 11
51.788499395573552
 21
98.969568321724054
 31
0.0
  0
LINE
  5
11E93
  8
3
 10
51.491031448171299
 20
98.929004510714535
 30
0.0
 11
51.427932186601161
 21
98.929004510714535
 31
0.0
  0
LINE
  5
11E94
  8
3
 10
51.612722881199517
 20
98.933511600826805
 30
0.0
 11
51.54962361962933
 21
98.933511600826805
 31
0.0
  0
LINE
  5
11E95
  8
3
 10
51.54962361962933
 20
98.933511600826805
 30
0.0
 11
51.491031448171299
 21
98.929004510714535
 31
0.0
  0
LINE
  5
11E96
  8
3
 10
51.734414314227728
 20
98.951539961275415
 30
0.0
 11
51.67131505265754
 21
98.942525781051103
 31
0.0
  0
LINE
  5
11E97
  8
3
 10
51.67131505265754
 20
98.942525781051103
 30
0.0
 11
51.612722881199517
 21
98.933511600826805
 31
0.0
  0
LINE
  5
11E98
  8
3
 10
51.788499395573552
 20
98.969568321724054
 30
0.0
 11
51.734414314227728
 21
98.951539961275415
 31
0.0
  0
LINE
  5
11E99
  8
3
 10
52.248222587013373
 20
98.933511600826805
 30
0.0
 11
52.21667295622828
 21
98.938018690938947
 31
0.0
  0
LINE
  5
11E9A
  8
3
 10
52.099488613312268
 20
99.303092990023487
 30
0.0
 11
52.099488613312268
 21
99.352670981257205
 31
0.0
  0
LINE
  5
11E9B
  8
3
 10
52.099488613312268
 20
99.352670981257205
 30
0.0
 11
52.099488613312268
 21
99.41126315271525
 31
0.0
  0
LINE
  5
11E9C
  8
3
 10
52.000332630844838
 20
99.438305693388173
 30
0.0
 11
51.995825540732682
 21
99.397741882378753
 31
0.0
  0
LINE
  5
11E9D
  8
3
 10
51.995825540732682
 20
99.397741882378753
 30
0.0
 11
51.995825540732682
 21
99.357178071369376
 31
0.0
  0
LINE
  5
11E9E
  8
3
 10
51.995825540732682
 20
99.357178071369376
 30
0.0
 11
51.991318450620518
 21
99.312107170247799
 31
0.0
  0
LINE
  5
11E9F
  8
3
 10
52.108502793536587
 20
98.983089592060509
 30
0.0
 11
52.103995703424431
 21
99.023653403069844
 31
0.0
  0
LINE
  5
11EA0
  8
3
 10
52.103995703424431
 20
99.023653403069844
 30
0.0
 11
52.099488613312268
 21
99.059710123967164
 31
0.0
  0
LINE
  5
11EA1
  8
3
 10
52.099488613312268
 20
99.059710123967164
 30
0.0
 11
52.099488613312268
 21
99.086752664640102
 31
0.0
  0
LINE
  5
11EA2
  8
3
 10
52.099488613312268
 20
99.086752664640102
 30
0.0
 11
52.099488613312268
 21
99.113795205313053
 31
0.0
  0
LINE
  5
11EA3
  8
3
 10
52.099488613312268
 20
99.113795205313053
 30
0.0
 11
52.099488613312268
 21
99.140837745985976
 31
0.0
  0
LINE
  5
11EA4
  8
3
 10
52.099488613312268
 20
99.140837745985976
 30
0.0
 11
52.099488613312268
 21
99.1678802866588
 31
0.0
  0
LINE
  5
11EA5
  8
3
 10
52.099488613312268
 20
99.1678802866588
 30
0.0
 11
52.099488613312268
 21
99.194922827331865
 31
0.0
  0
LINE
  5
11EA6
  8
3
 10
52.099488613312268
 20
99.194922827331865
 30
0.0
 11
52.099488613312268
 21
99.226472458116831
 31
0.0
  0
LINE
  5
11EA7
  8
3
 10
52.099488613312268
 20
99.226472458116831
 30
0.0
 11
52.099488613312268
 21
99.262529179014081
 31
0.0
  0
LINE
  5
11EA8
  8
3
 10
51.986811360508362
 20
99.271543359238521
 30
0.0
 11
51.98230427039622
 21
99.230979548229101
 31
0.0
  0
LINE
  5
11EA9
  8
3
 10
51.98230427039622
 20
99.230979548229101
 30
0.0
 11
51.977797180284057
 21
99.190415737219581
 31
0.0
  0
LINE
  5
11EAA
  8
3
 10
51.977797180284057
 20
99.190415737219581
 30
0.0
 11
51.968783000059737
 21
99.154359016322445
 31
0.0
  0
LINE
  5
11EAB
  8
3
 10
51.968783000059737
 20
99.154359016322445
 30
0.0
 11
51.955261729723283
 21
99.113795205313053
 31
0.0
  0
LINE
  5
11EAC
  8
3
 10
51.955261729723283
 20
99.113795205313053
 30
0.0
 11
51.9417404593868
 21
99.077738484415733
 31
0.0
  0
LINE
  5
11EAD
  8
3
 10
52.113009883648679
 20
98.938018690938947
 30
0.0
 11
52.108502793536587
 21
98.983089592060509
 31
0.0
  0
LINE
  5
11EAE
  8
3
 10
51.9417404593868
 20
99.077738484415733
 30
0.0
 11
51.905683738489557
 21
99.010132132733446
 31
0.0
  0
LINE
  5
11EAF
  8
3
 10
52.180616235331023
 20
98.938018690938947
 30
0.0
 11
52.113009883648679
 21
98.938018690938947
 31
0.0
  0
LINE
  5
11EB0
  8
3
 10
52.099488613312268
 20
99.262529179014081
 30
0.0
 11
52.099488613312268
 21
99.303092990023487
 31
0.0
  0
LINE
  5
11EB1
  8
3
 10
51.991318450620518
 20
99.312107170247799
 30
0.0
 11
51.986811360508362
 21
99.271543359238521
 31
0.0
  0
LINE
  5
11EB2
  8
3
 10
52.21667295622828
 20
98.938018690938947
 30
0.0
 11
52.180616235331023
 21
98.938018690938947
 31
0.0
  0
LINE
  5
11EB3
  8
3
 10
52.284279307910559
 20
98.933511600826805
 30
0.0
 11
52.248222587013373
 21
98.933511600826805
 31
0.0
  0
LINE
  5
11EB4
  8
3
 10
51.180042230432633
 20
98.951539961275415
 30
0.0
 11
51.121450058974602
 21
98.960554141499728
 31
0.0
  0
LINE
  5
11EB5
  8
3
 10
50.832996291796661
 20
99.023653403069844
 30
0.0
 11
50.805953751123781
 21
99.032667583294213
 31
0.0
  0
LINE
  5
11EB6
  8
3
 10
50.778911210450843
 20
99.04618885363071
 30
0.0
 11
50.756375759890062
 21
99.055203033854994
 31
0.0
  0
LINE
  5
11EB7
  8
3
 10
50.756375759890062
 20
99.055203033854994
 30
0.0
 11
50.729333219217132
 21
99.068724304191491
 31
0.0
  0
LINE
  5
11EB8
  8
3
 10
50.729333219217132
 20
99.068724304191491
 30
0.0
 11
50.706797768656351
 21
99.082245574527832
 31
0.0
  0
LINE
  5
11EB9
  8
3
 10
50.706797768656351
 20
99.082245574527832
 30
0.0
 11
50.679755227983406
 21
99.095766844864315
 31
0.0
  0
LINE
  5
11EBA
  8
3
 10
50.679755227983406
 20
99.095766844864315
 30
0.0
 11
50.657219777422632
 21
99.109288115200883
 31
0.0
  0
LINE
  5
11EBB
  8
3
 10
50.657219777422632
 20
99.109288115200883
 30
0.0
 11
50.634684326861837
 21
99.122809385537352
 31
0.0
  0
LINE
  5
11EBC
  8
3
 10
50.634684326861837
 20
99.122809385537352
 30
0.0
 11
50.607641786188907
 21
99.136330655873763
 31
0.0
  0
LINE
  5
11EBD
  8
3
 10
50.607641786188907
 20
99.136330655873763
 30
0.0
 11
50.585106335628183
 21
99.154359016322445
 31
0.0
  0
LINE
  5
11EBE
  8
3
 10
50.805953751123781
 20
99.032667583294213
 30
0.0
 11
50.778911210450843
 21
99.04618885363071
 31
0.0
  0
LINE
  5
11EBF
  8
3
 10
51.121450058974602
 20
98.960554141499728
 30
0.0
 11
51.062857887516572
 21
98.969568321724054
 31
0.0
  0
LINE
  5
11EC0
  8
3
 10
51.062857887516572
 20
98.969568321724054
 30
0.0
 11
50.945673544600567
 21
98.987596682172551
 31
0.0
  0
LINE
  5
11EC1
  8
3
 10
50.945673544600567
 20
98.987596682172551
 30
0.0
 11
50.914123913815473
 21
98.992103772284835
 31
0.0
  0
LINE
  5
11EC2
  8
3
 10
50.914123913815473
 20
98.992103772284835
 30
0.0
 11
50.887081373142529
 21
99.001117952509134
 31
0.0
  0
LINE
  5
11EC3
  8
3
 10
50.887081373142529
 20
99.001117952509134
 30
0.0
 11
50.860038832469591
 21
99.014639222845616
 31
0.0
  0
LINE
  5
11EC4
  8
3
 10
50.860038832469591
 20
99.014639222845616
 30
0.0
 11
50.832996291796661
 21
99.023653403069844
 31
0.0
  0
LINE
  5
11EC5
  8
3
 10
51.364832925030981
 20
98.933511600826805
 30
0.0
 11
51.306240753572951
 21
98.938018690938947
 31
0.0
  0
LINE
  5
11EC6
  8
3
 10
51.306240753572951
 20
98.938018690938947
 30
0.0
 11
51.24314149200282
 21
98.942525781051103
 31
0.0
  0
LINE
  5
11EC7
  8
3
 10
51.24314149200282
 20
98.942525781051103
 30
0.0
 11
51.180042230432633
 21
98.951539961275415
 31
0.0
  0
LINE
  5
11EC8
  8
3
 10
51.427932186601161
 20
98.929004510714535
 30
0.0
 11
51.364832925030981
 21
98.933511600826805
 31
0.0
  0
LINE
  5
11EC9
  8
3
 10
52.099488613312268
 20
99.41126315271525
 30
0.0
 11
52.094981523200119
 21
99.483376594509735
 31
0.0
  0
LINE
  5
11ECA
  8
3
 10
52.000332630844838
 20
99.483376594509735
 30
0.0
 11
52.000332630844838
 21
99.438305693388173
 31
0.0
  0
LINE
  5
11ECB
  8
3
 10
52.0454035319664
 20
101.0067730524181
 30
0.0
 11
52.0454035319664
 21
100.95719506118439
 31
0.0
  0
LINE
  5
11ECC
  8
3
 10
52.34737856948076
 20
101.0022659623059
 30
0.0
 11
52.374421110153747
 21
101.0428297733153
 31
0.0
  0
LINE
  5
11ECD
  8
3
 10
53.145133519332227
 20
99.339149710920736
 30
0.0
 11
53.122598068771403
 21
99.303092990023487
 31
0.0
  0
LINE
  5
11ECE
  8
3
 10
53.11358388854714
 20
101.4169182526241
 30
0.0
 11
53.145133519332227
 21
101.4169182526241
 31
0.0
  0
LINE
  5
11ECF
  8
3
 10
53.140626429220021
 20
100.6191633027728
 30
0.0
 11
53.118090978659239
 21
100.6191633027728
 31
0.0
  0
LINE
  5
11ED0
  8
3
 10
53.131612248995701
 20
100.3126811751462
 30
0.0
 11
53.154147699556489
 21
100.2901457245854
 31
0.0
  0
LINE
  5
11ED1
  8
3
 10
49.87298609790767
 20
102.0708769325917
 30
0.0
 11
49.877493188019884
 21
101.88114853417611
 31
0.0
  0
LINE
  5
11ED2
  8
3
 10
49.87298609790767
 20
102.2241179964049
 30
0.0
 11
49.87298609790767
 21
102.0708769325917
 31
0.0
  0
LINE
  5
11ED3
  8
3
 10
49.877493188019884
 20
101.7098791099142
 30
0.0
 11
49.877493188019884
 21
101.52508841531591
 31
0.0
  0
LINE
  5
11ED4
  8
3
 10
49.877493188019884
 20
101.52508841531591
 30
0.0
 11
49.882000278131983
 21
101.3402977207175
 31
0.0
  0
LINE
  5
11ED5
  8
3
 10
49.882000278131983
 20
101.3402977207175
 30
0.0
 11
49.882000278131983
 21
101.1509999360071
 31
0.0
  0
LINE
  5
11ED6
  8
3
 10
50.301159658562391
 20
101.0067730524181
 30
0.0
 11
50.346230559683953
 21
101.0518439535396
 31
0.0
  0
LINE
  5
11ED7
  8
3
 10
50.346230559683953
 20
101.0518439535396
 30
0.0
 11
50.395808550917678
 21
101.09691485466119
 31
0.0
  0
LINE
  5
11ED8
  8
3
 10
50.395808550917678
 20
101.09691485466119
 30
0.0
 11
50.445386542151397
 21
101.1374786656706
 31
0.0
  0
LINE
  5
11ED9
  8
3
 10
50.445386542151397
 20
101.1374786656706
 30
0.0
 11
50.494964533385051
 21
101.17804247667991
 31
0.0
  0
LINE
  5
11EDA
  8
3
 10
50.494964533385051
 20
101.17804247667991
 30
0.0
 11
50.549049614730933
 21
101.2140991975772
 31
0.0
  0
LINE
  5
11EDB
  8
3
 10
49.877493188019884
 20
101.88114853417611
 30
0.0
 11
49.877493188019884
 21
101.7098791099142
 31
0.0
  0
LINE
  5
11EDC
  8
3
 10
49.079738238168403
 20
101.2140991975772
 30
0.0
 11
49.081991783224481
 21
101.3267764503811
 31
0.0
  0
LINE
  5
11EDD
  8
3
 10
48.07465714315785
 20
101.4800175141943
 30
0.0
 11
48.119728044279348
 21
101.4845246043065
 31
0.0
  0
LINE
  5
11EDE
  8
3
 10
47.921416079344532
 20
101.4619891537458
 30
0.0
 11
47.943951529905313
 21
101.4619891537458
 31
0.0
  0
LINE
  5
11EDF
  8
3
 10
47.943951529905313
 20
101.4619891537458
 30
0.0
 11
47.966486980466101
 21
101.466496243858
 31
0.0
  0
LINE
  5
11EE0
  8
3
 10
47.966486980466101
 20
101.466496243858
 30
0.0
 11
47.989022431026882
 21
101.4710033339701
 31
0.0
  0
LINE
  5
11EE1
  8
3
 10
47.989022431026882
 20
101.4710033339701
 30
0.0
 11
48.011557881587663
 21
101.4710033339701
 31
0.0
  0
LINE
  5
11EE2
  8
3
 10
48.011557881587663
 20
101.4710033339701
 30
0.0
 11
48.029586242036288
 21
101.4755104240822
 31
0.0
  0
LINE
  5
11EE3
  8
3
 10
48.029586242036288
 20
101.4755104240822
 30
0.0
 11
48.052121692597069
 21
101.4800175141943
 31
0.0
  0
LINE
  5
11EE4
  8
3
 10
48.052121692597069
 20
101.4800175141943
 30
0.0
 11
48.07465714315785
 21
101.4800175141943
 31
0.0
  0
LINE
  5
11EE5
  8
3
 10
48.119728044279348
 20
101.4845246043065
 30
0.0
 11
48.119728044279348
 21
101.4845246043065
 31
0.0
  0
LINE
  5
11EE6
  8
3
 10
48.119728044279348
 20
101.4845246043065
 30
0.0
 11
48.953539715028029
 21
101.4890316944187
 31
0.0
  0
LINE
  5
11EE7
  8
3
 10
49.081991783224481
 20
101.3267764503811
 30
0.0
 11
49.067408977892541
 21
102.2241179964049
 31
0.0
  0
LINE
  5
11EE8
  8
3
 10
47.425636167007461
 20
101.24564882836231
 30
0.0
 11
47.439157437343987
 21
101.2546630085866
 31
0.0
  0
LINE
  5
11EE9
  8
3
 10
47.353522725213033
 20
101.1825495667921
 30
0.0
 11
47.362536905437331
 21
101.1915637470164
 31
0.0
  0
LINE
  5
11EEA
  8
3
 10
47.182253300951082
 20
101.0112801425303
 30
0.0
 11
47.312958914203612
 21
101.1555070261192
 31
0.0
  0
LINE
  5
11EEB
  8
3
 10
47.312958914203612
 20
101.1555070261192
 30
0.0
 11
47.326480184540088
 21
101.16452120634359
 31
0.0
  0
LINE
  5
11EEC
  8
3
 10
47.326480184540088
 20
101.16452120634359
 30
0.0
 11
47.34000145487655
 21
101.17353538656781
 31
0.0
  0
LINE
  5
11EED
  8
3
 10
47.34000145487655
 20
101.17353538656781
 30
0.0
 11
47.353522725213033
 21
101.1825495667921
 31
0.0
  0
LINE
  5
11EEE
  8
3
 10
47.362536905437331
 20
101.1915637470164
 30
0.0
 11
47.376058175773807
 21
101.2005779272408
 31
0.0
  0
LINE
  5
11EEF
  8
3
 10
47.376058175773807
 20
101.2005779272408
 30
0.0
 11
47.389579446110218
 21
101.2140991975773
 31
0.0
  0
LINE
  5
11EF0
  8
3
 10
47.389579446110218
 20
101.2140991975773
 30
0.0
 11
47.403100716446737
 21
101.2231133778015
 31
0.0
  0
LINE
  5
11EF1
  8
3
 10
47.403100716446737
 20
101.2231133778015
 30
0.0
 11
47.416621986783149
 21
101.23212755802579
 31
0.0
  0
LINE
  5
11EF2
  8
3
 10
47.416621986783149
 20
101.23212755802579
 30
0.0
 11
47.425636167007461
 21
101.24564882836231
 31
0.0
  0
LINE
  5
11EF3
  8
3
 10
47.632962312166647
 20
101.3628331712784
 30
0.0
 11
47.646483582503059
 21
101.37184735150259
 31
0.0
  0
LINE
  5
11EF4
  8
3
 10
47.574370140708623
 20
101.3357906306054
 30
0.0
 11
47.587891411045092
 21
101.3448048108297
 31
0.0
  0
LINE
  5
11EF5
  8
3
 10
47.587891411045092
 20
101.3448048108297
 30
0.0
 11
47.60591977149371
 21
101.3493119009419
 31
0.0
  0
LINE
  5
11EF6
  8
3
 10
47.60591977149371
 20
101.3493119009419
 30
0.0
 11
47.619441041830179
 21
101.3583260811662
 31
0.0
  0
LINE
  5
11EF7
  8
3
 10
47.619441041830179
 20
101.3583260811662
 30
0.0
 11
47.632962312166647
 21
101.3628331712784
 31
0.0
  0
LINE
  5
11EF8
  8
3
 10
47.646483582503059
 20
101.37184735150259
 30
0.0
 11
47.660004852839592
 21
101.37635444161479
 31
0.0
  0
LINE
  5
11EF9
  8
3
 10
47.660004852839592
 20
101.37635444161479
 30
0.0
 11
47.678033213288153
 21
101.38086153172689
 31
0.0
  0
LINE
  5
11EFA
  8
3
 10
47.678033213288153
 20
101.38086153172689
 30
0.0
 11
47.691554483624628
 21
101.3898757119513
 31
0.0
  0
LINE
  5
11EFB
  8
3
 10
47.691554483624628
 20
101.3898757119513
 30
0.0
 11
47.70507575396109
 21
101.3943828020635
 31
0.0
  0
LINE
  5
11EFC
  8
3
 10
47.70507575396109
 20
101.3943828020635
 30
0.0
 11
47.718597024297573
 21
101.4033969822878
 31
0.0
  0
LINE
  5
11EFD
  8
3
 10
47.718597024297573
 20
101.4033969822878
 30
0.0
 11
47.732118294634027
 21
101.412411162512
 31
0.0
  0
LINE
  5
11EFE
  8
3
 10
47.732118294634027
 20
101.412411162512
 30
0.0
 11
47.759160835306972
 21
101.4304395229607
 31
0.0
  0
LINE
  5
11EFF
  8
3
 10
47.759160835306972
 20
101.4304395229607
 30
0.0
 11
47.781696285867753
 21
101.4349466130729
 31
0.0
  0
LINE
  5
11F00
  8
3
 10
47.781696285867753
 20
101.4349466130729
 30
0.0
 11
47.804231736428527
 21
101.43945370318499
 31
0.0
  0
LINE
  5
11F01
  8
3
 10
47.804231736428527
 20
101.43945370318499
 30
0.0
 11
47.826767186989308
 21
101.44396079329709
 31
0.0
  0
LINE
  5
11F02
  8
3
 10
47.826767186989308
 20
101.44396079329709
 30
0.0
 11
47.849302637550089
 21
101.44846788340929
 31
0.0
  0
LINE
  5
11F03
  8
3
 10
47.849302637550089
 20
101.44846788340929
 30
0.0
 11
47.871838088110813
 21
101.45297497352151
 31
0.0
  0
LINE
  5
11F04
  8
3
 10
47.871838088110813
 20
101.45297497352151
 30
0.0
 11
47.898880628783751
 21
101.45748206363361
 31
0.0
  0
LINE
  5
11F05
  8
3
 10
47.547327600035693
 20
101.31776227015681
 30
0.0
 11
47.560848870372148
 21
101.3267764503811
 31
0.0
  0
LINE
  5
11F06
  8
3
 10
47.439157437343987
 20
101.2546630085866
 30
0.0
 11
47.452678707680462
 21
101.2636771888109
 31
0.0
  0
LINE
  5
11F07
  8
3
 10
47.452678707680462
 20
101.2636771888109
 30
0.0
 11
47.466199978016867
 21
101.2726913690352
 31
0.0
  0
LINE
  5
11F08
  8
3
 10
47.466199978016867
 20
101.2726913690352
 30
0.0
 11
47.484228338465492
 21
101.2817055492595
 31
0.0
  0
LINE
  5
11F09
  8
3
 10
47.484228338465492
 20
101.2817055492595
 30
0.0
 11
47.497749608801968
 21
101.295226819596
 31
0.0
  0
LINE
  5
11F0A
  8
3
 10
47.497749608801968
 20
101.295226819596
 30
0.0
 11
47.53380632969921
 21
101.31325518004471
 31
0.0
  0
LINE
  5
11F0B
  8
3
 10
47.53380632969921
 20
101.31325518004471
 30
0.0
 11
47.547327600035693
 21
101.31776227015681
 31
0.0
  0
LINE
  5
11F0C
  8
3
 10
47.560848870372148
 20
101.3267764503811
 30
0.0
 11
47.574370140708623
 21
101.3357906306054
 31
0.0
  0
LINE
  5
11F0D
  8
3
 10
47.898880628783751
 20
101.45748206363361
 30
0.0
 11
47.921416079344532
 21
101.4619891537458
 31
0.0
  0
LINE
  5
11F0E
  8
3
 10
49.87298609790767
 20
102.2241179964049
 30
0.0
 11
49.067408977892541
 21
102.2241179964049
 31
0.0
  0
LINE
  5
11F0F
  8
3
 10
50.003691711160201
 20
100.26310318391251
 30
0.0
 11
50.0081988012723
 21
100.303666994922
 31
0.0
  0
LINE
  5
11F10
  8
3
 10
50.0081988012723
 20
100.303666994922
 30
0.0
 11
50.0081988012723
 21
100.3397237158192
 31
0.0
  0
LINE
  5
11F11
  8
3
 10
50.0081988012723
 20
100.3397237158192
 30
0.0
 11
50.012705891384464
 21
100.3802875268285
 31
0.0
  0
LINE
  5
11F12
  8
3
 10
50.012705891384464
 20
100.3802875268285
 30
0.0
 11
50.021720071608769
 21
100.420851337838
 31
0.0
  0
LINE
  5
11F13
  8
3
 10
50.021720071608769
 20
100.420851337838
 30
0.0
 11
50.026227161720918
 21
100.46141514884739
 31
0.0
  0
LINE
  5
11F14
  8
3
 10
50.026227161720918
 20
100.46141514884739
 30
0.0
 11
50.035241341945238
 21
100.5019789598567
 31
0.0
  0
LINE
  5
11F15
  8
3
 10
50.035241341945238
 20
100.5019789598567
 30
0.0
 11
50.04425552216955
 21
100.53803568075401
 31
0.0
  0
LINE
  5
11F16
  8
3
 10
49.886507368244139
 20
100.7814185468103
 30
0.0
 11
49.891014458356288
 21
100.61014912254851
 31
0.0
  0
LINE
  5
11F17
  8
3
 10
49.891014458356288
 20
100.61014912254851
 30
0.0
 11
49.891014458356288
 21
100.4433867883988
 31
0.0
  0
LINE
  5
11F18
  8
3
 10
49.891014458356288
 20
100.4433867883988
 30
0.0
 11
49.891014458356288
 21
100.2946528146977
 31
0.0
  0
LINE
  5
11F19
  8
3
 10
49.886507368244139
 20
100.96620924140861
 30
0.0
 11
49.886507368244139
 21
100.7814185468103
 31
0.0
  0
LINE
  5
11F1A
  8
3
 10
50.192989495870648
 20
100.8670532589413
 30
0.0
 11
50.215524946431429
 21
100.9031099798386
 31
0.0
  0
LINE
  5
11F1B
  8
3
 10
50.215524946431429
 20
100.9031099798386
 30
0.0
 11
50.256088757440828
 21
100.95719506118439
 31
0.0
  0
LINE
  5
11F1C
  8
3
 10
50.17496113542208
 20
100.8309965380441
 30
0.0
 11
50.183975315646393
 21
100.8490248984927
 31
0.0
  0
LINE
  5
11F1D
  8
3
 10
50.183975315646393
 20
100.8490248984927
 30
0.0
 11
50.192989495870648
 21
100.8670532589413
 31
0.0
  0
LINE
  5
11F1E
  8
3
 10
50.04425552216955
 20
100.53803568075401
 30
0.0
 11
50.066790972730331
 21
100.6191633027728
 31
0.0
  0
LINE
  5
11F1F
  8
3
 10
50.066790972730331
 20
100.6191633027728
 30
0.0
 11
50.075805152954644
 21
100.6326845731092
 31
0.0
  0
LINE
  5
11F20
  8
3
 10
50.075805152954644
 20
100.6326845731092
 30
0.0
 11
50.084819333178949
 21
100.6507129335579
 31
0.0
  0
LINE
  5
11F21
  8
3
 10
50.084819333178949
 20
100.6507129335579
 30
0.0
 11
50.093833513403268
 21
100.6687412940064
 31
0.0
  0
LINE
  5
11F22
  8
3
 10
50.093833513403268
 20
100.6687412940064
 30
0.0
 11
50.102847693627581
 21
100.68676965445511
 31
0.0
  0
LINE
  5
11F23
  8
3
 10
50.102847693627581
 20
100.68676965445511
 30
0.0
 11
50.111861873851893
 21
100.7047980149037
 31
0.0
  0
LINE
  5
11F24
  8
3
 10
50.111861873851893
 20
100.7047980149037
 30
0.0
 11
50.120876054076213
 21
100.7228263753523
 31
0.0
  0
LINE
  5
11F25
  8
3
 10
50.120876054076213
 20
100.7228263753523
 30
0.0
 11
50.129890234300511
 21
100.74085473580089
 31
0.0
  0
LINE
  5
11F26
  8
3
 10
50.129890234300511
 20
100.74085473580089
 30
0.0
 11
50.138904414524831
 21
100.7588830962496
 31
0.0
  0
LINE
  5
11F27
  8
3
 10
50.138904414524831
 20
100.7588830962496
 30
0.0
 11
50.14791859474915
 21
100.7769114566982
 31
0.0
  0
LINE
  5
11F28
  8
3
 10
50.14791859474915
 20
100.7769114566982
 30
0.0
 11
50.156932774973399
 21
100.7949398171469
 31
0.0
  0
LINE
  5
11F29
  8
3
 10
50.156932774973399
 20
100.7949398171469
 30
0.0
 11
50.165946955197768
 21
100.81296817759539
 31
0.0
  0
LINE
  5
11F2A
  8
3
 10
50.165946955197768
 20
100.81296817759539
 30
0.0
 11
50.17496113542208
 21
100.8309965380441
 31
0.0
  0
LINE
  5
11F2B
  8
3
 10
50.017212981496613
 20
99.97464941673465
 30
0.0
 11
50.0081988012723
 21
100.0152132277439
 31
0.0
  0
LINE
  5
11F2C
  8
3
 10
50.0081988012723
 20
100.0152132277439
 30
0.0
 11
50.0081988012723
 21
100.0557770387534
 31
0.0
  0
LINE
  5
11F2D
  8
3
 10
50.0081988012723
 20
100.0557770387534
 30
0.0
 11
50.003691711160201
 21
100.0963408497628
 31
0.0
  0
LINE
  5
11F2E
  8
3
 10
50.003691711160201
 20
100.0963408497628
 30
0.0
 11
50.003691711160201
 21
100.1369046607721
 31
0.0
  0
LINE
  5
11F2F
  8
3
 10
50.003691711160201
 20
100.1369046607721
 30
0.0
 11
50.003691711160201
 21
100.18197556189369
 31
0.0
  0
LINE
  5
11F30
  8
3
 10
50.003691711160201
 20
100.18197556189369
 30
0.0
 11
50.003691711160201
 21
100.2225393729031
 31
0.0
  0
LINE
  5
11F31
  8
3
 10
50.048762612281699
 20
99.852957983706432
 30
0.0
 11
50.017212981496613
 21
99.97464941673465
 31
0.0
  0
LINE
  5
11F32
  8
3
 10
49.922564089141389
 20
99.794365812248401
 30
0.0
 11
49.931578269365637
 21
99.762816181463364
 31
0.0
  0
LINE
  5
11F33
  8
3
 10
49.931578269365637
 20
99.762816181463364
 30
0.0
 11
49.940592449590007
 21
99.73577364079037
 31
0.0
  0
LINE
  5
11F34
  8
3
 10
49.90904281880492
 20
99.852957983706432
 30
0.0
 11
49.913549908917069
 21
99.821408352921281
 31
0.0
  0
LINE
  5
11F35
  8
3
 10
49.913549908917069
 20
99.821408352921281
 30
0.0
 11
49.922564089141389
 21
99.794365812248401
 31
0.0
  0
LINE
  5
11F36
  8
3
 10
49.900028638580608
 20
99.956621056285911
 30
0.0
 11
49.90904281880492
 21
99.852957983706432
 31
0.0
  0
LINE
  5
11F37
  8
3
 10
49.895521548468452
 20
100.159440111333
 30
0.0
 11
49.900028638580608
 21
100.04676285852911
 31
0.0
  0
LINE
  5
11F38
  8
3
 10
49.900028638580608
 20
100.04676285852911
 30
0.0
 11
49.900028638580608
 21
99.956621056285911
 31
0.0
  0
LINE
  5
11F39
  8
3
 10
50.089326423291112
 20
99.73577364079037
 30
0.0
 11
50.066790972730331
 21
99.794365812248401
 31
0.0
  0
LINE
  5
11F3A
  8
3
 10
50.066790972730331
 20
99.794365812248401
 30
0.0
 11
50.048762612281699
 21
99.852957983706432
 31
0.0
  0
LINE
  5
11F3B
  8
3
 10
50.138904414524831
 20
99.627603478098735
 30
0.0
 11
50.111861873851893
 21
99.681688559444495
 31
0.0
  0
LINE
  5
11F3C
  8
3
 10
49.958620810038632
 20
99.677181469332396
 30
0.0
 11
49.967634990262951
 21
99.650138928659402
 31
0.0
  0
LINE
  5
11F3D
  8
3
 10
50.165946955197711
 20
99.578025486864902
 30
0.0
 11
50.138904414524831
 21
99.627603478098735
 31
0.0
  0
LINE
  5
11F3E
  8
3
 10
49.9766491704872
 20
99.623096387986564
 30
0.0
 11
49.985663350711569
 21
99.596053847313541
 31
0.0
  0
LINE
  5
11F3F
  8
3
 10
50.197496585982798
 20
99.523940405519028
 30
0.0
 11
50.165946955197711
 21
99.578025486864902
 31
0.0
  0
LINE
  5
11F40
  8
3
 10
50.003691711160201
 20
99.541968765967766
 30
0.0
 11
50.017212981496613
 21
99.514926225294786
 31
0.0
  0
LINE
  5
11F41
  8
3
 10
50.017212981496613
 20
99.514926225294786
 30
0.0
 11
50.026227161720918
 21
99.492390774734048
 31
0.0
  0
LINE
  5
11F42
  8
3
 10
49.985663350711569
 20
99.596053847313541
 30
0.0
 11
49.994677530935832
 21
99.569011306640704
 31
0.0
  0
LINE
  5
11F43
  8
3
 10
49.994677530935832
 20
99.569011306640704
 30
0.0
 11
50.003691711160201
 21
99.541968765967766
 31
0.0
  0
LINE
  5
11F44
  8
3
 10
49.967634990262951
 20
99.650138928659402
 30
0.0
 11
49.9766491704872
 21
99.623096387986564
 31
0.0
  0
LINE
  5
11F45
  8
3
 10
49.949606629814262
 20
99.704224010005277
 30
0.0
 11
49.958620810038632
 21
99.677181469332396
 31
0.0
  0
LINE
  5
11F46
  8
3
 10
50.111861873851893
 20
99.681688559444495
 30
0.0
 11
50.089326423291112
 21
99.73577364079037
 31
0.0
  0
LINE
  5
11F47
  8
3
 10
49.940592449590007
 20
99.73577364079037
 30
0.0
 11
49.949606629814262
 21
99.704224010005277
 31
0.0
  0
LINE
  5
11F48
  8
3
 10
50.003691711160201
 20
100.2225393729031
 30
0.0
 11
50.003691711160201
 21
100.26310318391251
 31
0.0
  0
LINE
  5
11F49
  8
3
 10
49.891014458356288
 20
100.2946528146977
 30
0.0
 11
49.895521548468452
 21
100.159440111333
 31
0.0
  0
LINE
  5
11F4A
  8
3
 10
50.346230559683953
 20
99.339149710920736
 30
0.0
 11
50.305666748674547
 21
99.384220612042299
 31
0.0
  0
LINE
  5
11F4B
  8
3
 10
50.305666748674547
 20
99.384220612042299
 30
0.0
 11
50.265102937665148
 21
99.429291513163861
 31
0.0
  0
LINE
  5
11F4C
  8
3
 10
50.265102937665148
 20
99.429291513163861
 30
0.0
 11
50.233553306880047
 21
99.478869504397593
 31
0.0
  0
LINE
  5
11F4D
  8
3
 10
50.436372361927077
 20
99.258022088901981
 30
0.0
 11
50.391301460805522
 21
99.298585899911345
 31
0.0
  0
LINE
  5
11F4E
  8
3
 10
50.485950353160753
 20
99.221965368004675
 30
0.0
 11
50.436372361927077
 21
99.258022088901981
 31
0.0
  0
LINE
  5
11F4F
  8
3
 10
50.391301460805522
 20
99.298585899911345
 30
0.0
 11
50.346230559683953
 21
99.339149710920736
 31
0.0
  0
LINE
  5
11F50
  8
3
 10
50.062283882618168
 20
99.424784423051705
 30
0.0
 11
50.075805152954644
 21
99.388727702154455
 31
0.0
  0
LINE
  5
11F51
  8
3
 10
50.075805152954644
 20
99.388727702154455
 30
0.0
 11
50.093833513403268
 21
99.352670981257205
 31
0.0
  0
LINE
  5
11F52
  8
3
 10
50.093833513403268
 20
99.352670981257205
 30
0.0
 11
50.111861873851893
 21
99.321121350472126
 31
0.0
  0
LINE
  5
11F53
  8
3
 10
50.111861873851893
 20
99.321121350472126
 30
0.0
 11
50.129890234300511
 21
99.289571719687018
 31
0.0
  0
LINE
  5
11F54
  8
3
 10
50.129890234300511
 20
99.289571719687018
 30
0.0
 11
50.14791859474915
 21
99.262529179014081
 31
0.0
  0
LINE
  5
11F55
  8
3
 10
50.14791859474915
 20
99.262529179014081
 30
0.0
 11
50.170454045309931
 21
99.230979548229101
 31
0.0
  0
LINE
  5
11F56
  8
3
 10
50.170454045309931
 20
99.230979548229101
 30
0.0
 11
50.188482405758492
 21
99.203937007556107
 31
0.0
  0
LINE
  5
11F57
  8
3
 10
50.188482405758492
 20
99.203937007556107
 30
0.0
 11
50.211017856319273
 21
99.176894466883226
 31
0.0
  0
LINE
  5
11F58
  8
3
 10
50.211017856319273
 20
99.176894466883226
 30
0.0
 11
50.229046216767898
 21
99.154359016322445
 31
0.0
  0
LINE
  5
11F59
  8
3
 10
50.229046216767898
 20
99.154359016322445
 30
0.0
 11
50.251581667328679
 21
99.127316475649508
 31
0.0
  0
LINE
  5
11F5A
  8
3
 10
50.251581667328679
 20
99.127316475649508
 30
0.0
 11
50.27411711788946
 21
99.100273934976514
 31
0.0
  0
LINE
  5
11F5B
  8
3
 10
50.27411711788946
 20
99.100273934976514
 30
0.0
 11
50.296652568450241
 21
99.077738484415733
 31
0.0
  0
LINE
  5
11F5C
  8
3
 10
50.296652568450241
 20
99.077738484415733
 30
0.0
 11
50.319188019011023
 21
99.050695943742852
 31
0.0
  0
LINE
  5
11F5D
  8
3
 10
50.319188019011023
 20
99.050695943742852
 30
0.0
 11
50.341723469571811
 21
99.023653403069844
 31
0.0
  0
LINE
  5
11F5E
  8
3
 10
50.341723469571811
 20
99.023653403069844
 30
0.0
 11
50.391301460805522
 21
98.974075411836196
 31
0.0
  0
LINE
  5
11F5F
  8
3
 10
50.035241341945238
 20
99.465348234061111
 30
0.0
 11
50.062283882618168
 21
99.424784423051705
 31
0.0
  0
LINE
  5
11F60
  8
3
 10
50.540035434506621
 20
99.185908647107425
 30
0.0
 11
50.485950353160753
 21
99.221965368004675
 31
0.0
  0
LINE
  5
11F61
  8
3
 10
50.233553306880047
 20
99.478869504397593
 30
0.0
 11
50.197496585982798
 21
99.523940405519028
 31
0.0
  0
LINE
  5
11F62
  8
3
 10
50.026227161720918
 20
99.492390774734048
 30
0.0
 11
50.035241341945238
 21
99.465348234061111
 31
0.0
  0
LINE
  5
11F63
  8
3
 10
49.057202787607622
 20
100.4163442477258
 30
0.0
 11
49.061709877719778
 21
100.60564203243629
 31
0.0
  0
LINE
  5
11F64
  8
3
 10
49.061709877719778
 20
100.60564203243629
 30
0.0
 11
49.066216967831942
 21
100.7949398171469
 31
0.0
  0
LINE
  5
11F65
  8
3
 10
49.066216967831942
 20
100.7949398171469
 30
0.0
 11
49.07523114805624
 21
100.9977588721938
 31
0.0
  0
LINE
  5
11F66
  8
3
 10
48.87691918312143
 20
100.6957838346794
 30
0.0
 11
48.80931283143908
 21
100.68676965445511
 31
0.0
  0
LINE
  5
11F67
  8
3
 10
48.854383732560642
 20
100.52902150052959
 30
0.0
 11
48.858890822672798
 21
100.4974718697446
 31
0.0
  0
LINE
  5
11F68
  8
3
 10
48.858890822672798
 20
100.4974718697446
 30
0.0
 11
48.867905002897118
 21
100.46592223895939
 31
0.0
  0
LINE
  5
11F69
  8
3
 10
48.867905002897118
 20
100.46592223895939
 30
0.0
 11
48.872412093009281
 21
100.4343726081744
 31
0.0
  0
LINE
  5
11F6A
  8
3
 10
48.872412093009281
 20
100.4343726081744
 30
0.0
 11
48.872412093009281
 21
100.40282297738941
 31
0.0
  0
LINE
  5
11F6B
  8
3
 10
48.872412093009281
 20
100.40282297738941
 30
0.0
 11
48.87691918312143
 21
100.3667662564921
 31
0.0
  0
LINE
  5
11F6C
  8
3
 10
48.87691918312143
 20
100.3667662564921
 30
0.0
 11
48.87691918312143
 21
100.33521662570701
 31
0.0
  0
LINE
  5
11F6D
  8
3
 10
48.87691918312143
 20
100.33521662570701
 30
0.0
 11
48.87691918312143
 21
100.2991599048097
 31
0.0
  0
LINE
  5
11F6E
  8
3
 10
48.87691918312143
 20
100.2991599048097
 30
0.0
 11
48.87691918312143
 21
100.2676102740247
 31
0.0
  0
LINE
  5
11F6F
  8
3
 10
48.944525534803773
 20
100.7093051050159
 30
0.0
 11
48.87691918312143
 21
100.6957838346794
 31
0.0
  0
LINE
  5
11F70
  8
3
 10
48.520859064261202
 20
100.6912767445672
 30
0.0
 11
48.448745622466703
 21
100.6957838346794
 31
0.0
  0
LINE
  5
11F71
  8
3
 10
48.448745622466703
 20
100.6957838346794
 30
0.0
 11
48.372125090560047
 21
100.7002909247916
 31
0.0
  0
LINE
  5
11F72
  8
3
 10
48.372125090560047
 20
100.7002909247916
 30
0.0
 11
48.300011648765548
 21
100.7002909247916
 31
0.0
  0
LINE
  5
11F73
  8
3
 10
48.300011648765548
 20
100.7002909247916
 30
0.0
 11
48.232405297083261
 21
100.7002909247916
 31
0.0
  0
LINE
  5
11F74
  8
3
 10
48.092685503606411
 20
100.68226256434301
 30
0.0
 11
48.029586242036288
 21
100.6642342038943
 31
0.0
  0
LINE
  5
11F75
  8
3
 10
48.029586242036288
 20
100.6642342038943
 30
0.0
 11
47.966486980466101
 21
100.6371916632214
 31
0.0
  0
LINE
  5
11F76
  8
3
 10
48.160291855288762
 20
100.6912767445672
 30
0.0
 11
48.092685503606411
 21
100.68226256434301
 31
0.0
  0
LINE
  5
11F77
  8
3
 10
48.232405297083261
 20
100.7002909247916
 30
0.0
 11
48.160291855288762
 21
100.6912767445672
 31
0.0
  0
LINE
  5
11F78
  8
3
 10
48.665085947850137
 20
100.68676965445511
 30
0.0
 11
48.592972506055638
 21
100.6912767445672
 31
0.0
  0
LINE
  5
11F79
  8
3
 10
48.592972506055638
 20
100.6912767445672
 30
0.0
 11
48.520859064261202
 21
100.6912767445672
 31
0.0
  0
LINE
  5
11F7A
  8
3
 10
48.737199389644587
 20
100.68676965445511
 30
0.0
 11
48.665085947850137
 21
100.68676965445511
 31
0.0
  0
LINE
  5
11F7B
  8
3
 10
48.80931283143908
 20
100.68676965445511
 30
0.0
 11
48.737199389644587
 21
100.68676965445511
 31
0.0
  0
LINE
  5
11F7C
  8
3
 10
49.070724057944091
 20
100.0647912189777
 30
0.0
 11
49.061709877719778
 21
100.2405677333517
 31
0.0
  0
LINE
  5
11F7D
  8
3
 10
48.87691918312143
 20
100.2315535531274
 30
0.0
 11
48.87691918312143
 21
100.2000039223423
 31
0.0
  0
LINE
  5
11F7E
  8
3
 10
49.115794959065653
 20
99.722252370453916
 30
0.0
 11
49.088752418392723
 21
99.893521794715838
 31
0.0
  0
LINE
  5
11F7F
  8
3
 10
48.980582255700959
 20
99.77633745179979
 30
0.0
 11
49.070724057944091
 21
99.780844541912046
 31
0.0
  0
LINE
  5
11F80
  8
3
 10
49.070724057944091
 20
99.780844541912046
 30
0.0
 11
49.057202787607622
 21
99.749294911126839
 31
0.0
  0
LINE
  5
11F81
  8
3
 10
49.088752418392723
 20
99.893521794715838
 30
0.0
 11
49.070724057944091
 21
100.0647912189777
 31
0.0
  0
LINE
  5
11F82
  8
3
 10
48.845369552336336
 20
99.767323271575464
 30
0.0
 11
48.917482994130843
 21
99.77183036168762
 31
0.0
  0
LINE
  5
11F83
  8
3
 10
48.87691918312143
 20
100.2000039223423
 30
0.0
 11
48.87691918312143
 21
100.1639472014451
 31
0.0
  0
LINE
  5
11F84
  8
3
 10
48.87691918312143
 20
100.1639472014451
 30
0.0
 11
48.87691918312143
 21
100.1278904805478
 31
0.0
  0
LINE
  5
11F85
  8
3
 10
48.87691918312143
 20
100.1278904805478
 30
0.0
 11
48.87691918312143
 21
100.0963408497628
 31
0.0
  0
LINE
  5
11F86
  8
3
 10
48.87691918312143
 20
100.0963408497628
 30
0.0
 11
48.87691918312143
 21
100.0647912189777
 31
0.0
  0
LINE
  5
11F87
  8
3
 10
48.87691918312143
 20
100.0647912189777
 30
0.0
 11
48.885933363345742
 21
100.0016919574074
 31
0.0
  0
LINE
  5
11F88
  8
3
 10
48.885933363345742
 20
100.0016919574074
 30
0.0
 11
48.822834101775562
 21
99.997184867295431
 31
0.0
  0
LINE
  5
11F89
  8
3
 10
48.917482994130843
 20
99.77183036168762
 30
0.0
 11
48.980582255700959
 21
99.77633745179979
 31
0.0
  0
LINE
  5
11F8A
  8
3
 10
49.04368151727116
 20
99.677181469332396
 30
0.0
 11
49.034667337046841
 21
99.641124748435203
 31
0.0
  0
LINE
  5
11F8B
  8
3
 10
49.030160246934678
 20
99.605068027537953
 30
0.0
 11
49.025653156822521
 21
99.564504216528547
 31
0.0
  0
LINE
  5
11F8C
  8
3
 10
49.025653156822521
 20
99.564504216528547
 30
0.0
 11
49.016638976598223
 21
99.523940405519028
 31
0.0
  0
LINE
  5
11F8D
  8
3
 10
49.034667337046841
 20
99.641124748435203
 30
0.0
 11
49.030160246934678
 21
99.605068027537953
 31
0.0
  0
LINE
  5
11F8E
  8
3
 10
49.048188607383302
 20
99.713238190229589
 30
0.0
 11
49.04368151727116
 21
99.677181469332396
 31
0.0
  0
LINE
  5
11F8F
  8
3
 10
49.156358770075059
 20
99.550982946192079
 30
0.0
 11
49.115794959065653
 21
99.722252370453916
 31
0.0
  0
LINE
  5
11F90
  8
3
 10
49.057202787607622
 20
99.749294911126839
 30
0.0
 11
49.048188607383302
 21
99.713238190229589
 31
0.0
  0
LINE
  5
11F91
  8
3
 10
48.683114308298762
 20
99.758309091351151
 30
0.0
 11
48.768749020429681
 21
99.762816181463364
 31
0.0
  0
LINE
  5
11F92
  8
3
 10
48.759734840205418
 20
99.992677777183275
 30
0.0
 11
48.696635578635238
 21
99.992677777183275
 31
0.0
  0
LINE
  5
11F93
  8
3
 10
48.408181811457297
 20
99.753802001238995
 30
0.0
 11
48.502830703812577
 21
99.753802001238995
 31
0.0
  0
LINE
  5
11F94
  8
3
 10
48.498323613700421
 20
99.992677777183275
 30
0.0
 11
48.430717262018078
 21
99.992677777183275
 31
0.0
  0
LINE
  5
11F95
  8
3
 10
48.133249314615831
 20
99.785351632024216
 30
0.0
 11
48.223391116858949
 21
99.767323271575464
 31
0.0
  0
LINE
  5
11F96
  8
3
 10
48.223391116858949
 20
99.767323271575464
 30
0.0
 11
48.313532919102009
 21
99.758309091351151
 31
0.0
  0
LINE
  5
11F97
  8
3
 10
48.313532919102009
 20
99.758309091351151
 30
0.0
 11
48.408181811457297
 21
99.753802001238995
 31
0.0
  0
LINE
  5
11F98
  8
3
 10
48.430717262018078
 20
99.992677777183275
 30
0.0
 11
48.363110910335728
 21
99.992677777183275
 31
0.0
  0
LINE
  5
11F99
  8
3
 10
48.363110910335728
 20
99.992677777183275
 30
0.0
 11
48.295504558653441
 21
99.992677777183275
 31
0.0
  0
LINE
  5
11F9A
  8
3
 10
48.295504558653441
 20
99.992677777183275
 30
0.0
 11
48.227898206971098
 21
99.997184867295431
 31
0.0
  0
LINE
  5
11F9B
  8
3
 10
48.047614602484913
 20
99.803379992472713
 30
0.0
 11
48.133249314615831
 21
99.785351632024216
 31
0.0
  0
LINE
  5
11F9C
  8
3
 10
47.966486980466101
 20
99.834929623257807
 30
0.0
 11
48.047614602484913
 21
99.803379992472713
 31
0.0
  0
LINE
  5
11F9D
  8
3
 10
48.092685503606411
 20
99.997184867295431
 30
0.0
 11
48.029586242036288
 21
99.997184867295431
 31
0.0
  0
LINE
  5
11F9E
  8
3
 10
48.029586242036288
 20
99.997184867295431
 30
0.0
 11
47.961979890353938
 21
99.997184867295431
 31
0.0
  0
LINE
  5
11F9F
  8
3
 10
48.160291855288762
 20
99.997184867295431
 30
0.0
 11
48.092685503606411
 21
99.997184867295431
 31
0.0
  0
LINE
  5
11FA0
  8
3
 10
48.227898206971098
 20
99.997184867295431
 30
0.0
 11
48.160291855288762
 21
99.997184867295431
 31
0.0
  0
LINE
  5
11FA1
  8
3
 10
48.502830703812577
 20
99.753802001238995
 30
0.0
 11
48.592972506055638
 21
99.753802001238995
 31
0.0
  0
LINE
  5
11FA2
  8
3
 10
48.592972506055638
 20
99.753802001238995
 30
0.0
 11
48.683114308298762
 21
99.758309091351151
 31
0.0
  0
LINE
  5
11FA3
  8
3
 10
48.696635578635238
 20
99.992677777183275
 30
0.0
 11
48.629029226952902
 21
99.992677777183275
 31
0.0
  0
LINE
  5
11FA4
  8
3
 10
48.629029226952902
 20
99.992677777183275
 30
0.0
 11
48.565929965382708
 21
99.992677777183275
 31
0.0
  0
LINE
  5
11FA5
  8
3
 10
48.565929965382708
 20
99.992677777183275
 30
0.0
 11
48.498323613700421
 21
99.992677777183275
 31
0.0
  0
LINE
  5
11FA6
  8
3
 10
48.768749020429681
 20
99.762816181463364
 30
0.0
 11
48.845369552336336
 21
99.767323271575464
 31
0.0
  0
LINE
  5
11FA7
  8
3
 10
48.822834101775562
 20
99.997184867295431
 30
0.0
 11
48.759734840205418
 21
99.992677777183275
 31
0.0
  0
LINE
  5
11FA8
  8
3
 10
49.061709877719778
 20
100.2405677333517
 30
0.0
 11
49.057202787607622
 21
100.4163442477258
 31
0.0
  0
LINE
  5
11FA9
  8
3
 10
48.87691918312143
 20
100.2676102740247
 30
0.0
 11
48.87691918312143
 21
100.2315535531274
 31
0.0
  0
LINE
  5
11FAA
  8
3
 10
47.07408313825939
 20
100.8445178083805
 30
0.0
 11
47.083097318483709
 21
100.8580390787169
 31
0.0
  0
LINE
  5
11FAB
  8
3
 10
47.065068958035077
 20
100.8309965380441
 30
0.0
 11
47.07408313825939
 21
100.8445178083805
 31
0.0
  0
LINE
  5
11FAC
  8
3
 10
47.047040597586509
 20
100.8039539973711
 30
0.0
 11
47.056054777810772
 21
100.81747526770749
 31
0.0
  0
LINE
  5
11FAD
  8
3
 10
47.056054777810772
 20
100.81747526770749
 30
0.0
 11
47.065068958035077
 21
100.8309965380441
 31
0.0
  0
LINE
  5
11FAE
  8
3
 10
47.083097318483709
 20
100.8580390787169
 30
0.0
 11
47.092111498708022
 21
100.8715603490536
 31
0.0
  0
LINE
  5
11FAF
  8
3
 10
47.092111498708022
 20
100.8715603490536
 30
0.0
 11
47.101125678932327
 21
100.88057452927779
 31
0.0
  0
LINE
  5
11FB0
  8
3
 10
47.101125678932327
 20
100.88057452927779
 30
0.0
 11
47.110139859156646
 21
100.89409579961421
 31
0.0
  0
LINE
  5
11FB1
  8
3
 10
47.110139859156646
 20
100.89409579961421
 30
0.0
 11
47.119154039380952
 21
100.9076170699507
 31
0.0
  0
LINE
  5
11FB2
  8
3
 10
47.119154039380952
 20
100.9076170699507
 30
0.0
 11
47.128168219605271
 21
100.9211383402872
 31
0.0
  0
LINE
  5
11FB3
  8
3
 10
47.128168219605271
 20
100.9211383402872
 30
0.0
 11
47.132675309717428
 21
100.9301525205114
 31
0.0
  0
LINE
  5
11FB4
  8
3
 10
47.132675309717428
 20
100.9301525205114
 30
0.0
 11
47.141689489941733
 21
100.943673790848
 31
0.0
  0
LINE
  5
11FB5
  8
3
 10
47.141689489941733
 20
100.943673790848
 30
0.0
 11
47.150703670166052
 21
100.95719506118439
 31
0.0
  0
LINE
  5
11FB6
  8
3
 10
47.150703670166052
 20
100.95719506118439
 30
0.0
 11
47.159717850390372
 21
100.96620924140861
 31
0.0
  0
LINE
  5
11FB7
  8
3
 10
47.159717850390372
 20
100.96620924140861
 30
0.0
 11
47.164224940502507
 21
100.9797305117452
 31
0.0
  0
LINE
  5
11FB8
  8
3
 10
47.858316817774401
 20
100.5605711313147
 30
0.0
 11
47.858316817774401
 21
100.5560640412026
 31
0.0
  0
LINE
  5
11FB9
  8
3
 10
47.858316817774401
 20
100.5560640412026
 30
0.0
 11
47.858316817774401
 21
100.5515569510904
 31
0.0
  0
LINE
  5
11FBA
  8
3
 10
47.858316817774401
 20
100.5515569510904
 30
0.0
 11
47.858316817774401
 21
100.5470498609783
 31
0.0
  0
LINE
  5
11FBB
  8
3
 10
47.858316817774401
 20
100.5470498609783
 30
0.0
 11
47.858316817774401
 21
100.54254277086611
 31
0.0
  0
LINE
  5
11FBC
  8
3
 10
47.858316817774401
 20
100.54254277086611
 30
0.0
 11
47.858316817774401
 21
100.53803568075401
 31
0.0
  0
LINE
  5
11FBD
  8
3
 10
47.858316817774401
 20
100.53803568075401
 30
0.0
 11
47.862823907886558
 21
100.53803568075401
 31
0.0
  0
LINE
  5
11FBE
  8
3
 10
47.862823907886558
 20
100.53803568075401
 30
0.0
 11
47.862823907886558
 21
100.53352859064189
 31
0.0
  0
LINE
  5
11FBF
  8
3
 10
47.862823907886558
 20
100.53352859064189
 30
0.0
 11
47.867330997998721
 21
100.53352859064189
 31
0.0
  0
LINE
  5
11FC0
  8
3
 10
46.91182789422183
 20
100.303666994922
 30
0.0
 11
46.920842074446142
 21
100.3757804367163
 31
0.0
  0
LINE
  5
11FC1
  8
3
 10
46.920842074446142
 20
100.3757804367163
 30
0.0
 11
46.929856254670447
 21
100.4478938785108
 31
0.0
  0
LINE
  5
11FC2
  8
3
 10
46.929856254670447
 20
100.4478938785108
 30
0.0
 11
46.947884615119072
 21
100.5245144104175
 31
0.0
  0
LINE
  5
11FC3
  8
3
 10
46.947884615119072
 20
100.5245144104175
 30
0.0
 11
46.965912975567697
 21
100.5921207620998
 31
0.0
  0
LINE
  5
11FC4
  8
3
 10
46.965912975567697
 20
100.5921207620998
 30
0.0
 11
46.988448426128492
 21
100.6642342038943
 31
0.0
  0
LINE
  5
11FC5
  8
3
 10
46.988448426128492
 20
100.6642342038943
 30
0.0
 11
47.047040597586509
 21
100.8039539973711
 31
0.0
  0
LINE
  5
11FC6
  8
3
 10
47.083097318483709
 20
99.591546757201414
 30
0.0
 11
47.078590228371553
 21
99.605068027537953
 31
0.0
  0
LINE
  5
11FC7
  8
3
 10
47.159717850390372
 20
99.496897864846204
 30
0.0
 11
47.146196580053889
 21
99.501404954958375
 31
0.0
  0
LINE
  5
11FC8
  8
3
 10
47.146196580053889
 20
99.501404954958375
 30
0.0
 11
47.137182399829577
 21
99.510419135182673
 31
0.0
  0
LINE
  5
11FC9
  8
3
 10
47.137182399829577
 20
99.510419135182673
 30
0.0
 11
47.132675309717428
 21
99.514926225294786
 31
0.0
  0
LINE
  5
11FCA
  8
3
 10
47.132675309717428
 20
99.514926225294786
 30
0.0
 11
47.123661129493108
 21
99.528447495631298
 31
0.0
  0
LINE
  5
11FCB
  8
3
 10
47.123661129493108
 20
99.528447495631298
 30
0.0
 11
47.114646949268803
 21
99.537461675855624
 31
0.0
  0
LINE
  5
11FCC
  8
3
 10
47.114646949268803
 20
99.537461675855624
 30
0.0
 11
47.110139859156646
 21
99.546475856079937
 31
0.0
  0
LINE
  5
11FCD
  8
3
 10
47.110139859156646
 20
99.546475856079937
 30
0.0
 11
47.101125678932327
 21
99.555490036304235
 31
0.0
  0
LINE
  5
11FCE
  8
3
 10
47.101125678932327
 20
99.555490036304235
 30
0.0
 11
47.096618588820171
 21
99.569011306640704
 31
0.0
  0
LINE
  5
11FCF
  8
3
 10
47.096618588820171
 20
99.569011306640704
 30
0.0
 11
47.092111498708022
 21
99.582532576977044
 31
0.0
  0
LINE
  5
11FD0
  8
3
 10
47.092111498708022
 20
99.582532576977044
 30
0.0
 11
47.083097318483709
 21
99.591546757201414
 31
0.0
  0
LINE
  5
11FD1
  8
3
 10
47.060561867922978
 20
99.636617658323061
 30
0.0
 11
47.047040597586509
 21
99.659153108883714
 31
0.0
  0
LINE
  5
11FD2
  8
3
 10
47.078590228371553
 20
99.605068027537953
 30
0.0
 11
47.07408313825939
 21
99.61408220776228
 31
0.0
  0
LINE
  5
11FD3
  8
3
 10
47.07408313825939
 20
99.61408220776228
 30
0.0
 11
47.065068958035077
 21
99.627603478098735
 31
0.0
  0
LINE
  5
11FD4
  8
3
 10
47.065068958035077
 20
99.627603478098735
 30
0.0
 11
47.060561867922978
 21
99.636617658323061
 31
0.0
  0
LINE
  5
11FD5
  8
3
 10
47.835781367213571
 20
99.916057245276619
 30
0.0
 11
47.894373538671658
 21
99.870986344155057
 31
0.0
  0
LINE
  5
11FD6
  8
3
 10
47.835781367213571
 20
99.992677777183275
 30
0.0
 11
47.826767186989308
 21
99.988170687071104
 31
0.0
  0
LINE
  5
11FD7
  8
3
 10
47.826767186989308
 20
99.988170687071104
 30
0.0
 11
47.817753006765003
 21
99.983663596958863
 31
0.0
  0
LINE
  5
11FD8
  8
3
 10
47.817753006765003
 20
99.983663596958863
 30
0.0
 11
47.813245916652839
 21
99.983663596958863
 31
0.0
  0
LINE
  5
11FD9
  8
3
 10
47.813245916652839
 20
99.983663596958863
 30
0.0
 11
47.813245916652839
 21
99.97915650684682
 31
0.0
  0
LINE
  5
11FDA
  8
3
 10
47.813245916652839
 20
99.97915650684682
 30
0.0
 11
47.80873882654069
 21
99.970142326622494
 31
0.0
  0
LINE
  5
11FDB
  8
3
 10
47.80873882654069
 20
99.970142326622494
 30
0.0
 11
47.80873882654069
 21
99.965635236510224
 31
0.0
  0
LINE
  5
11FDC
  8
3
 10
47.80873882654069
 20
99.965635236510224
 30
0.0
 11
47.80873882654069
 21
99.961128146398181
 31
0.0
  0
LINE
  5
11FDD
  8
3
 10
47.80873882654069
 20
99.961128146398181
 30
0.0
 11
47.813245916652839
 21
99.956621056285911
 31
0.0
  0
LINE
  5
11FDE
  8
3
 10
47.813245916652839
 20
99.956621056285911
 30
0.0
 11
47.813245916652839
 21
99.947606876061585
 31
0.0
  0
LINE
  5
11FDF
  8
3
 10
47.813245916652839
 20
99.947606876061585
 30
0.0
 11
47.817753006765003
 21
99.943099785949556
 31
0.0
  0
LINE
  5
11FE0
  8
3
 10
47.817753006765003
 20
99.943099785949556
 30
0.0
 11
47.817753006765003
 21
99.938592695837301
 31
0.0
  0
LINE
  5
11FE1
  8
3
 10
47.817753006765003
 20
99.938592695837301
 30
0.0
 11
47.822260096877159
 21
99.93408560572513
 31
0.0
  0
LINE
  5
11FE2
  8
3
 10
47.822260096877159
 20
99.93408560572513
 30
0.0
 11
47.826767186989308
 21
99.925071425500946
 31
0.0
  0
LINE
  5
11FE3
  8
3
 10
47.826767186989308
 20
99.925071425500946
 30
0.0
 11
47.826767186989308
 21
99.920564335388775
 31
0.0
  0
LINE
  5
11FE4
  8
3
 10
47.826767186989308
 20
99.920564335388775
 30
0.0
 11
47.835781367213571
 21
99.916057245276619
 31
0.0
  0
LINE
  5
11FE5
  8
3
 10
46.91182789422183
 20
100.1549330212209
 30
0.0
 11
46.91182789422183
 21
100.2315535531274
 31
0.0
  0
LINE
  5
11FE6
  8
3
 10
47.010983876689266
 20
99.726759460566186
 30
0.0
 11
46.983941336016329
 21
99.794365812248401
 31
0.0
  0
LINE
  5
11FE7
  8
3
 10
46.983941336016329
 20
99.794365812248401
 30
0.0
 11
46.961405885455548
 21
99.866479254042915
 31
0.0
  0
LINE
  5
11FE8
  8
3
 10
46.961405885455548
 20
99.866479254042915
 30
0.0
 11
46.943377525006923
 21
99.93408560572513
 31
0.0
  0
LINE
  5
11FE9
  8
3
 10
46.943377525006923
 20
99.93408560572513
 30
0.0
 11
46.929856254670447
 21
100.0107061376319
 31
0.0
  0
LINE
  5
11FEA
  8
3
 10
46.929856254670447
 20
100.0107061376319
 30
0.0
 11
46.916334984333979
 21
100.0828195794264
 31
0.0
  0
LINE
  5
11FEB
  8
3
 10
46.916334984333979
 20
100.0828195794264
 30
0.0
 11
46.91182789422183
 21
100.1549330212209
 31
0.0
  0
LINE
  5
11FEC
  8
3
 10
47.047040597586509
 20
99.659153108883714
 30
0.0
 11
47.010983876689266
 21
99.726759460566186
 31
0.0
  0
LINE
  5
11FED
  8
3
 10
46.91182789422183
 20
100.2315535531274
 30
0.0
 11
46.91182789422183
 21
100.303666994922
 31
0.0
  0
LINE
  5
11FEE
  8
3
 10
47.894373538671658
 20
99.870986344155057
 30
0.0
 11
47.966486980466101
 21
99.834929623257807
 31
0.0
  0
LINE
  5
11FEF
  8
3
 10
47.961979890353938
 20
99.997184867295431
 30
0.0
 11
47.835781367213571
 21
99.992677777183275
 31
0.0
  0
LINE
  5
11FF0
  8
3
 10
47.867330997998721
 20
100.53352859064189
 30
0.0
 11
48.854383732560642
 21
100.52902150052959
 31
0.0
  0
LINE
  5
11FF1
  8
3
 10
47.966486980466101
 20
100.6371916632214
 30
0.0
 11
47.858316817774401
 21
100.5605711313147
 31
0.0
  0
LINE
  5
11FF2
  8
3
 10
49.01213188648606
 20
99.478869504397593
 30
0.0
 11
49.007624796373896
 21
99.438305693388173
 31
0.0
  0
LINE
  5
11FF3
  8
3
 10
49.007624796373896
 20
99.438305693388173
 30
0.0
 11
49.00311770626174
 21
99.393234792266668
 31
0.0
  0
LINE
  5
11FF4
  8
3
 10
49.00311770626174
 20
99.393234792266668
 30
0.0
 11
48.998610616149591
 21
99.352670981257205
 31
0.0
  0
LINE
  5
11FF5
  8
3
 10
48.998610616149591
 20
99.352670981257205
 30
0.0
 11
48.989596435925279
 21
99.307600080135643
 31
0.0
  0
LINE
  5
11FF6
  8
3
 10
48.989596435925279
 20
99.307600080135643
 30
0.0
 11
48.985089345813122
 21
99.267036269126351
 31
0.0
  0
LINE
  5
11FF7
  8
3
 10
48.985089345813122
 20
99.267036269126351
 30
0.0
 11
48.97607516558881
 21
99.226472458116831
 31
0.0
  0
LINE
  5
11FF8
  8
3
 10
48.97607516558881
 20
99.226472458116831
 30
0.0
 11
48.958046805140178
 21
99.149851926210289
 31
0.0
  0
LINE
  5
11FF9
  8
3
 10
48.958046805140178
 20
99.149851926210289
 30
0.0
 11
48.944525534803716
 21
99.131823565761664
 31
0.0
  0
LINE
  5
11FFA
  8
3
 10
49.408755816355701
 20
98.974075411836196
 30
0.0
 11
49.404248726243537
 21
98.974075411836196
 31
0.0
  0
LINE
  5
11FFB
  8
3
 10
49.404248726243537
 20
98.974075411836196
 30
0.0
 11
49.399741636131381
 21
98.978582501948367
 31
0.0
  0
LINE
  5
11FFC
  8
3
 10
49.399741636131381
 20
98.978582501948367
 30
0.0
 11
49.399741636131381
 21
98.983089592060509
 31
0.0
  0
LINE
  5
11FFD
  8
3
 10
49.399741636131381
 20
98.983089592060509
 30
0.0
 11
49.399741636131381
 21
98.987596682172551
 31
0.0
  0
LINE
  5
11FFE
  8
3
 10
49.399741636131381
 20
98.987596682172551
 30
0.0
 11
49.395234546019218
 21
98.992103772284835
 31
0.0
  0
LINE
  5
11FFF
  8
3
 10
49.395234546019218
 20
98.992103772284835
 30
0.0
 11
49.395234546019218
 21
98.996610862396977
 31
0.0
  0
LINE
  5
12000
  8
3
 10
49.395234546019218
 20
98.996610862396977
 30
0.0
 11
49.390727455907061
 21
99.001117952509134
 31
0.0
  0
LINE
  5
12001
  8
3
 10
49.390727455907061
 20
99.001117952509134
 30
0.0
 11
49.390727455907061
 21
99.00562504262129
 31
0.0
  0
LINE
  5
12002
  8
3
 10
49.390727455907061
 20
99.00562504262129
 30
0.0
 11
49.390727455907061
 21
99.014639222845616
 31
0.0
  0
LINE
  5
12003
  8
3
 10
49.390727455907061
 20
99.014639222845616
 30
0.0
 11
49.386220365794912
 21
99.014639222845616
 31
0.0
  0
LINE
  5
12004
  8
3
 10
49.386220365794912
 20
99.014639222845616
 30
0.0
 11
49.381713275682763
 21
99.014639222845616
 31
0.0
  0
LINE
  5
12005
  8
3
 10
49.381713275682763
 20
99.014639222845616
 30
0.0
 11
49.3772061855706
 21
99.014639222845616
 31
0.0
  0
LINE
  5
12006
  8
3
 10
49.3772061855706
 20
99.014639222845616
 30
0.0
 11
49.3772061855706
 21
99.019146312957758
 31
0.0
  0
LINE
  5
12007
  8
3
 10
49.3772061855706
 20
99.019146312957758
 30
0.0
 11
49.372699095458437
 21
99.019146312957758
 31
0.0
  0
LINE
  5
12008
  8
3
 10
49.372699095458437
 20
99.019146312957758
 30
0.0
 11
49.36819200534628
 21
99.019146312957758
 31
0.0
  0
LINE
  5
12009
  8
3
 10
49.36819200534628
 20
99.019146312957758
 30
0.0
 11
49.363684915234131
 21
99.019146312957758
 31
0.0
  0
LINE
  5
1200A
  8
3
 10
49.363684915234131
 20
99.019146312957758
 30
0.0
 11
49.359177825122032
 21
99.023653403069844
 31
0.0
  0
LINE
  5
1200B
  8
3
 10
49.359177825122032
 20
99.023653403069844
 30
0.0
 11
49.273543112991057
 21
99.203937007556107
 31
0.0
  0
LINE
  5
1200C
  8
3
 10
49.273543112991057
 20
99.203937007556107
 30
0.0
 11
49.20593676130877
 21
99.379713521930157
 31
0.0
  0
LINE
  5
1200D
  8
3
 10
48.935511354579397
 20
99.113795205313053
 30
0.0
 11
48.926497174355092
 21
99.100273934976514
 31
0.0
  0
LINE
  5
1200E
  8
3
 10
48.926497174355092
 20
99.100273934976514
 30
0.0
 11
48.912975904018623
 21
99.086752664640102
 31
0.0
  0
LINE
  5
1200F
  8
3
 10
48.912975904018623
 20
99.086752664640102
 30
0.0
 11
48.899454633682211
 21
99.073231394303633
 31
0.0
  0
LINE
  5
12010
  8
3
 10
48.899454633682211
 20
99.073231394303633
 30
0.0
 11
48.885933363345742
 21
99.059710123967164
 31
0.0
  0
LINE
  5
12011
  8
3
 10
48.885933363345742
 20
99.059710123967164
 30
0.0
 11
48.872412093009281
 21
99.04618885363071
 31
0.0
  0
LINE
  5
12012
  8
3
 10
48.872412093009281
 20
99.04618885363071
 30
0.0
 11
48.854383732560642
 21
99.037174673406383
 31
0.0
  0
LINE
  5
12013
  8
3
 10
48.854383732560642
 20
99.037174673406383
 30
0.0
 11
48.84086246222418
 21
99.028160493182071
 31
0.0
  0
LINE
  5
12014
  8
3
 10
48.84086246222418
 20
99.028160493182071
 30
0.0
 11
48.822834101775562
 21
99.019146312957758
 31
0.0
  0
LINE
  5
12015
  8
3
 10
48.822834101775562
 20
99.019146312957758
 30
0.0
 11
48.804805741326931
 21
99.010132132733446
 31
0.0
  0
LINE
  5
12016
  8
3
 10
48.804805741326931
 20
99.010132132733446
 30
0.0
 11
48.786777380878299
 21
99.001117952509134
 31
0.0
  0
LINE
  5
12017
  8
3
 10
48.944525534803716
 20
99.131823565761664
 30
0.0
 11
48.935511354579397
 21
99.113795205313053
 31
0.0
  0
LINE
  5
12018
  8
3
 10
48.750720659981113
 20
98.987596682172551
 30
0.0
 11
48.719171029196019
 21
98.983089592060509
 31
0.0
  0
LINE
  5
12019
  8
3
 10
48.47578816313959
 20
98.974075411836196
 30
0.0
 11
48.394660541120828
 21
98.969568321724054
 31
0.0
  0
LINE
  5
1201A
  8
3
 10
48.394660541120828
 20
98.969568321724054
 30
0.0
 11
48.318040009214172
 21
98.969568321724054
 31
0.0
  0
LINE
  5
1201B
  8
3
 10
48.318040009214172
 20
98.969568321724054
 30
0.0
 11
48.236912387195417
 21
98.974075411836196
 31
0.0
  0
LINE
  5
1201C
  8
3
 10
48.155784765176612
 20
98.978582501948367
 30
0.0
 11
48.074657143157793
 21
98.983089592060509
 31
0.0
  0
LINE
  5
1201D
  8
3
 10
47.998036611251187
 20
98.992103772284835
 30
0.0
 11
47.921416079344532
 21
99.00562504262129
 31
0.0
  0
LINE
  5
1201E
  8
3
 10
48.074657143157793
 20
98.983089592060509
 30
0.0
 11
47.998036611251187
 21
98.992103772284835
 31
0.0
  0
LINE
  5
1201F
  8
3
 10
48.236912387195417
 20
98.974075411836196
 30
0.0
 11
48.155784765176612
 21
98.978582501948367
 31
0.0
  0
LINE
  5
12020
  8
3
 10
48.6380434071772
 20
98.978582501948367
 30
0.0
 11
48.556915785158388
 21
98.974075411836196
 31
0.0
  0
LINE
  5
12021
  8
3
 10
48.556915785158388
 20
98.974075411836196
 30
0.0
 11
48.47578816313959
 21
98.974075411836196
 31
0.0
  0
LINE
  5
12022
  8
3
 10
48.719171029196019
 20
98.983089592060509
 30
0.0
 11
48.6380434071772
 21
98.978582501948367
 31
0.0
  0
LINE
  5
12023
  8
3
 10
48.768749020429681
 20
98.996610862396977
 30
0.0
 11
48.750720659981113
 21
98.987596682172551
 31
0.0
  0
LINE
  5
12024
  8
3
 10
48.786777380878299
 20
99.001117952509134
 30
0.0
 11
48.768749020429681
 21
98.996610862396977
 31
0.0
  0
LINE
  5
12025
  8
3
 10
47.448171617568299
 20
99.203937007556107
 30
0.0
 11
47.425636167007461
 21
99.217458277892504
 31
0.0
  0
LINE
  5
12026
  8
3
 10
47.376058175773807
 20
99.258022088901981
 30
0.0
 11
47.353522725213033
 21
99.276050449350564
 31
0.0
  0
LINE
  5
12027
  8
3
 10
47.353522725213033
 20
99.276050449350564
 30
0.0
 11
47.330987274652237
 21
99.294078809799174
 31
0.0
  0
LINE
  5
12028
  8
3
 10
47.330987274652237
 20
99.294078809799174
 30
0.0
 11
47.308451824091463
 21
99.316614260359955
 31
0.0
  0
LINE
  5
12029
  8
3
 10
47.308451824091463
 20
99.316614260359955
 30
0.0
 11
47.285916373530682
 21
99.334642620808594
 31
0.0
  0
LINE
  5
1202A
  8
3
 10
47.285916373530682
 20
99.334642620808594
 30
0.0
 11
47.263380922969901
 21
99.357178071369376
 31
0.0
  0
LINE
  5
1202B
  8
3
 10
47.263380922969901
 20
99.357178071369376
 30
0.0
 11
47.24084547240917
 21
99.379713521930157
 31
0.0
  0
LINE
  5
1202C
  8
3
 10
47.24084547240917
 20
99.379713521930157
 30
0.0
 11
47.222817111960552
 21
99.402248972490924
 31
0.0
  0
LINE
  5
1202D
  8
3
 10
47.222817111960552
 20
99.402248972490924
 30
0.0
 11
47.20478875151187
 21
99.424784423051705
 31
0.0
  0
LINE
  5
1202E
  8
3
 10
47.20478875151187
 20
99.424784423051705
 30
0.0
 11
47.186760391063302
 21
99.447319873612486
 31
0.0
  0
LINE
  5
1202F
  8
3
 10
47.425636167007461
 20
99.217458277892504
 30
0.0
 11
47.398593626334531
 21
99.235486638341257
 31
0.0
  0
LINE
  5
12030
  8
3
 10
47.398593626334531
 20
99.235486638341257
 30
0.0
 11
47.376058175773807
 21
99.258022088901981
 31
0.0
  0
LINE
  5
12031
  8
3
 10
47.696061573736777
 20
99.068724304191491
 30
0.0
 11
47.628455222054441
 21
99.095766844864315
 31
0.0
  0
LINE
  5
12032
  8
3
 10
47.84479554743794
 20
99.023653403069844
 30
0.0
 11
47.768175015531277
 21
99.041681763518426
 31
0.0
  0
LINE
  5
12033
  8
3
 10
47.768175015531277
 20
99.041681763518426
 30
0.0
 11
47.696061573736777
 21
99.068724304191491
 31
0.0
  0
LINE
  5
12034
  8
3
 10
47.497749608801968
 20
99.172387376770956
 30
0.0
 11
47.47070706812903
 21
99.185908647107425
 31
0.0
  0
LINE
  5
12035
  8
3
 10
47.47070706812903
 20
99.185908647107425
 30
0.0
 11
47.448171617568299
 21
99.203937007556107
 31
0.0
  0
LINE
  5
12036
  8
3
 10
47.628455222054441
 20
99.095766844864315
 30
0.0
 11
47.497749608801968
 21
99.172387376770956
 31
0.0
  0
LINE
  5
12037
  8
3
 10
47.921416079344532
 20
99.00562504262129
 30
0.0
 11
47.84479554743794
 21
99.023653403069844
 31
0.0
  0
LINE
  5
12038
  8
3
 10
47.186760391063302
 20
99.447319873612486
 30
0.0
 11
47.159717850390372
 21
99.496897864846204
 31
0.0
  0
LINE
  5
12039
  8
3
 10
49.016638976598223
 20
99.523940405519028
 30
0.0
 11
49.01213188648606
 21
99.478869504397593
 31
0.0
  0
LINE
  5
1203A
  8
3
 10
49.20593676130877
 20
99.379713521930157
 30
0.0
 11
49.156358770075059
 21
99.550982946192079
 31
0.0
  0
LINE
  5
1203B
  8
3
 10
50.391301460805522
 20
98.974075411836196
 30
0.0
 11
49.408755816355701
 21
98.974075411836196
 31
0.0
  0
LINE
  5
1203C
  8
3
 10
47.164224940502507
 20
100.9797305117452
 30
0.0
 11
47.182253300951082
 21
101.0112801425303
 31
0.0
  0
LINE
  5
1203D
  8
3
 10
49.07523114805624
 20
100.9977588721938
 30
0.0
 11
49.079738238168403
 21
101.2140991975772
 31
0.0
  0
LINE
  5
1203E
  8
3
 10
48.953539715028029
 20
101.4890316944187
 30
0.0
 11
48.944525534803773
 21
100.7093051050159
 31
0.0
  0
LINE
  5
1203F
  8
3
 10
49.882000278131983
 20
101.1509999360071
 30
0.0
 11
49.886507368244139
 21
100.96620924140861
 31
0.0
  0
LINE
  5
12040
  8
3
 10
50.256088757440828
 20
100.95719506118439
 30
0.0
 11
50.301159658562391
 21
101.0067730524181
 31
0.0
  0
POINT
  5
12041
  8
3
 10
46.91182789422183
 20
100.2676102740248
 30
0.0
  0
LINE
  5
12042
  8
3
 10
50.549049614730933
 20
101.2140991975772
 30
0.0
 11
50.603134696076808
 21
101.24564882836231
 31
0.0
  0
LINE
  5
12043
  8
3
 10
50.585106335628183
 20
99.154359016322445
 30
0.0
 11
50.540035434506621
 21
99.185908647107425
 31
0.0
  0
LINE
  5
12044
  8
1
 10
51.52896215239204
 20
110.8297253197629
 30
0.0
 11
51.528962152392069
 21
101.4259324328486
 31
0.0
  0
LINE
  5
12045
  8
3
 10
54.48373928264229
 20
101.412411162512
 30
0.0
 11
54.573881084885357
 21
101.4033969822877
 31
0.0
  0
LINE
  5
12046
  8
3
 10
54.582895265109663
 20
100.5876136719876
 30
0.0
 11
54.506274733203007
 21
100.60564203243629
 31
0.0
  0
LINE
  5
12047
  8
3
 10
53.636406341557091
 20
100.4388796982866
 30
0.0
 11
54.794728500380963
 21
100.4524009686229
 31
0.0
  0
POLYLINE
  5
12048
  8
3
 66
     1
 10
0.0
 20
0.0
 30
0.0
 70
     1
  0
VERTEX
  5
12049
  8
3
 10
54.199792605576498
 20
99.902535974940207
 30
0.0
  0
VERTEX
  5
1204A
  8
3
 10
54.830785221278198
 20
99.902535974940207
 30
0.0
  0
VERTEX
  5
1204B
  8
3
 10
54.835292311390361
 20
99.893521794715838
 30
0.0
  0
VERTEX
  5
1204C
  8
3
 10
54.839799401502518
 20
99.884507614491525
 30
0.0
  0
VERTEX
  5
1204D
  8
3
 10
54.839799401502518
 20
99.880000524379369
 30
0.0
  0
VERTEX
  5
1204E
  8
3
 10
54.839799401502518
 20
99.870986344155057
 30
0.0
  0
VERTEX
  5
1204F
  8
3
 10
54.835292311390361
 20
99.866479254042915
 30
0.0
  0
VERTEX
  5
12050
  8
3
 10
54.830785221278198
 20
99.857465073818645
 30
0.0
  0
VERTEX
  5
12051
  8
3
 10
54.826278131166049
 20
99.848450893594276
 30
0.0
  0
VERTEX
  5
12052
  8
3
 10
54.817263950941737
 20
99.839436713369963
 30
0.0
  0
VERTEX
  5
12053
  8
3
 10
54.808249770717417
 20
99.834929623257807
 30
0.0
  0
VERTEX
  5
12054
  8
3
 10
54.799235590493112
 20
99.825915443033495
 30
0.0
  0
VERTEX
  5
12055
  8
3
 10
54.790221410268799
 20
99.816901262809182
 30
0.0
  0
VERTEX
  5
12056
  8
3
 10
54.78120723004448
 20
99.807887082584855
 30
0.0
  0
VERTEX
  5
12057
  8
3
 10
54.772193049820181
 20
99.80337999247277
 30
0.0
  0
VERTEX
  5
12058
  8
3
 10
54.763178869595862
 20
99.794365812248444
 30
0.0
  0
VERTEX
  5
12059
  8
3
 10
54.74965759925945
 20
99.780844541912046
 30
0.0
  0
VERTEX
  5
1205A
  8
3
 10
54.722615058586463
 20
99.762816181463364
 30
0.0
  0
VERTEX
  5
1205B
  8
3
 10
54.691065427801362
 20
99.744787821014739
 30
0.0
  0
VERTEX
  5
1205C
  8
3
 10
54.664022887128482
 20
99.731266550678285
 30
0.0
  0
VERTEX
  5
1205D
  8
3
 10
54.636980346455537
 20
99.722252370453916
 30
0.0
  0
VERTEX
  5
1205E
  8
3
 10
54.605430715670451
 20
99.713238190229646
 30
0.0
  0
VERTEX
  5
1205F
  8
3
 10
54.578388174997521
 20
99.704224010005333
 30
0.0
  0
VERTEX
  5
12060
  8
3
 10
54.54683854421242
 20
99.695209829780964
 30
0.0
  0
VERTEX
  5
12061
  8
3
 10
54.51528891342732
 20
99.690702739668865
 30
0.0
  0
VERTEX
  5
12062
  8
3
 10
54.48373928264229
 20
99.686195649556709
 30
0.0
  0
VERTEX
  5
12063
  8
3
 10
54.452189651857204
 20
99.686195649556709
 30
0.0
  0
VERTEX
  5
12064
  8
3
 10
54.420640021072053
 20
99.686195649556709
 30
0.0
  0
VERTEX
  5
12065
  8
3
 10
54.389090390287002
 20
99.686195649556709
 30
0.0
  0
VERTEX
  5
12066
  8
3
 10
54.362047849614072
 20
99.690702739668865
 30
0.0
  0
VERTEX
  5
12067
  8
3
 10
54.330498218828978
 20
99.695209829780964
 30
0.0
  0
VERTEX
  5
12068
  8
3
 10
54.271906047370997
 20
99.708731100117504
 30
0.0
  0
VERTEX
  5
12069
  8
3
 10
54.258384777034543
 20
99.713238190229646
 30
0.0
  0
VERTEX
  5
1206A
  8
3
 10
54.249370596810223
 20
99.717745280341745
 30
0.0
  0
VERTEX
  5
1206B
  8
3
 10
54.235849326473762
 20
99.722252370453916
 30
0.0
  0
VERTEX
  5
1206C
  8
3
 10
54.226835146249442
 20
99.731266550678285
 30
0.0
  0
VERTEX
  5
1206D
  8
3
 10
54.217820966025123
 20
99.73577364079037
 30
0.0
  0
VERTEX
  5
1206E
  8
3
 10
54.208806785800817
 20
99.744787821014739
 30
0.0
  0
VERTEX
  5
1206F
  8
3
 10
54.199792605576498
 20
99.753802001239066
 30
0.0
  0
VERTEX
  5
12070
  8
3
 10
54.195285515464342
 20
99.762816181463364
 30
0.0
  0
VERTEX
  5
12071
  8
3
 10
54.186271335240043
 20
99.77183036168762
 30
0.0
  0
VERTEX
  5
12072
  8
3
 10
54.18176424512788
 20
99.780844541912046
 30
0.0
  0
VERTEX
  5
12073
  8
3
 10
54.177257155015717
 20
99.789858722136302
 30
0.0
  0
VERTEX
  5
12074
  8
3
 10
54.17275006490356
 20
99.798872902360571
 30
0.0
  0
VERTEX
  5
12075
  8
3
 10
54.168242974791411
 20
99.807887082584855
 30
0.0
  0
VERTEX
  5
12076
  8
3
 10
54.163735884679262
 20
99.821408352921281
 30
0.0
  0
VERTEX
  5
12077
  8
3
 10
54.159228794567099
 20
99.843943803482176
 30
0.0
  0
VERTEX
  5
12078
  8
3
 10
54.190778425352192
 20
99.898028884827994
 30
0.0
  0
VERTEX
  5
12079
  8
3
 10
54.195285515464342
 20
99.898028884827994
 30
0.0
  0
VERTEX
  5
1207A
  8
3
 10
54.199792605576498
 20
99.902535974940207
 30
0.0
  0
SEQEND
  5
1207B
  8
3
  0
LINE
  5
1207C
  8
3
 10
54.600923625558302
 20
98.938018690938947
 30
0.0
 11
54.551345634324584
 21
98.929004510714535
 31
0.0
  0
ARC
  5
12085
  8
0
 10
33.246158465449639
 20
106.6297253197629
 30
0.0
 40
1.1999999999999991
 50
90.0
 51
178.0229363795562
1001
GENIUS_GENODEF_13
1002
{
1000
HIER
1070
     0
1002
}
1002
{
1000
MANEDIT
1070
     0
1002
}
1002
{
1000
NOSEL
1070
     0
1002
}
1002
{
1000
BEHIND
1070
     0
1002
}
1002
{
1000
REACTOR
1002
}
1001
GENIUS_GENOBJ-N-FIL_13
1002
{
1000
OWNER
1000
GEN
1002
}
  0
LINE
  5
12091
  8
0
 10
31.27896215239204
 20
91.333061430873926
 30
0.0
 11
32.046872804155271
 21
106.67112462668661
 31
0.0
  0
LINE
  5
12092
  8
1
 10
51.528962152391991
 20
98.931922257193122
 30
0.0
 11
51.52896215239204
 21
88.333061430873954
 31
0.0
  0
LINE
  5
1209E
  8
0
 10
69.811765839334456
 20
107.8297253197629
 30
0.0
 11
33.246158465449639
 21
107.8297253197629
 31
0.0
  0
LINE
  5
1209F
  8
0
 10
71.77896215239204
 20
91.333061430873968
 30
0.0
 11
31.27896215239204
 21
91.333061430873926
 31
0.0
  0
LINE
  5
120A0
  8
3
 10
31.559268865058051
 20
96.931840485715597
 30
0.0
 11
71.498655439726036
 21
96.931840485715597
 31
0.0
  0
LINE
  5
120A6
  8
0
 10
184.9541363675433
 20
100.7377932377983
 30
0.0
 11
184.7608799014227
 21
106.67112462668661
 31
0.0
  0
LINE
  5
120A7
  8
0
 10
183.56159424012839
 20
107.8297253197629
 30
0.0
 11
179.45795481082499
 21
107.8297253197629
 31
0.0
  0
ARC
  5
120A8
  8
0
 10
179.45795481082499
 20
100.69639393087461
 30
0.0
 40
1.1999999999999991
 50
180.0
 51
270.0
1001
GENIUS_GENODEF_13
1002
{
1000
HIER
1070
     0
1002
}
1002
{
1000
MANEDIT
1070
     0
1002
}
1002
{
1000
NOSEL
1070
     0
1002
}
1002
{
1000
BEHIND
1070
     0
1002
}
1002
{
1000
REACTOR
1002
}
1001
GENIUS_GENOBJ-N-FIL_13
1002
{
1000
OWNER
1000
GEN
1002
}
  0
LINE
  5
120A9
  8
0
 10
178.257954810825
 20
98.133061430874022
 30
0.0
 11
178.257954810825
 21
106.6297253197629
 31
0.0
  0
LINE
  5
120AA
  8
0
 10
183.75485070624899
 20
99.49639393087466
 30
0.0
 11
179.45795481082499
 21
99.49639393087466
 31
0.0
  0
ARC
  5
120AB
  8
0
 10
179.45795481082499
 20
106.6297253197629
 30
0.0
 40
1.1999999999999991
 50
90.0
 51
180.0
1001
GENIUS_GENODEF_13
1002
{
1000
HIER
1070
     0
1002
}
1002
{
1000
MANEDIT
1070
     0
1002
}
1002
{
1000
NOSEL
1070
     0
1002
}
1002
{
1000
BEHIND
1070
     0
1002
}
1002
{
1000
REACTOR
1002
}
1001
GENIUS_GENOBJ-N-FIL_13
1002
{
1000
OWNER
1000
GEN
1002
}
  0
ARC
  5
120AC
  8
0
 10
177.05795481082501
 20
106.6297253197629
 30
0.0
 40
1.1999999999999991
 50
0.0
 51
90.0
1001
GENIUS_GENODEF_13
1002
{
1000
HIER
1070
     0
1002
}
1002
{
1000
MANEDIT
1070
     0
1002
}
1002
{
1000
NOSEL
1070
     0
1002
}
1002
{
1000
BEHIND
1070
     0
1002
}
1002
{
1000
REACTOR
1002
}
1001
GENIUS_GENOBJ-N-FIL_13
1002
{
1000
OWNER
1000
GEN
1002
}
  0
ARC
  5
120AD
  8
0
 10
183.75485070624899
 20
100.69639393087471
 30
0.0
 40
1.1999999999999991
 50
270.0
 51
1.977063620443738
1001
GENIUS_GENODEF_13
1002
{
1000
HIER
1070
     0
1002
}
1002
{
1000
MANEDIT
1070
     0
1002
}
1002
{
1000
NOSEL
1070
     0
1002
}
1002
{
1000
BEHIND
1070
     0
1002
}
1002
{
1000
REACTOR
1002
}
1001
GENIUS_GENOBJ-N-FIL_13
1002
{
1000
OWNER
1000
GEN
1002
}
  0
ARC
  5
120AE
  8
0
 10
183.56159424012839
 20
106.629725319763
 30
0.0
 40
1.1999999999999991
 50
1.977063620443738
 51
90.0
1001
GENIUS_GENODEF_13
1002
{
1000
HIER
1070
     0
1002
}
1002
{
1000
MANEDIT
1070
     0
1002
}
1002
{
1000
NOSEL
1070
     0
1002
}
1002
{
1000
BEHIND
1070
     0
1002
}
1002
{
1000
REACTOR
1002
}
1001
GENIUS_GENOBJ-N-FIL_13
1002
{
1000
OWNER
1000
GEN
1002
}
  0
LINE
  5
120AF
  8
0
 10
185.04405163544729
 20
98.133061430874022
 30
0.0
 11
178.257954810825
 21
98.133061430874051
 31
0.0
  0
ARC
  5
120B0
  8
0
 10
170.47462324693609
 20
100.69639393087471
 30
0.0
 40
1.1999999999999991
 50
270.0
 51
0.0
1001
GENIUS_GENODEF_13
1002
{
1000
HIER
1070
     0
1002
}
1002
{
1000
MANEDIT
1070
     0
1002
}
1002
{
1000
NOSEL
1070
     0
1002
}
1002
{
1000
BEHIND
1070
     0
1002
}
1002
{
1000
REACTOR
1002
}
1001
GENIUS_GENOBJ-N-FIL_13
1002
{
1000
OWNER
1000
GEN
1002
}
  0
LINE
  5
120B1
  8
0
 10
171.67462324693599
 20
98.133061430874022
 30
0.0
 11
171.67462324693599
 21
106.629725319763
 31
0.0
  0
ARC
  5
120B2
  8
0
 10
172.87462324693601
 20
106.629725319763
 30
0.0
 40
1.1999999999999991
 50
90.0
 51
180.0
1001
GENIUS_GENODEF_13
1002
{
1000
HIER
1070
     0
1002
}
1002
{
1000
MANEDIT
1070
     0
1002
}
1002
{
1000
NOSEL
1070
     0
1002
}
1002
{
1000
BEHIND
1070
     0
1002
}
1002
{
1000
REACTOR
1002
}
1001
GENIUS_GENOBJ-N-FIL_13
1002
{
1000
OWNER
1000
GEN
1002
}
  0
ARC
  5
120B3
  8
0
 10
170.47462324693601
 20
106.629725319763
 30
0.0
 40
1.1999999999999991
 50
0.0
 51
90.0
1001
GENIUS_GENODEF_13
1002
{
1000
HIER
1070
     0
1002
}
1002
{
1000
MANEDIT
1070
     0
1002
}
1002
{
1000
NOSEL
1070
     0
1002
}
1002
{
1000
BEHIND
1070
     0
1002
}
1002
{
1000
REACTOR
1002
}
1001
GENIUS_GENOBJ-N-FIL_13
1002
{
1000
OWNER
1000
GEN
1002
}
  0
ARC
  5
120B4
  8
0
 10
166.54129054693601
 20
100.69639393087471
 30
0.0
 40
1.1999999999999991
 50
180.0
 51
270.0
1001
GENIUS_GENODEF_13
1002
{
1000
HIER
1070
     0
1002
}
1002
{
1000
MANEDIT
1070
     0
1002
}
1002
{
1000
NOSEL
1070
     0
1002
}
1002
{
1000
BEHIND
1070
     0
1002
}
1002
{
1000
REACTOR
1002
}
1001
GENIUS_GENOBJ-N-FIL_13
1002
{
1000
OWNER
1000
GEN
1002
}
  0
LINE
  5
120B5
  8
0
 10
165.34129054693599
 20
98.133061430874022
 30
0.0
 11
165.34129054693599
 21
106.629725319763
 31
0.0
  0
ARC
  5
120B6
  8
0
 10
166.54129054693601
 20
106.629725319763
 30
0.0
 40
1.1999999999999991
 50
90.0
 51
180.0
1001
GENIUS_GENODEF_13
1002
{
1000
HIER
1070
     0
1002
}
1002
{
1000
MANEDIT
1070
     0
1002
}
1002
{
1000
NOSEL
1070
     0
1002
}
1002
{
1000
BEHIND
1070
     0
1002
}
1002
{
1000
REACTOR
1002
}
1001
GENIUS_GENOBJ-N-FIL_13
1002
{
1000
OWNER
1000
GEN
1002
}
  0
ARC
  5
120B7
  8
0
 10
164.14129054693601
 20
106.629725319763
 30
0.0
 40
1.1999999999999991
 50
0.0
 51
90.0
1001
GENIUS_GENODEF_13
1002
{
1000
HIER
1070
     0
1002
}
1002
{
1000
MANEDIT
1070
     0
1002
}
1002
{
1000
NOSEL
1070
     0
1002
}
1002
{
1000
BEHIND
1070
     0
1002
}
1002
{
1000
REACTOR
1002
}
1001
GENIUS_GENOBJ-N-FIL_13
1002
{
1000
OWNER
1000
GEN
1002
}
  0
LINE
  5
120B8
  8
0
 10
170.47462324693609
 20
99.49639393087466
 30
0.0
 11
166.54129054693601
 21
99.49639393087466
 31
0.0
  0
LINE
  5
120B9
  8
0
 10
170.47462324693601
 20
107.8297253197629
 30
0.0
 11
166.54129054693601
 21
107.8297253197629
 31
0.0
  0
LINE
  5
120BA
  8
0
 10
171.67462324693599
 20
98.133061430874051
 30
0.0
 11
165.34129054693599
 21
98.133061430874022
 31
0.0
  0
LINE
  5
120BB
  8
0
 10
177.05795481082501
 20
107.8297253197629
 30
0.0
 11
172.87462324693601
 21
107.8297253197629
 31
0.0
  0
LINE
  5
120C1
  8
0
 10
185.5287905531859
 20
91.333061430873926
 30
0.0
 11
185.04405163544729
 21
98.133061430874022
 31
0.0
  0
LINE
  5
120C2
  8
1
 10
165.2787905531859
 20
110.8297253197629
 30
0.0
 11
165.2787905531859
 21
88.333061430873926
 31
0.0
  0
LINE
  5
120CA
  8
0
 10
157.557957871936
 20
107.8297253197629
 30
0.0
 11
153.62462628304701
 21
107.8297253197629
 31
0.0
  0
ARC
  5
120CB
  8
0
 10
157.557957871936
 20
100.69639393087471
 30
0.0
 40
1.1999999999999991
 50
270.0
 51
0.0
1001
GENIUS_GENODEF_13
1002
{
1000
HIER
1070
     0
1002
}
1002
{
1000
MANEDIT
1070
     0
1002
}
1002
{
1000
NOSEL
1070
     0
1002
}
1002
{
1000
BEHIND
1070
     0
1002
}
1002
{
1000
REACTOR
1002
}
1001
GENIUS_GENOBJ-N-FIL_13
1002
{
1000
OWNER
1000
GEN
1002
}
  0
LINE
  5
120CC
  8
0
 10
158.75795787193599
 20
98.133061430873994
 30
0.0
 11
158.75795787193599
 21
106.629725319763
 31
0.0
  0
LINE
  5
120CD
  8
0
 10
157.557957871936
 20
99.496393930874731
 30
0.0
 11
153.62462628304701
 21
99.496393930874731
 31
0.0
  0
ARC
  5
120CE
  8
0
 10
159.957957871936
 20
106.629725319763
 30
0.0
 40
1.1999999999999991
 50
90.0
 51
180.0
1001
GENIUS_GENODEF_13
1002
{
1000
HIER
1070
     0
1002
}
1002
{
1000
MANEDIT
1070
     0
1002
}
1002
{
1000
NOSEL
1070
     0
1002
}
1002
{
1000
BEHIND
1070
     0
1002
}
1002
{
1000
REACTOR
1002
}
1001
GENIUS_GENOBJ-N-FIL_13
1002
{
1000
OWNER
1000
GEN
1002
}
  0
ARC
  5
120CF
  8
0
 10
157.557957871936
 20
106.629725319763
 30
0.0
 40
1.1999999999999991
 50
0.0
 51
90.0
1001
GENIUS_GENODEF_13
1002
{
1000
HIER
1070
     0
1002
}
1002
{
1000
MANEDIT
1070
     0
1002
}
1002
{
1000
NOSEL
1070
     0
1002
}
1002
{
1000
BEHIND
1070
     0
1002
}
1002
{
1000
REACTOR
1002
}
1001
GENIUS_GENOBJ-N-FIL_13
1002
{
1000
OWNER
1000
GEN
1002
}
  0
LINE
  5
120D0
  8
0
 10
151.224626283047
 20
107.8297253197629
 30
0.0
 11
146.9959868662435
 21
107.8297253197629
 31
0.0
  0
LINE
  5
120D1
  8
0
 10
152.42462628304699
 20
98.133061430873994
 30
0.0
 11
152.42462628304699
 21
106.629725319763
 31
0.0
  0
ARC
  5
120D2
  8
0
 10
151.224626283047
 20
106.629725319763
 30
0.0
 40
1.1999999999999991
 50
0.0
 51
90.0
1001
GENIUS_GENODEF_13
1002
{
1000
HIER
1070
     0
1002
}
1002
{
1000
MANEDIT
1070
     0
1002
}
1002
{
1000
NOSEL
1070
     0
1002
}
1002
{
1000
BEHIND
1070
     0
1002
}
1002
{
1000
REACTOR
1002
}
1001
GENIUS_GENOBJ-N-FIL_13
1002
{
1000
OWNER
1000
GEN
1002
}
  0
ARC
  5
120D3
  8
0
 10
146.9959868662435
 20
106.629725319763
 30
0.0
 40
1.1999999999999991
 50
90.0
 51
178.0229363795562
1001
GENIUS_GENODEF_13
1002
{
1000
HIER
1070
     0
1002
}
1002
{
1000
MANEDIT
1070
     0
1002
}
1002
{
1000
NOSEL
1070
     0
1002
}
1002
{
1000
BEHIND
1070
     0
1002
}
1002
{
1000
REACTOR
1002
}
1001
GENIUS_GENOBJ-N-FIL_13
1002
{
1000
OWNER
1000
GEN
1002
}
  0
ARC
  5
120D4
  8
0
 10
153.62462628304701
 20
100.69639393087471
 30
0.0
 40
1.1999999999999991
 50
180.0
 51
270.0
1001
GENIUS_GENODEF_13
1002
{
1000
HIER
1070
     0
1002
}
1002
{
1000
MANEDIT
1070
     0
1002
}
1002
{
1000
NOSEL
1070
     0
1002
}
1002
{
1000
BEHIND
1070
     0
1002
}
1002
{
1000
REACTOR
1002
}
1001
GENIUS_GENOBJ-N-FIL_13
1002
{
1000
OWNER
1000
GEN
1002
}
  0
ARC
  5
120D5
  8
0
 10
153.62462628304701
 20
106.629725319763
 30
0.0
 40
1.1999999999999991
 50
90.0
 51
180.0
1001
GENIUS_GENODEF_13
1002
{
1000
HIER
1070
     0
1002
}
1002
{
1000
MANEDIT
1070
     0
1002
}
1002
{
1000
NOSEL
1070
     0
1002
}
1002
{
1000
BEHIND
1070
     0
1002
}
1002
{
1000
REACTOR
1002
}
1001
GENIUS_GENOBJ-N-FIL_13
1002
{
1000
OWNER
1000
GEN
1002
}
  0
LINE
  5
120D6
  8
0
 10
158.75795787193599
 20
98.133061430874022
 30
0.0
 11
152.42462628304699
 21
98.133061430873994
 31
0.0
  0
LINE
  5
120DC
  8
0
 10
145.0287905531859
 20
91.333061430873954
 30
0.0
 11
145.79670120494919
 21
106.67112462668661
 31
0.0
  0
LINE
  5
120E4
  8
0
 10
164.14129054693601
 20
107.8297253197629
 30
0.0
 11
159.957957871936
 21
107.8297253197629
 31
0.0
  0
LINE
  5
120E5
  8
0
 10
185.5287905531859
 20
91.333061430873954
 30
0.0
 11
145.02879055318601
 21
91.333061430873911
 31
0.0
  0
LINE
  5
120F3
  8
0
 10
63.528962152392111
 20
74.083061430873897
 30
0.0
 11
62.778962152392111
 21
73.333061430873897
 31
0.0
  0
LINE
  5
120F4
  8
0
 10
63.528962152392111
 20
91.333061430873897
 30
0.0
 11
63.528962152392111
 21
74.083061430873897
 31
0.0
1001
GENIUS_GENOREF_13
1005
0
1005
0
  0
LINE
  5
120F5
  8
3
 10
63.099462152392093
 20
73.653561430873907
 30
0.0
 11
63.099462152392093
 21
91.333061430873897
 31
0.0
1001
GENIUS_GENOREF_13
1005
0
1005
0
  0
LINE
  5
120F6
  8
0
 10
59.528962152392111
 20
74.083061430873897
 30
0.0
 11
60.278962152392111
 21
73.333061430873897
 31
0.0
  0
LINE
  5
120F7
  8
0
 10
43.528962152391998
 20
74.083061430873897
 30
0.0
 11
42.778962152391991
 21
73.333061430873897
 31
0.0
  0
LINE
  5
120F8
  8
0
 10
39.528962152391998
 20
74.083061430873897
 30
0.0
 11
40.278962152391991
 21
73.333061430873897
 31
0.0
  0
LINE
  5
120F9
  8
0
 10
40.278962152391991
 20
73.333061430873897
 30
0.0
 11
42.778962152391991
 21
73.333061430873897
 31
0.0
1001
GENIUS_GENOREF_13
1005
0
1005
0
  0
LINE
  5
120FA
  8
0
 10
39.528962152391998
 20
74.083061430873897
 30
0.0
 11
43.528962152391998
 21
74.083061430873897
 31
0.0
  0
LINE
  5
120FB
  8
0
 10
59.528962152392111
 20
91.333061430873897
 30
0.0
 11
59.528962152392111
 21
74.083061430873897
 31
0.0
1001
GENIUS_GENOREF_13
1005
0
1005
0
  0
LINE
  5
120FC
  8
0
 10
43.528962152391998
 20
91.333061430873897
 30
0.0
 11
43.528962152391998
 21
74.083061430873897
 31
0.0
1001
GENIUS_GENOREF_13
1005
0
1005
0
  0
LINE
  5
120FD
  8
0
 10
39.528962152391998
 20
91.333061430873897
 30
0.0
 11
39.528962152391998
 21
74.083061430873897
 31
0.0
1001
GENIUS_GENOREF_13
1005
0
1005
0
  0
LINE
  5
120FE
  8
1
 10
41.528962152391991
 20
71.808936638842823
 30
0.0
 11
41.528962152391991
 21
92.833061430873926
 31
0.0
  0
LINE
  5
120FF
  8
1
 10
61.528962152392111
 20
71.808936638842823
 30
0.0
 11
61.528962152392062
 21
92.833061430873954
 31
0.0
  0
LINE
  5
12100
  8
3
 10
59.95846215239208
 20
73.653561430873907
 30
0.0
 11
59.95846215239208
 21
91.333061430873897
 31
0.0
1001
GENIUS_GENOREF_13
1005
0
1005
0
  0
LINE
  5
12101
  8
3
 10
43.099462152392029
 20
73.653561430873907
 30
0.0
 11
43.099462152392029
 21
91.333061430873897
 31
0.0
1001
GENIUS_GENOREF_13
1005
0
1005
0
  0
LINE
  5
12102
  8
3
 10
39.958462152392023
 20
73.653561430873907
 30
0.0
 11
39.958462152392023
 21
91.333061430873897
 31
0.0
1001
GENIUS_GENOREF_13
1005
0
1005
0
  0
LINE
  5
12103
  8
0
 10
62.778962152392111
 20
73.333061430873897
 30
0.0
 11
60.278962152392111
 21
73.333061430873897
 31
0.0
1001
GENIUS_GENOREF_13
1005
0
1005
0
  0
LINE
  5
12104
  8
0
 10
63.528962152392111
 20
74.083061430873897
 30
0.0
 11
59.528962152392111
 21
74.083061430873897
 31
0.0
  0
LINE
  5
12105
  8
0
 10
102.475617457948
 20
74.083061430874039
 30
0.0
 11
101.725617457948
 21
73.333061430874039
 31
0.0
  0
LINE
  5
12106
  8
0
 10
98.475617457948005
 20
74.083061430874039
 30
0.0
 11
99.225617457948005
 21
73.333061430874039
 31
0.0
  0
LINE
  5
12107
  8
0
 10
101.725617457948
 20
73.333061430874039
 30
0.0
 11
99.225617457948005
 21
73.333061430874039
 31
0.0
1001
GENIUS_GENOREF_13
1005
0
1005
0
  0
LINE
  5
12108
  8
0
 10
102.475617457948
 20
74.083061430874039
 30
0.0
 11
98.475617457948005
 21
74.083061430874039
 31
0.0
  0
LINE
  5
12109
  8
0
 10
98.475617457948005
 20
91.333061430874039
 30
0.0
 11
98.475617457948005
 21
74.083061430874039
 31
0.0
1001
GENIUS_GENOREF_13
1005
0
1005
0
  0
LINE
  5
1210A
  8
0
 10
102.475617457948
 20
91.333061430874039
 30
0.0
 11
102.475617457948
 21
74.083061430874039
 31
0.0
1001
GENIUS_GENOREF_13
1005
0
1005
0
  0
LINE
  5
1210B
  8
1
 10
100.475617457948
 20
71.808936638842965
 30
0.0
 11
100.47561745794791
 21
92.833061430874096
 31
0.0
  0
LINE
  5
1210C
  8
3
 10
102.046117457948
 20
73.653561430874049
 30
0.0
 11
102.046117457948
 21
91.333061430874039
 31
0.0
1001
GENIUS_GENOREF_13
1005
0
1005
0
  0
LINE
  5
1210D
  8
3
 10
98.905117457947995
 20
73.653561430874049
 30
0.0
 11
98.905117457947995
 21
91.333061430874039
 31
0.0
1001
GENIUS_GENOREF_13
1005
0
1005
0
  0
LINE
  5
1210E
  8
3
 10
119.105117457948
 20
73.653561430874049
 30
0.0
 11
119.105117457948
 21
91.333061430874039
 31
0.0
1001
GENIUS_GENOREF_13
1005
0
1005
0
  0
LINE
  5
1210F
  8
3
 10
122.246117457948
 20
73.653561430874049
 30
0.0
 11
122.246117457948
 21
91.333061430874039
 31
0.0
1001
GENIUS_GENOREF_13
1005
0
1005
0
  0
LINE
  5
12110
  8
1
 10
120.67561745794799
 20
71.808936638842965
 30
0.0
 11
120.67561745794799
 21
92.833061430874096
 31
0.0
  0
LINE
  5
12111
  8
0
 10
122.67561745794799
 20
91.333061430874039
 30
0.0
 11
122.67561745794799
 21
74.083061430874039
 31
0.0
1001
GENIUS_GENOREF_13
1005
0
1005
0
  0
LINE
  5
12112
  8
0
 10
118.67561745794799
 20
91.333061430874039
 30
0.0
 11
118.67561745794799
 21
74.083061430874039
 31
0.0
1001
GENIUS_GENOREF_13
1005
0
1005
0
  0
LINE
  5
12113
  8
0
 10
122.67561745794799
 20
74.083061430874039
 30
0.0
 11
118.67561745794799
 21
74.083061430874039
 31
0.0
  0
LINE
  5
12114
  8
0
 10
121.92561745794799
 20
73.333061430874039
 30
0.0
 11
119.42561745794799
 21
73.333061430874039
 31
0.0
1001
GENIUS_GENOREF_13
1005
0
1005
0
  0
LINE
  5
12115
  8
0
 10
118.67561745794799
 20
74.083061430874039
 30
0.0
 11
119.42561745794799
 21
73.333061430874039
 31
0.0
  0
LINE
  5
12116
  8
0
 10
122.67561745794799
 20
74.083061430874039
 30
0.0
 11
121.92561745794799
 21
73.333061430874039
 31
0.0
  0
LINE
  5
12117
  8
0
 10
177.27879055318601
 20
74.083061430873784
 30
0.0
 11
173.27879055318601
 21
74.083061430873784
 31
0.0
  0
LINE
  5
12118
  8
0
 10
176.52879055318601
 20
73.333061430873798
 30
0.0
 11
174.02879055318601
 21
73.333061430873798
 31
0.0
1001
GENIUS_GENOREF_13
1005
0
1005
0
  0
LINE
  5
12119
  8
3
 10
153.70829055318589
 20
73.653561430873808
 30
0.0
 11
153.70829055318589
 21
91.333061430873784
 31
0.0
1001
GENIUS_GENOREF_13
1005
0
1005
0
  0
LINE
  5
1211A
  8
3
 10
156.84929055318591
 20
73.653561430873808
 30
0.0
 11
156.84929055318591
 21
91.333061430873784
 31
0.0
1001
GENIUS_GENOREF_13
1005
0
1005
0
  0
LINE
  5
1211B
  8
3
 10
173.708290553186
 20
73.653561430873808
 30
0.0
 11
173.708290553186
 21
91.333061430873784
 31
0.0
1001
GENIUS_GENOREF_13
1005
0
1005
0
  0
LINE
  5
1211C
  8
1
 10
175.27879055318601
 20
71.808936638842724
 30
0.0
 11
175.2787905531859
 21
92.833061430873855
 31
0.0
  0
LINE
  5
1211D
  8
1
 10
155.2787905531859
 20
71.808936638842724
 30
0.0
 11
155.2787905531859
 21
92.833061430873855
 31
0.0
  0
LINE
  5
1211E
  8
0
 10
153.2787905531859
 20
91.333061430873784
 30
0.0
 11
153.2787905531859
 21
74.083061430873784
 31
0.0
1001
GENIUS_GENOREF_13
1005
0
1005
0
  0
LINE
  5
1211F
  8
0
 10
157.2787905531859
 20
91.333061430873784
 30
0.0
 11
157.2787905531859
 21
74.083061430873784
 31
0.0
1001
GENIUS_GENOREF_13
1005
0
1005
0
  0
LINE
  5
12120
  8
0
 10
173.27879055318601
 20
91.333061430873784
 30
0.0
 11
173.27879055318601
 21
74.083061430873784
 31
0.0
1001
GENIUS_GENOREF_13
1005
0
1005
0
  0
LINE
  5
12121
  8
0
 10
153.2787905531859
 20
74.083061430873784
 30
0.0
 11
157.2787905531859
 21
74.083061430873784
 31
0.0
  0
LINE
  5
12122
  8
0
 10
154.0287905531859
 20
73.333061430873798
 30
0.0
 11
156.5287905531859
 21
73.333061430873798
 31
0.0
1001
GENIUS_GENOREF_13
1005
0
1005
0
  0
LINE
  5
12123
  8
0
 10
153.2787905531859
 20
74.083061430873784
 30
0.0
 11
154.0287905531859
 21
73.333061430873798
 31
0.0
  0
LINE
  5
12124
  8
0
 10
157.2787905531859
 20
74.083061430873784
 30
0.0
 11
156.5287905531859
 21
73.333061430873798
 31
0.0
  0
LINE
  5
12125
  8
0
 10
173.27879055318601
 20
74.083061430873784
 30
0.0
 11
174.02879055318601
 21
73.333061430873798
 31
0.0
  0
LINE
  5
12126
  8
3
 10
176.84929055318599
 20
73.653561430873808
 30
0.0
 11
176.84929055318599
 21
91.333061430873784
 31
0.0
1001
GENIUS_GENOREF_13
1005
0
1005
0
  0
LINE
  5
12127
  8
0
 10
177.27879055318601
 20
91.333061430873784
 30
0.0
 11
177.27879055318601
 21
74.083061430873784
 31
0.0
1001
GENIUS_GENOREF_13
1005
0
1005
0
  0
LINE
  5
12128
  8
0
 10
177.27879055318601
 20
74.083061430873784
 30
0.0
 11
176.52879055318601
 21
73.333061430873798
 31
0.0
  0
LINE
  5
12134
  8
0
 10
228.08196364842411
 20
91.333061430874039
 30
0.0
 11
228.08196364842411
 21
74.083061430874039
 31
0.0
1001
GENIUS_GENOREF_13
1005
0
1005
0
  0
LINE
  5
12135
  8
0
 10
232.08196364842411
 20
91.333061430874039
 30
0.0
 11
232.08196364842411
 21
74.083061430874039
 31
0.0
1001
GENIUS_GENOREF_13
1005
0
1005
0
  0
LINE
  5
12136
  8
1
 10
230.08196364842411
 20
71.808936638842965
 30
0.0
 11
230.08196364842399
 21
92.833061430874096
 31
0.0
  0
LINE
  5
12137
  8
3
 10
231.652463648424
 20
73.653561430874049
 30
0.0
 11
231.652463648424
 21
91.333061430874039
 31
0.0
1001
GENIUS_GENOREF_13
1005
0
1005
0
  0
LINE
  5
12138
  8
3
 10
228.51146364842401
 20
73.653561430874049
 30
0.0
 11
228.51146364842401
 21
91.333061430874039
 31
0.0
1001
GENIUS_GENOREF_13
1005
0
1005
0
  0
LINE
  5
12139
  8
3
 10
208.311463648424
 20
73.653561430874049
 30
0.0
 11
208.311463648424
 21
91.333061430874039
 31
0.0
1001
GENIUS_GENOREF_13
1005
0
1005
0
  0
LINE
  5
1213A
  8
3
 10
211.45246364842399
 20
73.653561430874049
 30
0.0
 11
211.45246364842399
 21
91.333061430874039
 31
0.0
1001
GENIUS_GENOREF_13
1005
0
1005
0
  0
LINE
  5
1213B
  8
1
 10
209.881963648424
 20
71.808936638842965
 30
0.0
 11
209.881963648424
 21
92.833061430874096
 31
0.0
  0
LINE
  5
1213C
  8
0
 10
211.881963648424
 20
91.333061430874039
 30
0.0
 11
211.881963648424
 21
74.083061430874039
 31
0.0
1001
GENIUS_GENOREF_13
1005
0
1005
0
  0
LINE
  5
1213D
  8
0
 10
207.881963648424
 20
91.333061430874039
 30
0.0
 11
207.881963648424
 21
74.083061430874039
 31
0.0
1001
GENIUS_GENOREF_13
1005
0
1005
0
  0
LINE
  5
1213E
  8
0
 10
232.08196364842411
 20
74.083061430874196
 30
0.0
 11
231.33196364842411
 21
73.333061430874196
 31
0.0
  0
LINE
  5
1213F
  8
0
 10
228.08196364842411
 20
74.083061430874196
 30
0.0
 11
228.83196364842399
 21
73.333061430874196
 31
0.0
  0
LINE
  5
12140
  8
0
 10
231.33196364842411
 20
73.333061430874196
 30
0.0
 11
228.83196364842399
 21
73.333061430874196
 31
0.0
1001
GENIUS_GENOREF_13
1005
0
1005
0
  0
LINE
  5
12141
  8
0
 10
232.08196364842411
 20
74.083061430874196
 30
0.0
 11
228.08196364842411
 21
74.083061430874196
 31
0.0
  0
LINE
  5
12142
  8
0
 10
211.881963648424
 20
74.083061430874196
 30
0.0
 11
207.881963648424
 21
74.083061430874196
 31
0.0
  0
LINE
  5
12143
  8
0
 10
211.131963648424
 20
73.333061430874196
 30
0.0
 11
208.631963648424
 21
73.333061430874196
 31
0.0
1001
GENIUS_GENOREF_13
1005
0
1005
0
  0
LINE
  5
12144
  8
0
 10
207.881963648424
 20
74.083061430874196
 30
0.0
 11
208.631963648424
 21
73.333061430874196
 31
0.0
  0
LINE
  5
12145
  8
0
 10
211.881963648424
 20
74.083061430874196
 30
0.0
 11
211.131963648424
 21
73.333061430874196
 31
0.0
  0
LINE
  5
1216A
  8
0
 10
205.38196364842389
 20
91.333061430874039
 30
0.0
 11
214.381963648424
 21
91.333061430874039
 31
0.0
  0
LINE
  5
1216B
  8
0
 10
116.17561745794789
 20
91.333061430874039
 30
0.0
 11
125.17561745794789
 21
91.333061430874039
 31
0.0
  0
TEXT
  5
1227F
  8
0
 62
     3
 10
0.0
 20
0.0
 30
0.0
 40
10.0
  1
EMH4040TT
  7
STANDARD1
  0
ENDSEC
  0
EOF
