  0
SECTION
  2
HEADER
  9
$ACADVER
  1
AC1009
  9
$INSBASE
 10
0.0
 20
0.0
 30
0.0
  9
$EXTMIN
 10
0.0
 20
-2.960436562073669
 30
0.0
  9
$EXTMAX
 10
158.55399761255219
 20
208.846895846433
 30
0.0
  9
$LIMMIN
 10
0.0
 20
0.0
  9
$LIMMAX
 10
385.0
 20
270.0
  9
$ORTHOMODE
 70
     1
  9
$REGENMODE
 70
     1
  9
$FILLMODE
 70
     1
  9
$QTEXTMODE
 70
     0
  9
$MIRRTEXT
 70
     0
  9
$DRAGMODE
 70
     2
  9
$LTSCALE
 40
10.0
  9
$OSMODE
 70
  3071
  9
$ATTMODE
 70
     1
  9
$TEXTSIZE
 40
0.2
  9
$TRACEWID
 40
0.05
  9
$TEXTSTYLE
  7
STANDARD
  9
$CLAYER
  8
0
  9
$CELTYPE
  6
BYLAYER
  9
$CECOLOR
 62
   256
  9
$DIMSCALE
 40
1.0
  9
$DIMASZ
 40
3.0
  9
$DIMEXO
 40
0.0625
  9
$DIMDLI
 40
0.38
  9
$DIMRND
 40
0.0
  9
$DIMDLE
 40
0.0
  9
$DIMEXE
 40
0.18
  9
$DIMTP
 40
0.0
  9
$DIMTM
 40
0.0
  9
$DIMTXT
 40
3.0
  9
$DIMCEN
 40
0.09
  9
$DIMTSZ
 40
0.0
  9
$DIMTOL
 70
     0
  9
$DIMLIM
 70
     0
  9
$DIMTIH
 70
     1
  9
$DIMTOH
 70
     1
  9
$DIMSE1
 70
     0
  9
$DIMSE2
 70
     0
  9
$DIMTAD
 70
     0
  9
$DIMZIN
 70
     0
  9
$DIMBLK
  1

  9
$DIMASO
 70
     1
  9
$DIMSHO
 70
     1
  9
$DIMPOST
  1

  9
$DIMAPOST
  1

  9
$DIMALT
 70
     0
  9
$DIMALTD
 70
     2
  9
$DIMALTF
 40
25.399999999999999
  9
$DIMLFAC
 40
1.0
  9
$DIMTOFL
 70
     0
  9
$DIMTVP
 40
0.0
  9
$DIMTIX
 70
     0
  9
$DIMSOXD
 70
     0
  9
$DIMSAH
 70
     0
  9
$DIMBLK1
  1

  9
$DIMBLK2
  1

  9
$DIMSTYLE
  2
STANDARD
  9
$DIMCLRD
 70
     0
  9
$DIMCLRE
 70
     0
  9
$DIMCLRT
 70
     0
  9
$DIMTFAC
 40
1.0
  9
$DIMGAP
 40
0.09
  9
$LUNITS
 70
     2
  9
$LUPREC
 70
     4
  9
$SKETCHINC
 40
0.1
  9
$FILLETRAD
 40
0.0
  9
$AUNITS
 70
     0
  9
$AUPREC
 70
     0
  9
$MENU
  1
E:\r13\win\SUPPORT\ACAD
  9
$ELEVATION
 40
0.0
  9
$PELEVATION
 40
0.0
  9
$THICKNESS
 40
0.0
  9
$LIMCHECK
 70
     0
  9
$BLIPMODE
 70
     0
  9
$CHAMFERA
 40
0.0
  9
$CHAMFERB
 40
0.0
  9
$SKPOLY
 70
     0
  9
$TDCREATE
 40
2450361.7038774309
  9
$TDUPDATE
 40
2456598.6791003118
  9
$TDINDWG
 40
0.0033607639
  9
$TDUSRTIMER
 40
0.0033607639
  9
$USRTIMER
 70
     1
  9
$ANGBASE
 50
0.0
  9
$ANGDIR
 70
     0
  9
$PDMODE
 70
     0
  9
$PDSIZE
 40
0.0
  9
$PLINEWID
 40
0.0
  9
$COORDS
 70
     1
  9
$SPLFRAME
 70
     0
  9
$SPLINETYPE
 70
     6
  9
$SPLINESEGS
 70
     8
  9
$ATTDIA
 70
     0
  9
$ATTREQ
 70
     1
  9
$HANDLING
 70
     1
  9
$HANDSEED
  5
2D5
  9
$SURFTAB1
 70
     6
  9
$SURFTAB2
 70
     6
  9
$SURFTYPE
 70
     6
  9
$SURFU
 70
     6
  9
$SURFV
 70
     6
  9
$UCSNAME
  2

  9
$UCSORG
 10
0.0
 20
0.0
 30
0.0
  9
$UCSXDIR
 10
1.0
 20
0.0
 30
0.0
  9
$UCSYDIR
 10
0.0
 20
1.0
 30
0.0
  9
$PUCSNAME
  2

  9
$PUCSORG
 10
0.0
 20
0.0
 30
0.0
  9
$PUCSXDIR
 10
1.0
 20
0.0
 30
0.0
  9
$PUCSYDIR
 10
0.0
 20
1.0
 30
0.0
  9
$USERI1
 70
     3
  9
$USERI2
 70
     1
  9
$USERI3
 70
     1
  9
$USERI4
 70
     0
  9
$USERI5
 70
     0
  9
$USERR1
 40
1.0
  9
$USERR2
 40
3.0
  9
$USERR3
 40
3.0
  9
$USERR4
 40
3.0
  9
$USERR5
 40
10.0
  9
$WORLDVIEW
 70
     1
  9
$SHADEDGE
 70
     3
  9
$SHADEDIF
 70
    70
  9
$TILEMODE
 70
     1
  9
$MAXACTVP
 70
    16
  9
$PLIMCHECK
 70
     0
  9
$PEXTMIN
 10
1.0000000000000000E+020
 20
1.0000000000000000E+020
 30
1.0000000000000000E+020
  9
$PEXTMAX
 10
-1.0000000000000000E+020
 20
-1.0000000000000000E+020
 30
-1.0000000000000000E+020
  9
$PLIMMIN
 10
0.0
 20
0.0
  9
$PLIMMAX
 10
12.0
 20
9.0
  9
$UNITMODE
 70
     0
  9
$VISRETAIN
 70
     0
  9
$PLINEGEN
 70
     0
  9
$PSLTSCALE
 70
     0
  0
ENDSEC
  0
SECTION
  2
TABLES
  0
TABLE
  2
VPORT
 70
     1
  0
VPORT
  2
*ACTIVE
 70
     0
 10
0.0
 20
0.0
 11
1.0
 21
1.0
 12
192.49412581440311
 22
169.9063198933564
 13
0.0
 23
0.0
 14
5.0
 24
5.0
 15
0.0
 25
0.0
 16
0.0
 26
0.0
 36
1.0
 17
0.0
 27
0.0
 37
0.0
 40
348.89937369551939
 41
1.831871345029239
 42
50.0
 43
0.0
 44
0.0
 50
0.0
 51
0.0
 71
     0
 72
   100
 73
     1
 74
     0
 75
     0
 76
     0
 77
     0
 78
     1
  0
ENDTAB
  0
TABLE
  2
LTYPE
 70
     4
  0
LTYPE
  2
CONTINUOUS
 70
     0
  3
Solid Line
 72
    65
 73
     0
 40
0.0
  0
LTYPE
  2
CENTER
 70
     0
  3
____ _ ____ _ ____ _ ____ _ ____ _ ____ _ ____
 72
    65
 73
     4
 40
2.0
 49
1.25
 49
-0.25
 49
0.25
 49
-0.25
  0
LTYPE
  2
HIDDEN
 70
     0
  3
_ _ _ _ _ _ _ _ _ _ _ _ _ _ _ _ _ _ _ _ _ _ _
 72
    65
 73
     2
 40
0.375
 49
0.25
 49
-0.125
  0
LTYPE
  2
PHANTOM2
 70
     0
  3
___ _ _ ___ _ _ ___ _ _ ___ _ _
 72
    65
 73
     6
 40
1.25
 49
0.625
 49
-0.125
 49
0.125
 49
-0.125
 49
0.125
 49
-0.125
  0
ENDTAB
  0
TABLE
  2
LAYER
 70
     4
  0
LAYER
  2
0
 70
     0
 62
     7
  6
CONTINUOUS
  0
LAYER
  2
1
 70
     0
 62
     1
  6
CENTER
  0
LAYER
  2
2
 70
     0
 62
     2
  6
HIDDEN
  0
LAYER
  2
3
 70
     0
 62
     3
  6
CONTINUOUS
  0
ENDTAB
  0
TABLE
  2
STYLE
 70
     2
  0
STYLE
  2
STANDARD
 70
     0
 40
0.0
 41
1.0
 50
0.0
 71
     0
 42
0.2
  3
SIMPLEX
  4
BIGFONT
  0
STYLE
  2
STANDARD1
 70
     0
 40
0.0
 41
1.0
 50
0.0
 71
     0
 42
3.0
  3
txt
  4

  0
ENDTAB
  0
TABLE
  2
VIEW
 70
     0
  0
ENDTAB
  0
TABLE
  2
UCS
 70
     0
  0
ENDTAB
  0
TABLE
  2
APPID
 70
     4
  0
APPID
  2
ACAD
 70
     0
  0
APPID
  2
ACAD_EXEMPT_FROM_CAD_STANDARDS
 70
     0
  0
APPID
  2
ACAD_MLEADERVER
 70
     0
  0
APPID
  2
ACAD_NAV_VCDISPLAY
 70
     0
  0
ENDTAB
  0
TABLE
  2
DIMSTYLE
 70
     1
  0
DIMSTYLE
  2
STANDARD
 70
     0
  3

  4

  5

  6

  7

 40
1.0
 41
0.18
 42
0.0625
 43
0.38
 44
0.18
 45
0.0
 46
0.0
 47
0.0
 48
0.0
140
0.18
141
0.09
142
0.0
143
25.399999999999999
144
1.0
145
0.0
146
1.0
147
0.09
 71
     0
 72
     0
 73
     1
 74
     1
 75
     0
 76
     0
 77
     0
 78
     0
170
     0
171
     2
172
     0
173
     0
174
     0
175
     0
176
     0
177
     0
178
     0
  0
ENDTAB
  0
ENDSEC
  0
SECTION
  2
BLOCKS
  0
BLOCK
  8
0
  2
$MODEL_SPACE
 70
     0
 10
0.0
 20
0.0
 30
0.0
  3
$MODEL_SPACE
  1

  0
ENDBLK
  5
10A
  8
0
  0
BLOCK
 67
     1
  8
0
  2
$PAPER_SPACE
 70
     0
 10
0.0
 20
0.0
 30
0.0
  3
$PAPER_SPACE
  1

  0
ENDBLK
  5
108
 67
     1
  8
0
  0
ENDSEC
  0
SECTION
  2
ENTITIES
  0
LINE
  5
37
  8
1
 10
123.0132239875428
 20
172.89570514684169
 30
0.0
 11
158.55399761255219
 21
172.89570514684169
 31
0.0
  0
LINE
  5
38
  8
1
 10
123.0132239875428
 20
172.89570514684169
 30
0.0
 11
86.651616213369664
 21
172.89570514684169
 31
0.0
  0
LINE
  5
3A
  8
1
 10
122.6028069129609
 20
208.846895846433
 30
0.0
 11
122.6028069129609
 21
136.94451444725041
 31
0.0
  0
CIRCLE
  5
3B
  8
0
 10
122.6028069129609
 20
172.89570514684169
 30
0.0
 40
28.000000000000011
  0
CIRCLE
  5
3C
  8
3
 10
122.6028069129609
 20
172.89570514684169
 30
0.0
 40
23.924302672887158
  0
CIRCLE
  5
3D
  8
0
 10
122.6028069129609
 20
172.89570514684169
 30
0.0
 40
1.25
  0
CIRCLE
  5
3E
  8
0
 10
118.6028069129609
 20
172.89570514684169
 30
0.0
 40
1.25
  0
CIRCLE
  5
3F
  8
0
 10
114.6028069129609
 20
172.89570514684169
 30
0.0
 40
1.25
  0
CIRCLE
  5
40
  8
0
 10
126.602806912961
 20
172.89570514684169
 30
0.0
 40
1.25
  0
CIRCLE
  5
41
  8
0
 10
130.60280691296089
 20
172.89570514684169
 30
0.0
 40
1.25
  0
ARC
  5
42
  8
2
 10
122.6028069129609
 20
181.56236681350691
 30
0.0
 40
102.66666666666519
 50
256.31445317473811
 51
283.68554682526178
  0
LINE
  5
43
  8
0
 10
150.60280691296089
 20
78.015700146841837
 30
0.0
 11
94.602806912960958
 21
78.015700146841837
 31
0.0
  0
LINE
  5
44
  8
0
 10
97.602806912960816
 20
81.895700146841889
 30
0.0
 11
147.60280691296089
 21
81.895700146841889
 31
0.0
  0
LINE
  5
45
  8
0
 10
150.60280691296089
 20
78.895700146841776
 30
0.0
 11
94.602806912960816
 21
78.895700146841776
 31
0.0
  0
ARC
  5
46
  8
0
 10
106.6704094500037
 20
65.39570514684182
 30
0.0
 40
1.5
 50
270.0
 51
31.929443243858671
  0
LINE
  5
47
  8
0
 10
147.07663518554219
 20
63.89570514684187
 30
0.0
 11
98.128978640379572
 21
63.89570514684187
 31
0.0
  0
LINE
  5
48
  8
3
 10
113.84117349921669
 20
66.177814892024927
 30
0.0
 11
107.95037208480581
 21
66.177814892024927
 31
0.0
  0
LINE
  5
49
  8
0
 10
94.602806912960958
 20
78.015700146841837
 30
0.0
 11
95.638491973710615
 21
66.177814892024927
 31
0.0
  0
ARC
  5
4A
  8
0
 10
115.43220025458329
 20
67.108846266625406
 30
0.0
 40
19.851759844983789
 50
157.05394697744359
 51
180.842966002613
  0
ARC
  5
4B
  8
0
 10
98.128978640379572
 20
66.395705146841877
 30
0.0
 40
2.5
 50
185.00002065805731
 51
270.0
  0
ARC
  5
4C
  8
0
 10
-75.496716187446339
 20
-48.12326698335692
 30
0.0
 40
216.14253701563291
 50
31.929443243858501
 51
34.836086069742919
  0
ARC
  5
4D
  8
0
 10
99.667798614060743
 20
73.782927342183555
 30
0.0
 40
2.7327728046581981
 50
34.836086069743089
 51
157.0539469774433
  0
ARC
  5
4E
  8
0
 10
97.602806912960816
 20
78.895700146841776
 30
0.0
 40
3.0
 50
90.0
 51
180.0
  0
LINE
  5
4F
  8
0
 10
95.356923974168296
 20
78.895700146841776
 30
0.0
 11
95.356923974168296
 21
78.015700146841837
 31
0.0
  0
ARC
  5
50
  8
2
 10
97.602806912960816
 20
78.895700146841776
 30
0.0
 40
3.0
 50
76.314453174738148
 51
90.0
  0
LINE
  5
51
  8
0
 10
150.60280691296089
 20
78.015700146841837
 30
0.0
 11
149.5671218522111
 21
66.177814892024927
 31
0.0
  0
LINE
  5
52
  8
1
 10
122.6028069129609
 20
87.340843620940575
 30
0.0
 11
122.6028069129609
 21
45.493500716508109
 31
0.0
  0
ARC
  5
53
  8
0
 10
122.6028069129609
 20
72.015700146841723
 30
0.0
 40
4.5
 50
90.0
 51
147.70623317733219
  0
ARC
  5
54
  8
0
 10
122.6028069129609
 20
72.015700146841723
 30
0.0
 40
4.5
 50
32.293766822667777
 51
90.0
  0
LINE
  5
58
  8
3
 10
131.36444032670511
 20
66.177814892024927
 30
0.0
 11
137.25524174111601
 21
66.177814892024927
 31
0.0
  0
LINE
  5
59
  8
0
 10
109.3528069129609
 20
63.895705146841699
 30
0.0
 11
109.3528069129609
 21
53.895705146841699
 31
0.0
  0
LINE
  5
5A
  8
0
 10
110.352806912961
 20
52.895705146841763
 30
0.0
 11
134.85280691296089
 21
52.895705146841763
 31
0.0
  0
LINE
  5
5B
  8
0
 10
109.3528069129609
 20
53.895705146841699
 30
0.0
 11
135.8528069129608
 21
53.895705146841699
 31
0.0
  0
LINE
  5
5C
  8
0
 10
109.3528069129609
 20
53.895705146841699
 30
0.0
 11
110.352806912961
 21
52.895705146841763
 31
0.0
  0
ARC
  5
5D
  8
0
 10
177.9776537177658
 20
33.211056488544628
 30
0.0
 40
72.113072701541341
 50
145.14879293630881
 51
152.88430059955141
  0
ARC
  5
5E
  8
0
 10
115.125808660559
 20
65.39570514684182
 30
0.0
 40
1.5
 50
152.88430059955121
 51
270.0
  0
ARC
  5
5F
  8
0
 10
67.227960108155912
 20
33.211056488544628
 30
0.0
 40
72.113072701541341
 50
27.115699400448602
 51
34.85120706369117
  0
ARC
  5
60
  8
0
 10
130.07980516536281
 20
65.39570514684182
 30
0.0
 40
1.5
 50
270.0
 51
27.115699400448779
  0
LINE
  5
61
  8
0
 10
135.8528069129608
 20
63.895705146841699
 30
0.0
 11
135.8528069129608
 21
53.895705146841699
 31
0.0
  0
LINE
  5
62
  8
0
 10
135.8528069129608
 20
53.895705146841699
 30
0.0
 11
134.85280691296089
 21
52.895705146841763
 31
0.0
  0
ARC
  5
63
  8
0
 10
145.5378152118611
 20
73.782927342183555
 30
0.0
 40
2.7327728046581981
 50
22.9460530225562
 51
145.16391393025691
  0
ARC
  5
64
  8
0
 10
320.70233001336823
 20
-48.12326698335692
 30
0.0
 40
216.14253701563291
 50
145.16391393025711
 51
148.07055675614151
  0
ARC
  5
65
  8
0
 10
138.53520437591811
 20
65.39570514684182
 30
0.0
 40
1.5
 50
148.07055675614129
 51
270.0
  0
ARC
  5
66
  8
0
 10
129.77341357133841
 20
67.108846266625406
 30
0.0
 40
19.851759844983789
 50
359.15703399738697
 51
22.946053022555919
  0
ARC
  5
67
  8
0
 10
147.07663518554219
 20
66.395705146841877
 30
0.0
 40
2.5
 50
270.0
 51
354.99997934194278
  0
ARC
  5
6B
  8
0
 10
147.60280691296089
 20
78.895700146841776
 30
0.0
 40
3.0
 50
0.0
 51
90.0
  0
LINE
  5
6C
  8
0
 10
149.84868985175359
 20
78.895700146841776
 30
0.0
 11
149.84868985175359
 21
78.015700146841837
 31
0.0
  0
ARC
  5
6D
  8
2
 10
147.60280691296089
 20
78.895700146841776
 30
0.0
 40
3.0
 50
90.0
 51
103.6855468252618
  0
LINE
  5
6E
  8
2
 10
118.6028069129609
 20
66.895705146841877
 30
0.0
 11
126.602806912961
 21
66.895705146841877
 31
0.0
  0
LINE
  5
6F
  8
2
 10
118.6028069129609
 20
66.895705146841877
 30
0.0
 11
122.6028069129609
 21
69.205106223600367
 31
0.0
  0
LINE
  5
70
  8
2
 10
127.602806912961
 20
70.895705146841763
 30
0.0
 11
117.6028069129609
 21
70.895705146841763
 31
0.0
  0
LINE
  5
71
  8
2
 10
118.6028069129609
 20
52.895705146841763
 30
0.0
 11
118.6028069129609
 21
66.895705146841877
 31
0.0
  0
LINE
  5
72
  8
2
 10
115.6028069129609
 20
68.895705146841749
 30
0.0
 11
115.602806912961
 21
52.895705146841763
 31
0.0
  0
LINE
  5
73
  8
2
 10
117.6028069129609
 20
70.895705146841763
 30
0.0
 11
115.602806912961
 21
68.895705146841763
 31
0.0
  0
LINE
  5
75
  8
2
 10
129.60280691296089
 20
68.895705146841763
 30
0.0
 11
129.60280691296089
 21
52.895705146841763
 31
0.0
  0
LINE
  5
77
  8
2
 10
129.60280691296089
 20
68.895705146841763
 30
0.0
 11
127.602806912961
 21
70.895705146841763
 31
0.0
  0
LINE
  5
78
  8
2
 10
126.602806912961
 20
66.895705146841877
 30
0.0
 11
122.6028069129609
 21
69.205106223600367
 31
0.0
  0
LINE
  5
1D9
  8
2
 10
126.602806912961
 20
52.895705146841763
 30
0.0
 11
126.602806912961
 21
66.895705146841877
 31
0.0
  0
TEXT
  5
272
  8
0
 62
     3
 10
0.0
 20
0.0
 30
0.0
 40
10.0
  1
ELK56R
  7
STANDARD1
  0
ENDSEC
  0
EOF
