  0
SECTION
  2
HEADER
  9
$ACADVER
  1
AC1009
  9
$INSBASE
 10
0.0
 20
0.0
 30
0.0
  9
$EXTMIN
 10
0.0
 20
-2.960436562073669
 30
0.0
  9
$EXTMAX
 10
218.78386117003251
 20
217.7895904046625
 30
0.0
  9
$LIMMIN
 10
0.0
 20
0.0
  9
$LIMMAX
 10
385.0
 20
270.0
  9
$ORTHOMODE
 70
     0
  9
$REGENMODE
 70
     1
  9
$FILLMODE
 70
     1
  9
$QTEXTMODE
 70
     0
  9
$MIRRTEXT
 70
     0
  9
$DRAGMODE
 70
     2
  9
$LTSCALE
 40
10.0
  9
$OSMODE
 70
  3071
  9
$ATTMODE
 70
     1
  9
$TEXTSIZE
 40
0.2
  9
$TRACEWID
 40
0.05
  9
$TEXTSTYLE
  7
STANDARD
  9
$CLAYER
  8
0
  9
$CELTYPE
  6
BYLAYER
  9
$CECOLOR
 62
   256
  9
$DIMSCALE
 40
1.0
  9
$DIMASZ
 40
3.0
  9
$DIMEXO
 40
0.0625
  9
$DIMDLI
 40
0.38
  9
$DIMRND
 40
0.0
  9
$DIMDLE
 40
0.0
  9
$DIMEXE
 40
0.18
  9
$DIMTP
 40
0.0
  9
$DIMTM
 40
0.0
  9
$DIMTXT
 40
3.0
  9
$DIMCEN
 40
0.09
  9
$DIMTSZ
 40
0.0
  9
$DIMTOL
 70
     0
  9
$DIMLIM
 70
     0
  9
$DIMTIH
 70
     1
  9
$DIMTOH
 70
     1
  9
$DIMSE1
 70
     0
  9
$DIMSE2
 70
     0
  9
$DIMTAD
 70
     0
  9
$DIMZIN
 70
     0
  9
$DIMBLK
  1

  9
$DIMASO
 70
     1
  9
$DIMSHO
 70
     1
  9
$DIMPOST
  1

  9
$DIMAPOST
  1

  9
$DIMALT
 70
     0
  9
$DIMALTD
 70
     2
  9
$DIMALTF
 40
25.399999999999999
  9
$DIMLFAC
 40
1.0
  9
$DIMTOFL
 70
     0
  9
$DIMTVP
 40
0.0
  9
$DIMTIX
 70
     0
  9
$DIMSOXD
 70
     0
  9
$DIMSAH
 70
     0
  9
$DIMBLK1
  1

  9
$DIMBLK2
  1

  9
$DIMSTYLE
  2
STANDARD
  9
$DIMCLRD
 70
     0
  9
$DIMCLRE
 70
     0
  9
$DIMCLRT
 70
     0
  9
$DIMTFAC
 40
1.0
  9
$DIMGAP
 40
0.09
  9
$LUNITS
 70
     2
  9
$LUPREC
 70
     4
  9
$SKETCHINC
 40
0.1
  9
$FILLETRAD
 40
0.0
  9
$AUNITS
 70
     0
  9
$AUPREC
 70
     0
  9
$MENU
  1
E:\r13\win\SUPPORT\ACAD
  9
$ELEVATION
 40
0.0
  9
$PELEVATION
 40
0.0
  9
$THICKNESS
 40
0.0
  9
$LIMCHECK
 70
     0
  9
$BLIPMODE
 70
     0
  9
$CHAMFERA
 40
0.0
  9
$CHAMFERB
 40
0.0
  9
$SKPOLY
 70
     0
  9
$TDCREATE
 40
2450361.7038774309
  9
$TDUPDATE
 40
2456598.678872813
  9
$TDINDWG
 40
0.0206575347
  9
$TDUSRTIMER
 40
0.0206575347
  9
$USRTIMER
 70
     1
  9
$ANGBASE
 50
0.0
  9
$ANGDIR
 70
     0
  9
$PDMODE
 70
     0
  9
$PDSIZE
 40
0.0
  9
$PLINEWID
 40
0.0
  9
$COORDS
 70
     1
  9
$SPLFRAME
 70
     0
  9
$SPLINETYPE
 70
     6
  9
$SPLINESEGS
 70
     8
  9
$ATTDIA
 70
     0
  9
$ATTREQ
 70
     1
  9
$HANDLING
 70
     1
  9
$HANDSEED
  5
392
  9
$SURFTAB1
 70
     6
  9
$SURFTAB2
 70
     6
  9
$SURFTYPE
 70
     6
  9
$SURFU
 70
     6
  9
$SURFV
 70
     6
  9
$UCSNAME
  2

  9
$UCSORG
 10
0.0
 20
0.0
 30
0.0
  9
$UCSXDIR
 10
1.0
 20
0.0
 30
0.0
  9
$UCSYDIR
 10
0.0
 20
1.0
 30
0.0
  9
$PUCSNAME
  2

  9
$PUCSORG
 10
0.0
 20
0.0
 30
0.0
  9
$PUCSXDIR
 10
1.0
 20
0.0
 30
0.0
  9
$PUCSYDIR
 10
0.0
 20
1.0
 30
0.0
  9
$USERI1
 70
     3
  9
$USERI2
 70
     1
  9
$USERI3
 70
     1
  9
$USERI4
 70
     0
  9
$USERI5
 70
     0
  9
$USERR1
 40
1.0
  9
$USERR2
 40
3.0
  9
$USERR3
 40
3.0
  9
$USERR4
 40
3.0
  9
$USERR5
 40
10.0
  9
$WORLDVIEW
 70
     1
  9
$SHADEDGE
 70
     3
  9
$SHADEDIF
 70
    70
  9
$TILEMODE
 70
     1
  9
$MAXACTVP
 70
    16
  9
$PLIMCHECK
 70
     0
  9
$PEXTMIN
 10
1.0000000000000000E+020
 20
1.0000000000000000E+020
 30
1.0000000000000000E+020
  9
$PEXTMAX
 10
-1.0000000000000000E+020
 20
-1.0000000000000000E+020
 30
-1.0000000000000000E+020
  9
$PLIMMIN
 10
0.0
 20
0.0
  9
$PLIMMAX
 10
12.0
 20
9.0
  9
$UNITMODE
 70
     0
  9
$VISRETAIN
 70
     0
  9
$PLINEGEN
 70
     0
  9
$PSLTSCALE
 70
     0
  0
ENDSEC
  0
SECTION
  2
TABLES
  0
TABLE
  2
VPORT
 70
     1
  0
VPORT
  2
*ACTIVE
 70
     0
 10
0.0
 20
0.0
 11
1.0
 21
1.0
 12
192.49412581440311
 22
169.9063198933564
 13
0.0
 23
0.0
 14
5.0
 24
5.0
 15
0.0
 25
0.0
 16
0.0
 26
0.0
 36
1.0
 17
0.0
 27
0.0
 37
0.0
 40
348.89937369551939
 41
1.831871345029239
 42
50.0
 43
0.0
 44
0.0
 50
0.0
 51
0.0
 71
     0
 72
   100
 73
     1
 74
     0
 75
     0
 76
     0
 77
     0
 78
     1
  0
ENDTAB
  0
TABLE
  2
LTYPE
 70
     4
  0
LTYPE
  2
CONTINUOUS
 70
     0
  3
Solid Line
 72
    65
 73
     0
 40
0.0
  0
LTYPE
  2
CENTER
 70
     0
  3
____ _ ____ _ ____ _ ____ _ ____ _ ____ _ ____
 72
    65
 73
     4
 40
2.0
 49
1.25
 49
-0.25
 49
0.25
 49
-0.25
  0
LTYPE
  2
HIDDEN
 70
     0
  3
_ _ _ _ _ _ _ _ _ _ _ _ _ _ _ _ _ _ _ _ _ _ _
 72
    65
 73
     2
 40
0.375
 49
0.25
 49
-0.125
  0
LTYPE
  2
PHANTOM2
 70
     0
  3
___ _ _ ___ _ _ ___ _ _ ___ _ _
 72
    65
 73
     6
 40
1.25
 49
0.625
 49
-0.125
 49
0.125
 49
-0.125
 49
0.125
 49
-0.125
  0
ENDTAB
  0
TABLE
  2
LAYER
 70
     4
  0
LAYER
  2
0
 70
     0
 62
     7
  6
CONTINUOUS
  0
LAYER
  2
1
 70
     0
 62
     1
  6
CENTER
  0
LAYER
  2
2
 70
     0
 62
     2
  6
HIDDEN
  0
LAYER
  2
3
 70
     0
 62
     3
  6
CONTINUOUS
  0
ENDTAB
  0
TABLE
  2
STYLE
 70
     2
  0
STYLE
  2
STANDARD
 70
     0
 40
0.0
 41
1.0
 50
0.0
 71
     0
 42
0.2
  3
SIMPLEX
  4
BIGFONT
  0
STYLE
  2
STANDARD1
 70
     0
 40
0.0
 41
1.0
 50
0.0
 71
     0
 42
3.0
  3
txt
  4

  0
ENDTAB
  0
TABLE
  2
VIEW
 70
     0
  0
ENDTAB
  0
TABLE
  2
UCS
 70
     0
  0
ENDTAB
  0
TABLE
  2
APPID
 70
     3
  0
APPID
  2
ACAD
 70
     0
  0
APPID
  2
ACAD_MLEADERVER
 70
     0
  0
APPID
  2
ACAD_NAV_VCDISPLAY
 70
     0
  0
ENDTAB
  0
TABLE
  2
DIMSTYLE
 70
     1
  0
DIMSTYLE
  2
STANDARD
 70
     0
  3

  4

  5

  6

  7

 40
1.0
 41
0.18
 42
0.0625
 43
0.38
 44
0.18
 45
0.0
 46
0.0
 47
0.0
 48
0.0
140
0.18
141
0.09
142
0.0
143
25.399999999999999
144
1.0
145
0.0
146
1.0
147
0.09
 71
     0
 72
     0
 73
     1
 74
     1
 75
     0
 76
     0
 77
     0
 78
     0
170
     0
171
     2
172
     0
173
     0
174
     0
175
     0
176
     0
177
     0
178
     0
  0
ENDTAB
  0
ENDSEC
  0
SECTION
  2
BLOCKS
  0
BLOCK
  8
0
  2
$MODEL_SPACE
 70
     0
 10
0.0
 20
0.0
 30
0.0
  3
$MODEL_SPACE
  1

  0
ENDBLK
  5
10A
  8
0
  0
BLOCK
 67
     1
  8
0
  2
$PAPER_SPACE
 70
     0
 10
0.0
 20
0.0
 30
0.0
  3
$PAPER_SPACE
  1

  0
ENDBLK
  5
108
 67
     1
  8
0
  0
ENDSEC
  0
SECTION
  2
ENTITIES
  0
ARC
  5
16D
  8
2
 10
191.28388367003251
 20
193.2459683594455
 30
0.0
 40
82.5
 50
256.4766113914655
 51
270.0
  0
LINE
  5
16E
  8
0
 10
213.78386117003279
 20
110.5054045742048
 30
0.0
 11
168.7839061700324
 21
110.5054045742047
 31
0.0
  0
LINE
  5
16F
  8
0
 10
213.78332129469021
 20
109.70826242420461
 30
0.0
 11
168.78444604537489
 21
109.7082624242047
 31
0.0
  0
LINE
  5
171
  8
3
 10
178.99408780668651
 20
98.64006554088526
 30
0.0
 11
181.99756374145261
 21
98.64006554088526
 31
0.0
  0
LINE
  5
172
  8
0
 10
210.8666762057338
 20
97.105349217053814
 30
0.0
 11
171.6168880177795
 21
97.105349217053814
 31
0.0
  0
LINE
  5
173
  8
0
 10
171.38390617003239
 20
113.1054045742047
 30
0.0
 11
211.18386117003271
 21
113.1054045742047
 31
0.0
  0
CIRCLE
  5
174
  8
3
 10
191.28388367003251
 20
190.2896129046625
 30
0.0
 40
19.224866851541108
  0
CIRCLE
  5
176
  8
0
 10
191.28388367003251
 20
190.2896129046625
 30
0.0
 40
22.4999775
  0
ARC
  5
177
  8
0
 10
191.55976689702189
 20
99.737291620462202
 30
0.0
 40
21.907742994831381
 50
160.45465193260631
 51
180.74439551529341
  0
ARC
  5
178
  8
0
 10
145.56323173631981
 20
87.819746649512126
 30
0.0
 40
35.173281502336451
 50
18.4546042156718
 51
33.953777401726541
  0
ARC
  5
17A
  8
0
 10
171.70109113433099
 20
99.114275779553793
 30
0.0
 40
2.0089265625000001
 50
184.85681450403919
 51
270.0
  0
ARC
  5
17B
  8
0
 10
177.58680526249211
 20
98.506478920395637
 30
0.0
 40
1.413608695632514
 50
277.6187336315063
 51
18.4546042156718
  0
ARC
  5
17C
  8
0
 10
172.9366273589867
 20
106.2104565165299
 30
0.0
 40
2.195975950622191
 50
34.836086069745861
 51
157.05394697745299
  0
LINE
  5
17D
  8
0
 10
169.3838836700325
 20
110.5054045742048
 30
0.0
 11
169.3838836700325
 21
109.7082624242047
 31
0.0
  0
ARC
  5
17E
  8
0
 10
171.38390617003239
 20
110.5054045742048
 30
0.0
 40
2.6000000000000001
 50
90.0
 51
180.0
  0
LINE
  5
17F
  8
2
 10
185.28388367003311
 20
106.1053723420539
 30
0.0
 11
184.28388367003311
 21
105.1053723420539
 31
0.0
  0
LINE
  5
180
  8
2
 10
197.28388367003251
 20
106.1053723420538
 30
0.0
 11
198.28388367003251
 21
105.1053723420538
 31
0.0
  0
ARC
  5
181
  8
0
 10
191.00800044304279
 20
99.737291620462244
 30
0.0
 40
21.907742994831381
 50
359.25560448470662
 51
19.545348067393672
  0
ARC
  5
183
  8
0
 10
237.00453560374481
 20
87.819746649511259
 30
0.0
 40
35.173281502336451
 50
146.0462225982676
 51
161.54539578432821
  0
ARC
  5
184
  8
0
 10
160.90092908382061
 20
76.882134151671323
 30
0.0
 40
45.274640526529261
 50
29.155619406956649
 51
41.025771099493539
  0
ARC
  5
186
  8
0
 10
221.66683825624381
 20
76.882134151670684
 30
0.0
 40
45.274640526529261
 50
138.9742289005047
 51
150.8443805930433
  0
LINE
  5
187
  8
1
 10
191.28388367003251
 20
118.1054045742047
 30
0.0
 11
191.28388367003251
 21
82.105372342053784
 31
0.0
  0
CIRCLE
  5
189
  8
0
 10
188.03388367003251
 20
190.2896129046625
 30
0.0
 40
0.975
  0
CIRCLE
  5
18A
  8
0
 10
184.78388367003251
 20
190.2896129046625
 30
0.0
 40
0.975
  0
CIRCLE
  5
18B
  8
0
 10
194.53388367003251
 20
190.2896129046625
 30
0.0
 40
0.975
  0
CIRCLE
  5
18C
  8
0
 10
191.28388367003251
 20
190.2896129046625
 30
0.0
 40
0.975
  0
CIRCLE
  5
18D
  8
0
 10
197.78388367003251
 20
190.2896129046625
 30
0.0
 40
0.975
  0
ARC
  5
18E
  8
0
 10
210.8666762057338
 20
99.114275779553452
 30
0.0
 40
2.0089265625000001
 50
270.0
 51
355.14318549596078
  0
ARC
  5
18F
  8
0
 10
210.86667620573419
 20
99.114275779553338
 30
0.0
 40
2.0089265625000001
 50
270.0
 51
355.14318549597391
  0
LINE
  5
190
  8
0
 10
201.78388367003231
 20
87.805372342053715
 30
0.0
 11
180.78388367003259
 21
87.805372342053815
 31
0.0
  0
LINE
  5
192
  8
0
 10
201.08388367003261
 20
87.105372342053727
 30
0.0
 11
181.48388367003241
 21
87.10537234205384
 31
0.0
  0
LINE
  5
193
  8
2
 10
184.28388367003259
 20
87.10537234205384
 30
0.0
 11
184.28388367003311
 21
105.1053723420539
 31
0.0
  0
LINE
  5
194
  8
2
 10
187.28388367003259
 20
87.10537234205384
 30
0.0
 11
187.28388367003299
 21
101.1053723420539
 31
0.0
  0
LINE
  5
195
  8
2
 10
195.28388367003251
 20
87.105372342053784
 30
0.0
 11
195.28388367003251
 21
101.1053723420537
 31
0.0
  0
LINE
  5
19A
  8
2
 10
187.28388367003299
 20
101.1053723420539
 30
0.0
 11
195.28388367003251
 21
101.1053723420537
 31
0.0
  0
LINE
  5
19B
  8
2
 10
191.28388367003311
 20
103.4147734188122
 30
0.0
 11
187.28388367003299
 21
101.1053723420539
 31
0.0
  0
ARC
  5
19D
  8
0
 10
183.15704839938451
 20
98.310705154550078
 30
0.0
 40
1.2053559374999989
 50
148.5733561080547
 51
270.0
  0
LINE
  5
19E
  8
2
 10
191.2838836700324
 20
103.4147734188122
 30
0.0
 11
195.28388367003251
 21
101.1053723420538
 31
0.0
  0
LINE
  5
1A0
  8
2
 10
198.28388367003251
 20
87.105372342053727
 30
0.0
 11
198.28388367003251
 21
105.1053723420538
 31
0.0
  0
LINE
  5
1A1
  8
0
 10
201.78388367003211
 20
96.167849217053629
 30
0.0
 11
201.783883670032
 21
87.80607234205371
 31
0.0
  0
LINE
  5
1A2
  8
0
 10
201.78388367003259
 20
96.167849217053742
 30
0.0
 11
201.78388367003251
 21
87.805372342053886
 31
0.0
  0
LINE
  5
1A4
  8
0
 10
201.78388367003251
 20
87.805372342053886
 30
0.0
 11
201.08388367003261
 21
87.105372342053727
 31
0.0
  0
ARC
  5
1A5
  8
0
 10
204.98096207757271
 20
98.506478920395409
 30
0.0
 40
1.413608695632514
 50
161.54539578432821
 51
262.38126636849381
  0
ARC
  5
1A7
  8
0
 10
199.41071894068031
 20
98.310705154549964
 30
0.0
 40
1.2053559374999989
 50
270.0
 51
31.42664389194524
  0
ARC
  5
1A8
  8
0
 10
202.7213836700322
 20
96.167849217053629
 30
0.0
 40
0.9375
 50
90.0
 51
180.0
  0
LINE
  5
1A9
  8
3
 10
203.5736795333784
 20
98.640065540885018
 30
0.0
 11
200.57020359861221
 21
98.640065540885075
 31
0.0
  0
ARC
  5
1AA
  8
0
 10
202.72138367003259
 20
96.167849217053742
 30
0.0
 40
0.9375
 50
90.0
 51
180.0
  0
ARC
  5
1AE
  8
0
 10
211.18386117003271
 20
110.5054045742048
 30
0.0
 40
2.6000000000000001
 50
0.0
 51
103.5233886085344
  0
LINE
  5
1AF
  8
2
 10
197.28388367003259
 20
106.1053723420537
 30
0.0
 11
185.28388367003299
 21
106.1053723420538
 31
0.0
  0
ARC
  5
1B0
  8
2
 10
191.28388367003251
 20
193.2459683594455
 30
0.0
 40
82.5
 50
270.0
 51
283.5233886085345
  0
ARC
  5
1B2
  8
0
 10
191.28388367003129
 20
103.55974684235809
 30
0.0
 40
4.845602405476507
 50
89.999999999986969
 51
141.13447055919099
  0
ARC
  5
1B3
  8
0
 10
191.2838836700337
 20
103.55974684235809
 30
0.0
 40
4.845602405476507
 50
38.865529440808992
 51
90.000000000013031
  0
ARC
  5
1B4
  8
0
 10
209.63113998107829
 20
106.2104565165296
 30
0.0
 40
2.195975950622191
 50
22.946053022546991
 51
145.16391393025179
  0
LINE
  5
1B5
  8
0
 10
213.18388367003249
 20
110.50540457420441
 30
0.0
 11
213.18388367003249
 21
109.70826242420431
 31
0.0
  0
LINE
  5
1B6
  8
1
 10
191.28388367003251
 20
217.7895904046625
 30
0.0
 11
191.28388367003251
 21
162.78963540466239
 31
0.0
  0
LINE
  5
1B7
  8
1
 10
218.78386117003251
 20
190.2896129046625
 30
0.0
 11
163.78390617003251
 21
190.2896129046625
 31
0.0
  0
LINE
  5
1BA
  8
0
 10
180.78388367003251
 20
96.167849217053742
 30
0.0
 11
180.78388367003259
 21
87.805372342053886
 31
0.0
  0
LINE
  5
1BB
  8
0
 10
180.78388367003291
 20
96.167849217053629
 30
0.0
 11
180.78388367003299
 21
87.80607234205371
 31
0.0
  0
ARC
  5
1BC
  8
0
 10
179.84638367003251
 20
96.167849217053742
 30
0.0
 40
0.9375
 50
0.000000000000007
 51
90.0
  0
ARC
  5
1BD
  8
0
 10
179.84638367003291
 20
96.167849217053629
 30
0.0
 40
0.9375
 50
0.000000000000007
 51
90.0
  0
LINE
  5
1BE
  8
0
 10
180.78388367003259
 20
87.805372342053886
 30
0.0
 11
181.4838836700325
 21
87.105372342053727
 31
0.0
  0
LINE
  5
1C0
  8
0
 10
169.69937783481791
 20
98.944188154870162
 30
0.0
 11
168.78444604537489
 21
109.7082624242047
 31
0.0
  0
LINE
  5
1C1
  8
0
 10
212.86838950524691
 20
98.944188154869821
 30
0.0
 11
213.78332129469021
 21
109.70826242420461
 31
0.0
  0
TEXT
  5
2FC
  8
0
 62
     3
 10
0.0
 20
0.0
 30
0.0
 40
10.0
  1
ELK45R
  7
STANDARD1
  0
ENDSEC
  0
EOF
