  0
SECTION
  2
HEADER
  9
$ACADVER
  1
AC1009
  9
$INSBASE
 10
0.0
 20
0.0
 30
0.0
  9
$EXTMIN
 10
0.0
 20
-2.960436562073669
 30
0.0
  9
$EXTMAX
 10
219.7578836056542
 20
199.25892987139551
 30
0.0
  9
$LIMMIN
 10
0.0
 20
0.0
  9
$LIMMAX
 10
385.0
 20
270.0
  9
$ORTHOMODE
 70
     0
  9
$REGENMODE
 70
     1
  9
$FILLMODE
 70
     1
  9
$QTEXTMODE
 70
     0
  9
$MIRRTEXT
 70
     0
  9
$DRAGMODE
 70
     2
  9
$LTSCALE
 40
10.0
  9
$OSMODE
 70
  3071
  9
$ATTMODE
 70
     1
  9
$TEXTSIZE
 40
0.2
  9
$TRACEWID
 40
0.05
  9
$TEXTSTYLE
  7
STANDARD
  9
$CLAYER
  8
0
  9
$CELTYPE
  6
BYLAYER
  9
$CECOLOR
 62
   256
  9
$DIMSCALE
 40
1.0
  9
$DIMASZ
 40
3.0
  9
$DIMEXO
 40
0.0625
  9
$DIMDLI
 40
0.38
  9
$DIMRND
 40
0.0
  9
$DIMDLE
 40
0.0
  9
$DIMEXE
 40
0.18
  9
$DIMTP
 40
0.0
  9
$DIMTM
 40
0.0
  9
$DIMTXT
 40
3.0
  9
$DIMCEN
 40
0.09
  9
$DIMTSZ
 40
0.0
  9
$DIMTOL
 70
     0
  9
$DIMLIM
 70
     0
  9
$DIMTIH
 70
     1
  9
$DIMTOH
 70
     1
  9
$DIMSE1
 70
     0
  9
$DIMSE2
 70
     0
  9
$DIMTAD
 70
     0
  9
$DIMZIN
 70
     0
  9
$DIMBLK
  1

  9
$DIMASO
 70
     1
  9
$DIMSHO
 70
     1
  9
$DIMPOST
  1

  9
$DIMAPOST
  1

  9
$DIMALT
 70
     0
  9
$DIMALTD
 70
     2
  9
$DIMALTF
 40
25.399999999999999
  9
$DIMLFAC
 40
1.0
  9
$DIMTOFL
 70
     0
  9
$DIMTVP
 40
0.0
  9
$DIMTIX
 70
     0
  9
$DIMSOXD
 70
     0
  9
$DIMSAH
 70
     0
  9
$DIMBLK1
  1

  9
$DIMBLK2
  1

  9
$DIMSTYLE
  2
STANDARD
  9
$DIMCLRD
 70
     0
  9
$DIMCLRE
 70
     0
  9
$DIMCLRT
 70
     0
  9
$DIMTFAC
 40
1.0
  9
$DIMGAP
 40
0.09
  9
$LUNITS
 70
     2
  9
$LUPREC
 70
     4
  9
$SKETCHINC
 40
0.1
  9
$FILLETRAD
 40
0.0
  9
$AUNITS
 70
     0
  9
$AUPREC
 70
     0
  9
$MENU
  1
E:\r13\win\SUPPORT\ACAD
  9
$ELEVATION
 40
0.0
  9
$PELEVATION
 40
0.0
  9
$THICKNESS
 40
0.0
  9
$LIMCHECK
 70
     0
  9
$BLIPMODE
 70
     0
  9
$CHAMFERA
 40
0.0
  9
$CHAMFERB
 40
0.0
  9
$SKPOLY
 70
     0
  9
$TDCREATE
 40
2450361.705764005
  9
$TDUPDATE
 40
2456598.678733414
  9
$TDINDWG
 40
0.0171167361
  9
$TDUSRTIMER
 40
0.0171167361
  9
$USRTIMER
 70
     1
  9
$ANGBASE
 50
0.0
  9
$ANGDIR
 70
     0
  9
$PDMODE
 70
     0
  9
$PDSIZE
 40
0.0
  9
$PLINEWID
 40
0.0
  9
$COORDS
 70
     1
  9
$SPLFRAME
 70
     0
  9
$SPLINETYPE
 70
     6
  9
$SPLINESEGS
 70
     8
  9
$ATTDIA
 70
     0
  9
$ATTREQ
 70
     1
  9
$HANDLING
 70
     1
  9
$HANDSEED
  5
37E
  9
$SURFTAB1
 70
     6
  9
$SURFTAB2
 70
     6
  9
$SURFTYPE
 70
     6
  9
$SURFU
 70
     6
  9
$SURFV
 70
     6
  9
$UCSNAME
  2

  9
$UCSORG
 10
0.0
 20
0.0
 30
0.0
  9
$UCSXDIR
 10
1.0
 20
0.0
 30
0.0
  9
$UCSYDIR
 10
0.0
 20
1.0
 30
0.0
  9
$PUCSNAME
  2

  9
$PUCSORG
 10
0.0
 20
0.0
 30
0.0
  9
$PUCSXDIR
 10
1.0
 20
0.0
 30
0.0
  9
$PUCSYDIR
 10
0.0
 20
1.0
 30
0.0
  9
$USERI1
 70
     3
  9
$USERI2
 70
     1
  9
$USERI3
 70
     1
  9
$USERI4
 70
     0
  9
$USERI5
 70
     0
  9
$USERR1
 40
1.0
  9
$USERR2
 40
3.0
  9
$USERR3
 40
3.0
  9
$USERR4
 40
3.0
  9
$USERR5
 40
10.0
  9
$WORLDVIEW
 70
     1
  9
$SHADEDGE
 70
     3
  9
$SHADEDIF
 70
    70
  9
$TILEMODE
 70
     1
  9
$MAXACTVP
 70
    16
  9
$PLIMCHECK
 70
     0
  9
$PEXTMIN
 10
1.0000000000000000E+020
 20
1.0000000000000000E+020
 30
1.0000000000000000E+020
  9
$PEXTMAX
 10
-1.0000000000000000E+020
 20
-1.0000000000000000E+020
 30
-1.0000000000000000E+020
  9
$PLIMMIN
 10
0.0
 20
0.0
  9
$PLIMMAX
 10
12.0
 20
9.0
  9
$UNITMODE
 70
     0
  9
$VISRETAIN
 70
     0
  9
$PLINEGEN
 70
     0
  9
$PSLTSCALE
 70
     0
  0
ENDSEC
  0
SECTION
  2
TABLES
  0
TABLE
  2
VPORT
 70
     1
  0
VPORT
  2
*ACTIVE
 70
     0
 10
0.0
 20
0.0
 11
1.0
 21
1.0
 12
192.49412581440311
 22
169.9063198933564
 13
0.0
 23
0.0
 14
5.0
 24
5.0
 15
0.0
 25
0.0
 16
0.0
 26
0.0
 36
1.0
 17
0.0
 27
0.0
 37
0.0
 40
348.89937369551939
 41
1.831871345029239
 42
50.0
 43
0.0
 44
0.0
 50
0.0
 51
0.0
 71
     0
 72
   100
 73
     1
 74
     0
 75
     0
 76
     0
 77
     0
 78
     1
  0
ENDTAB
  0
TABLE
  2
LTYPE
 70
     4
  0
LTYPE
  2
CONTINUOUS
 70
     0
  3
Solid Line
 72
    65
 73
     0
 40
0.0
  0
LTYPE
  2
CENTER
 70
     0
  3
____ _ ____ _ ____ _ ____ _ ____ _ ____ _ ____
 72
    65
 73
     4
 40
2.0
 49
1.25
 49
-0.25
 49
0.25
 49
-0.25
  0
LTYPE
  2
HIDDEN
 70
     0
  3
_ _ _ _ _ _ _ _ _ _ _ _ _ _ _ _ _ _ _ _ _ _ _
 72
    65
 73
     2
 40
0.375
 49
0.25
 49
-0.125
  0
LTYPE
  2
PHANTOM2
 70
     0
  3
___ _ _ ___ _ _ ___ _ _ ___ _ _
 72
    65
 73
     6
 40
1.25
 49
0.625
 49
-0.125
 49
0.125
 49
-0.125
 49
0.125
 49
-0.125
  0
ENDTAB
  0
TABLE
  2
LAYER
 70
     4
  0
LAYER
  2
0
 70
     0
 62
     7
  6
CONTINUOUS
  0
LAYER
  2
1
 70
     0
 62
     1
  6
CENTER
  0
LAYER
  2
2
 70
     0
 62
     2
  6
HIDDEN
  0
LAYER
  2
3
 70
     0
 62
     3
  6
CONTINUOUS
  0
ENDTAB
  0
TABLE
  2
STYLE
 70
     2
  0
STYLE
  2
STANDARD
 70
     0
 40
0.0
 41
1.0
 50
0.0
 71
     0
 42
0.2
  3
SIMPLEX
  4
BIGFONT
  0
STYLE
  2
STANDARD1
 70
     0
 40
0.0
 41
1.0
 50
0.0
 71
     0
 42
3.0
  3
txt
  4

  0
ENDTAB
  0
TABLE
  2
VIEW
 70
     0
  0
ENDTAB
  0
TABLE
  2
UCS
 70
     0
  0
ENDTAB
  0
TABLE
  2
APPID
 70
     4
  0
APPID
  2
ACAD
 70
     0
  0
APPID
  2
GENIUS_GENFIL_13
 70
     0
  0
APPID
  2
ACAD_MLEADERVER
 70
     0
  0
APPID
  2
ACAD_NAV_VCDISPLAY
 70
     0
  0
ENDTAB
  0
TABLE
  2
DIMSTYLE
 70
     1
  0
DIMSTYLE
  2
STANDARD
 70
     0
  3

  4

  5

  6

  7

 40
1.0
 41
0.18
 42
0.0625
 43
0.38
 44
0.18
 45
0.0
 46
0.0
 47
0.0
 48
0.0
140
0.18
141
0.09
142
0.0
143
25.399999999999999
144
1.0
145
0.0
146
1.0
147
0.09
 71
     0
 72
     0
 73
     1
 74
     1
 75
     0
 76
     0
 77
     0
 78
     0
170
     0
171
     2
172
     0
173
     0
174
     0
175
     0
176
     0
177
     0
178
     0
  0
ENDTAB
  0
ENDSEC
  0
SECTION
  2
BLOCKS
  0
BLOCK
  8
0
  2
$MODEL_SPACE
 70
     0
 10
0.0
 20
0.0
 30
0.0
  3
$MODEL_SPACE
  1

  0
ENDBLK
  5
E5
  8
0
  0
BLOCK
 67
     1
  8
0
  2
$PAPER_SPACE
 70
     0
 10
0.0
 20
0.0
 30
0.0
  3
$PAPER_SPACE
  1

  0
ENDBLK
  5
E3
 67
     1
  8
0
  0
ENDSEC
  0
SECTION
  2
ENTITIES
  0
ARC
  5
156
  8
2
 10
192.2579061056542
 20
194.6641315352459
 30
0.0
 40
82.5
 50
256.2641579830721
 51
270.0
  0
LINE
  5
15A
  8
3
 10
179.96811024230809
 20
100.0582287166856
 30
0.0
 11
182.9715861770743
 21
100.0582287166856
 31
0.0
  0
LINE
  5
15C
  8
0
 10
172.35792860565411
 20
114.5235677500051
 30
0.0
 11
212.1578836056544
 21
114.5235677500051
 31
0.0
  0
CIRCLE
  5
15D
  8
3
 10
192.2579061056542
 20
171.75895237139551
 30
0.0
 40
19.224866851541108
  0
CIRCLE
  5
15F
  8
0
 10
192.2579061056542
 20
171.75895237139551
 30
0.0
 40
22.4999775
  0
ARC
  5
160
  8
0
 10
192.53378933264361
 20
101.1554547962626
 30
0.0
 40
21.907742994831381
 50
160.45465193260631
 51
180.74439551529341
  0
ARC
  5
161
  8
0
 10
146.5372541719415
 20
89.237909825312528
 30
0.0
 40
35.173281502336451
 50
18.4546042156718
 51
33.953777401726541
  0
ARC
  5
163
  8
0
 10
172.67511356995271
 20
100.53243895535419
 30
0.0
 40
2.0089265625000001
 50
184.85681450403919
 51
270.0
  0
ARC
  5
164
  8
0
 10
178.5608276981138
 20
99.924642096196052
 30
0.0
 40
1.413608695632514
 50
277.6187336315063
 51
18.4546042156718
  0
ARC
  5
165
  8
0
 10
173.91064979460839
 20
107.6286196923303
 30
0.0
 40
2.195975950622191
 50
34.836086069745861
 51
157.05394697745299
  0
LINE
  5
166
  8
0
 10
170.35790610565419
 20
111.9235677500052
 30
0.0
 11
170.35790610565419
 21
111.12642560000521
 31
0.0
  0
ARC
  5
167
  8
0
 10
172.35792860565411
 20
111.9235677500052
 30
0.0
 40
2.6000000000000001
 50
90.0
 51
180.0
  0
ARC
  5
169
  8
0
 10
191.98202287866451
 20
101.1554547962626
 30
0.0
 40
21.907742994831381
 50
359.25560448470662
 51
19.545348067393672
  0
ARC
  5
16B
  8
0
 10
237.9785580393665
 20
89.237909825311675
 30
0.0
 40
35.173281502336451
 50
146.0462225982676
 51
161.54539578432821
  0
ARC
  5
16C
  8
0
 10
161.87495151944231
 20
78.300297327471725
 30
0.0
 40
45.274640526529261
 50
29.155619406956841
 51
41.025771099493539
  0
ARC
  5
16E
  8
0
 10
222.6408606918655
 20
78.3002973274711
 30
0.0
 40
45.274640526529261
 50
138.9742289005047
 51
150.8443805930433
  0
LINE
  5
16F
  8
1
 10
192.2579061056542
 20
119.5235677500051
 30
0.0
 11
192.2579061056542
 21
83.520735517854177
 31
0.0
  0
CIRCLE
  5
171
  8
0
 10
189.0079061056542
 20
171.75895237139551
 30
0.0
 40
0.975
  0
CIRCLE
  5
172
  8
0
 10
185.7579061056542
 20
171.75895237139551
 30
0.0
 40
0.975
  0
CIRCLE
  5
173
  8
0
 10
195.5079061056542
 20
171.75895237139551
 30
0.0
 40
0.975
  0
CIRCLE
  5
174
  8
0
 10
192.2579061056542
 20
171.75895237139551
 30
0.0
 40
0.975
  0
CIRCLE
  5
175
  8
0
 10
198.7579061056542
 20
171.75895237139551
 30
0.0
 40
0.975
  0
ARC
  5
176
  8
0
 10
211.84069864135549
 20
100.5324389553538
 30
0.0
 40
2.0089265625000001
 50
270.0
 51
355.14318549596078
  0
ARC
  5
177
  8
0
 10
211.84069864135591
 20
100.5324389553537
 30
0.0
 40
2.0089265625000001
 50
270.0
 51
355.14318549597391
  0
LINE
  5
178
  8
2
 10
195.7579061056542
 20
105.5235355178542
 30
0.0
 11
197.2579061056542
 21
104.0235355178542
 31
0.0
1001
GENIUS_GENFIL_13
1070
     0
1040
1.5
1040
1.5
1040
20.0
1040
0.0
1002
{
1002
}
  0
LINE
  5
179
  8
0
 10
202.75790610565451
 20
89.223535517854117
 30
0.0
 11
181.7579061056538
 21
89.223535517854245
 31
0.0
  0
LINE
  5
17A
  8
0
 10
172.67511356995271
 20
98.523512392854542
 30
0.0
 11
211.92490175790689
 21
98.52351239285386
 31
0.0
  0
LINE
  5
17B
  8
0
 10
202.05790610565469
 20
88.523535517854114
 30
0.0
 11
182.45790610565359
 21
88.523535517854256
 31
0.0
  0
LINE
  5
17C
  8
2
 10
189.7579061056542
 20
88.898813192827404
 30
0.0
 11
189.7579061056542
 21
103.0801598448801
 31
0.0
  0
LINE
  5
17D
  8
2
 10
189.2579061056542
 20
88.61013805823265
 30
0.0
 11
189.2579061056542
 21
100.5235355178542
 31
0.0
  0
LINE
  5
17E
  8
2
 10
194.7579061056542
 20
88.898813192827404
 30
0.0
 11
194.7579061056542
 21
103.0801598448801
 31
0.0
  0
LINE
  5
17F
  8
2
 10
195.2579061056542
 20
88.61013805823265
 30
0.0
 11
195.2579061056542
 21
100.5235355178542
 31
0.0
  0
LINE
  5
180
  8
2
 10
187.2579061056542
 20
88.523535517854185
 30
0.0
 11
187.2579061056542
 21
104.0235355178542
 31
0.0
  0
LINE
  5
185
  8
2
 10
189.7579061056542
 20
88.898813192827404
 30
0.0
 11
189.10790610565419
 21
88.523535517854185
 31
0.0
  0
LINE
  5
186
  8
2
 10
194.7579061056542
 20
88.898813192827404
 30
0.0
 11
195.40790610565421
 21
88.523535517854185
 31
0.0
  0
LINE
  5
187
  8
2
 10
189.7579061056542
 20
88.898813192827404
 30
0.0
 11
194.7579061056542
 21
88.898813192827404
 31
0.0
  0
LINE
  5
188
  8
2
 10
188.7579061056542
 20
105.5235355178542
 30
0.0
 11
187.2579061056542
 21
104.0235355178542
 31
0.0
1001
GENIUS_GENFIL_13
1070
     0
1040
1.5
1040
1.5
1040
20.0
1040
0.0
1002
{
1002
}
  0
ARC
  5
18A
  8
0
 10
184.1310708350062
 20
99.728868330350465
 30
0.0
 40
1.2053559374999989
 50
148.5733561080547
 51
270.0
  0
LINE
  5
18C
  8
2
 10
189.2579061056542
 20
100.5235355178542
 30
0.0
 11
189.7579061056542
 21
101.5235355178542
 31
0.0
  0
LINE
  5
18D
  8
2
 10
192.2579061056542
 20
104.5235355178542
 30
0.0
 11
194.7579061056542
 21
103.0801598448801
 31
0.0
  0
LINE
  5
18E
  8
2
 10
195.2579061056542
 20
100.5235355178542
 30
0.0
 11
194.7579061056542
 21
101.5235355178542
 31
0.0
  0
LINE
  5
18F
  8
2
 10
194.7579061056542
 20
103.0801598448801
 30
0.0
 11
189.7579061056542
 21
103.0801598448801
 31
0.0
  0
LINE
  5
190
  8
2
 10
195.2579061056542
 20
100.5235355178542
 30
0.0
 11
189.2579061056542
 21
100.5235355178542
 31
0.0
  0
LINE
  5
191
  8
2
 10
192.2579061056542
 20
104.5235355178542
 30
0.0
 11
189.7579061056542
 21
103.0801598448801
 31
0.0
  0
LINE
  5
192
  8
2
 10
188.7579061056542
 20
105.5235355178542
 30
0.0
 11
195.7579061056542
 21
105.5235355178542
 31
0.0
  0
LINE
  5
193
  8
2
 10
197.2579061056542
 20
88.523535517854185
 30
0.0
 11
197.2579061056542
 21
104.0235355178542
 31
0.0
  0
LINE
  5
194
  8
0
 10
202.7579061056544
 20
97.586012392854045
 30
0.0
 11
202.7579061056542
 21
89.224235517854126
 31
0.0
  0
LINE
  5
195
  8
0
 10
202.7579061056548
 20
97.586012392854144
 30
0.0
 11
202.75790610565471
 21
89.223535517854287
 31
0.0
  0
LINE
  5
197
  8
0
 10
202.75790610565471
 20
89.223535517854287
 30
0.0
 11
202.05790610565469
 21
88.523535517854114
 31
0.0
  0
ARC
  5
198
  8
0
 10
205.9549845131944
 20
99.924642096195825
 30
0.0
 40
1.413608695632514
 50
161.54539578432821
 51
262.38126636849381
  0
LINE
  5
199
  8
0
 10
203.692170715792
 20
98.523512392854144
 30
0.0
 11
211.84069864135591
 21
98.52351239285376
 31
0.0
  0
ARC
  5
19A
  8
0
 10
200.384741376302
 20
99.728868330350366
 30
0.0
 40
1.2053559374999989
 50
270.0
 51
31.42664389194503
  0
ARC
  5
19B
  8
0
 10
203.69540610565431
 20
97.586012392854045
 30
0.0
 40
0.9375
 50
90.0
 51
180.0
  0
LINE
  5
19C
  8
3
 10
204.54770196900009
 20
100.05822871668541
 30
0.0
 11
201.5442260342339
 21
100.05822871668551
 31
0.0
  0
ARC
  5
19D
  8
0
 10
203.6954061056548
 20
97.586012392854144
 30
0.0
 40
0.9375
 50
90.0
 51
180.0
  0
LINE
  5
19E
  8
0
 10
169.75792860565409
 20
111.9235677500056
 30
0.0
 11
214.75788360565431
 21
111.92356775000469
 31
0.0
  0
LINE
  5
19F
  8
0
 10
169.75846848099661
 20
111.1264256000054
 30
0.0
 11
214.7573437303119
 21
111.12642560000479
 31
0.0
  0
ARC
  5
1A1
  8
0
 10
212.1578836056544
 20
111.9235677500052
 30
0.0
 40
2.6000000000000001
 50
0.0
 51
90.0
  0
ARC
  5
1A2
  8
2
 10
192.2579061056542
 20
194.6641315352459
 30
0.0
 40
82.5
 50
270.0
 51
283.73584201692779
  0
ARC
  5
1A3
  8
0
 10
192.25790610565301
 20
104.9779100181585
 30
0.0
 40
4.845602405476507
 50
89.999999999986969
 51
141.13447055919099
  0
ARC
  5
1A4
  8
0
 10
192.25790610565531
 20
104.9779100181585
 30
0.0
 40
4.845602405476507
 50
38.86552944080924
 51
90.000000000013031
  0
ARC
  5
1A5
  8
0
 10
210.60516241670001
 20
107.62861969232991
 30
0.0
 40
2.195975950622191
 50
22.946053022547151
 51
145.16391393025179
  0
LINE
  5
1A6
  8
0
 10
214.15790610565421
 20
111.92356775000481
 30
0.0
 11
214.15790610565421
 21
111.12642560000479
 31
0.0
  0
LINE
  5
1A7
  8
1
 10
192.2579061056542
 20
199.25892987139551
 30
0.0
 11
192.2579061056542
 21
144.2589748713954
 31
0.0
  0
LINE
  5
1A8
  8
1
 10
219.7578836056542
 20
171.75895237139551
 30
0.0
 11
164.7579286056542
 21
171.75895237139551
 31
0.0
  0
LINE
  5
1AD
  8
0
 10
181.7579061056538
 20
89.223535517854287
 30
0.0
 11
182.45790610565371
 21
88.523535517854114
 31
0.0
  0
LINE
  5
1AE
  8
0
 10
181.7579061056536
 20
97.586012392854144
 30
0.0
 11
181.7579061056538
 21
89.223535517854287
 31
0.0
  0
LINE
  5
1AF
  8
0
 10
181.75790610565409
 20
97.586012392854045
 30
0.0
 11
181.7579061056542
 21
89.224235517854126
 31
0.0
  0
ARC
  5
1B0
  8
0
 10
180.8204061056536
 20
97.586012392854144
 30
0.0
 40
0.9375
 50
0.000000000000007
 51
90.0
  0
ARC
  5
1B1
  8
0
 10
180.82040610565409
 20
97.586012392854045
 30
0.0
 40
0.9375
 50
0.000000000000007
 51
90.0
  0
LINE
  5
1B2
  8
0
 10
170.6734002704396
 20
100.36235133067051
 30
0.0
 11
169.75846848099661
 21
111.12642560000521
 31
0.0
  0
LINE
  5
1B3
  8
0
 10
214.7573437303119
 20
111.12642560000479
 30
0.0
 11
213.8424119408686
 21
100.36235133067019
 31
0.0
  0
TEXT
  5
2E8
  8
0
 62
     3
 10
0.0
 20
0.0
 30
0.0
 40
10.0
  1
ELK45
  7
STANDARD1
  0
ENDSEC
  0
EOF
