  0
SECTION
  2
HEADER
  9
$ACADVER
  1
AC1009
  9
$INSBASE
 10
0.0
 20
0.0
 30
0.0
  9
$EXTMIN
 10
0.0
 20
-2.960436562073669
 30
0.0
  9
$EXTMAX
 10
65.231923601637106
 20
106.99867194139109
 30
0.0
  9
$LIMMIN
 10
0.0
 20
0.0
  9
$LIMMAX
 10
385.0
 20
270.0
  9
$ORTHOMODE
 70
     1
  9
$REGENMODE
 70
     1
  9
$FILLMODE
 70
     1
  9
$QTEXTMODE
 70
     0
  9
$MIRRTEXT
 70
     0
  9
$DRAGMODE
 70
     2
  9
$LTSCALE
 40
10.0
  9
$OSMODE
 70
  3071
  9
$ATTMODE
 70
     1
  9
$TEXTSIZE
 40
0.2
  9
$TRACEWID
 40
0.05
  9
$TEXTSTYLE
  7
STANDARD
  9
$CLAYER
  8
0
  9
$CELTYPE
  6
BYLAYER
  9
$CECOLOR
 62
   256
  9
$DIMSCALE
 40
1.0
  9
$DIMASZ
 40
3.0
  9
$DIMEXO
 40
0.0625
  9
$DIMDLI
 40
0.38
  9
$DIMRND
 40
0.0
  9
$DIMDLE
 40
0.0
  9
$DIMEXE
 40
0.18
  9
$DIMTP
 40
0.0
  9
$DIMTM
 40
0.0
  9
$DIMTXT
 40
3.0
  9
$DIMCEN
 40
0.09
  9
$DIMTSZ
 40
0.0
  9
$DIMTOL
 70
     0
  9
$DIMLIM
 70
     0
  9
$DIMTIH
 70
     1
  9
$DIMTOH
 70
     1
  9
$DIMSE1
 70
     0
  9
$DIMSE2
 70
     0
  9
$DIMTAD
 70
     0
  9
$DIMZIN
 70
     0
  9
$DIMBLK
  1

  9
$DIMASO
 70
     1
  9
$DIMSHO
 70
     1
  9
$DIMPOST
  1

  9
$DIMAPOST
  1

  9
$DIMALT
 70
     0
  9
$DIMALTD
 70
     2
  9
$DIMALTF
 40
25.399999999999999
  9
$DIMLFAC
 40
1.0
  9
$DIMTOFL
 70
     0
  9
$DIMTVP
 40
0.0
  9
$DIMTIX
 70
     0
  9
$DIMSOXD
 70
     0
  9
$DIMSAH
 70
     0
  9
$DIMBLK1
  1

  9
$DIMBLK2
  1

  9
$DIMSTYLE
  2
STANDARD
  9
$DIMCLRD
 70
     0
  9
$DIMCLRE
 70
     0
  9
$DIMCLRT
 70
     0
  9
$DIMTFAC
 40
1.0
  9
$DIMGAP
 40
0.09
  9
$LUNITS
 70
     2
  9
$LUPREC
 70
     4
  9
$SKETCHINC
 40
0.1
  9
$FILLETRAD
 40
0.0
  9
$AUNITS
 70
     0
  9
$AUPREC
 70
     0
  9
$MENU
  1
E:\r13\win\SUPPORT\ACAD
  9
$ELEVATION
 40
0.0
  9
$PELEVATION
 40
0.0
  9
$THICKNESS
 40
0.0
  9
$LIMCHECK
 70
     0
  9
$BLIPMODE
 70
     0
  9
$CHAMFERA
 40
0.0
  9
$CHAMFERB
 40
0.0
  9
$SKPOLY
 70
     0
  9
$TDCREATE
 40
2450365.4901621528
  9
$TDUPDATE
 40
2456598.6766805211
  9
$TDINDWG
 40
0.0023424653
  9
$TDUSRTIMER
 40
0.0023424653
  9
$USRTIMER
 70
     1
  9
$ANGBASE
 50
0.0
  9
$ANGDIR
 70
     0
  9
$PDMODE
 70
     0
  9
$PDSIZE
 40
0.0
  9
$PLINEWID
 40
0.0
  9
$COORDS
 70
     1
  9
$SPLFRAME
 70
     0
  9
$SPLINETYPE
 70
     6
  9
$SPLINESEGS
 70
     8
  9
$ATTDIA
 70
     0
  9
$ATTREQ
 70
     1
  9
$HANDLING
 70
     1
  9
$HANDSEED
  5
341
  9
$SURFTAB1
 70
     6
  9
$SURFTAB2
 70
     6
  9
$SURFTYPE
 70
     6
  9
$SURFU
 70
     6
  9
$SURFV
 70
     6
  9
$UCSNAME
  2

  9
$UCSORG
 10
0.0
 20
0.0
 30
0.0
  9
$UCSXDIR
 10
1.0
 20
0.0
 30
0.0
  9
$UCSYDIR
 10
0.0
 20
1.0
 30
0.0
  9
$PUCSNAME
  2

  9
$PUCSORG
 10
0.0
 20
0.0
 30
0.0
  9
$PUCSXDIR
 10
1.0
 20
0.0
 30
0.0
  9
$PUCSYDIR
 10
0.0
 20
1.0
 30
0.0
  9
$USERI1
 70
     3
  9
$USERI2
 70
     1
  9
$USERI3
 70
     1
  9
$USERI4
 70
     0
  9
$USERI5
 70
     0
  9
$USERR1
 40
1.0
  9
$USERR2
 40
3.0
  9
$USERR3
 40
3.0
  9
$USERR4
 40
3.0
  9
$USERR5
 40
10.0
  9
$WORLDVIEW
 70
     1
  9
$SHADEDGE
 70
     3
  9
$SHADEDIF
 70
    70
  9
$TILEMODE
 70
     1
  9
$MAXACTVP
 70
    16
  9
$PLIMCHECK
 70
     0
  9
$PEXTMIN
 10
1.0000000000000000E+020
 20
1.0000000000000000E+020
 30
1.0000000000000000E+020
  9
$PEXTMAX
 10
-1.0000000000000000E+020
 20
-1.0000000000000000E+020
 30
-1.0000000000000000E+020
  9
$PLIMMIN
 10
0.0
 20
0.0
  9
$PLIMMAX
 10
12.0
 20
9.0
  9
$UNITMODE
 70
     0
  9
$VISRETAIN
 70
     0
  9
$PLINEGEN
 70
     0
  9
$PSLTSCALE
 70
     0
  0
ENDSEC
  0
SECTION
  2
TABLES
  0
TABLE
  2
VPORT
 70
     1
  0
VPORT
  2
*ACTIVE
 70
     0
 10
0.0
 20
0.0
 11
1.0
 21
1.0
 12
192.49412581440311
 22
169.9063198933564
 13
0.0
 23
0.0
 14
5.0
 24
5.0
 15
0.0
 25
0.0
 16
0.0
 26
0.0
 36
1.0
 17
0.0
 27
0.0
 37
0.0
 40
348.89937369551939
 41
1.831871345029239
 42
50.0
 43
0.0
 44
0.0
 50
0.0
 51
0.0
 71
     0
 72
   100
 73
     1
 74
     0
 75
     0
 76
     0
 77
     0
 78
     0
  0
ENDTAB
  0
TABLE
  2
LTYPE
 70
     4
  0
LTYPE
  2
CONTINUOUS
 70
     0
  3
Solid Line
 72
    65
 73
     0
 40
0.0
  0
LTYPE
  2
CENTER
 70
     0
  3
____ _ ____ _ ____ _ ____ _ ____ _ ____ _ ____
 72
    65
 73
     4
 40
2.0
 49
1.25
 49
-0.25
 49
0.25
 49
-0.25
  0
LTYPE
  2
HIDDEN
 70
     0
  3
_ _ _ _ _ _ _ _ _ _ _ _ _ _ _ _ _ _ _ _ _ _ _
 72
    65
 73
     2
 40
0.375
 49
0.25
 49
-0.125
  0
LTYPE
  2
PHANTOM2
 70
     0
  3
___ _ _ ___ _ _ ___ _ _ ___ _ _
 72
    65
 73
     6
 40
1.25
 49
0.625
 49
-0.125
 49
0.125
 49
-0.125
 49
0.125
 49
-0.125
  0
ENDTAB
  0
TABLE
  2
LAYER
 70
     3
  0
LAYER
  2
0
 70
     0
 62
     7
  6
CONTINUOUS
  0
LAYER
  2
1
 70
     0
 62
     1
  6
CENTER
  0
LAYER
  2
2
 70
     0
 62
     2
  6
HIDDEN
  0
ENDTAB
  0
TABLE
  2
STYLE
 70
     2
  0
STYLE
  2
STANDARD
 70
     0
 40
0.0
 41
1.0
 50
0.0
 71
     0
 42
0.2
  3
SIMPLEX
  4
BIGFONT
  0
STYLE
  2
STANDARD1
 70
     0
 40
0.0
 41
1.0
 50
0.0
 71
     0
 42
3.0
  3
txt
  4

  0
ENDTAB
  0
TABLE
  2
VIEW
 70
     0
  0
ENDTAB
  0
TABLE
  2
UCS
 70
     0
  0
ENDTAB
  0
TABLE
  2
APPID
 70
     4
  0
APPID
  2
ACAD
 70
     0
  0
APPID
  2
ACAD_MLEADERVER
 70
     0
  0
APPID
  2
ACAD_EXEMPT_FROM_CAD_STANDARDS
 70
     0
  0
APPID
  2
ACAD_NAV_VCDISPLAY
 70
     0
  0
ENDTAB
  0
TABLE
  2
DIMSTYLE
 70
     1
  0
DIMSTYLE
  2
STANDARD
 70
     0
  3

  4

  5

  6

  7

 40
1.0
 41
0.18
 42
0.0625
 43
0.38
 44
0.18
 45
0.0
 46
0.0
 47
0.0
 48
0.0
140
0.18
141
0.09
142
0.0
143
25.399999999999999
144
1.0
145
0.0
146
1.0
147
0.09
 71
     0
 72
     0
 73
     1
 74
     1
 75
     0
 76
     0
 77
     0
 78
     0
170
     0
171
     2
172
     0
173
     0
174
     0
175
     0
176
     0
177
     0
178
     0
  0
ENDTAB
  0
ENDSEC
  0
SECTION
  2
BLOCKS
  0
BLOCK
  8
0
  2
$MODEL_SPACE
 70
     0
 10
0.0
 20
0.0
 30
0.0
  3
$MODEL_SPACE
  1

  0
ENDBLK
  5
174
  8
0
  0
BLOCK
 67
     1
  8
0
  2
$PAPER_SPACE
 70
     0
 10
0.0
 20
0.0
 30
0.0
  3
$PAPER_SPACE
  1

  0
ENDBLK
  5
172
 67
     1
  8
0
  0
ENDSEC
  0
SECTION
  2
ENTITIES
  0
ARC
  5
36
  8
2
 10
47.532592152031043
 20
75.455259436567374
 30
0.0
 40
24.546185523803249
 50
247.86187926326511
 51
292.13812073673478
  0
LINE
  5
37
  8
0
 10
54.993702321205149
 20
44.198724859671991
 30
0.0
 11
40.07148198285693
 21
44.198724859671991
 31
0.0
  0
LINE
  5
38
  8
2
 10
45.187828098051618
 20
43.568070700115541
 30
0.0
 11
49.877356206010461
 21
43.568070700115541
 31
0.0
  0
LINE
  5
3A
  8
2
 10
50.532592152031029
 20
42.218665061662151
 30
0.0
 11
44.532592152031057
 21
42.218665061662151
 31
0.0
  0
LINE
  5
3B
  8
2
 10
45.187828098051618
 20
43.568070700115541
 30
0.0
 11
47.532592152031043
 21
44.921820857866763
 31
0.0
  0
LINE
  5
3C
  8
2
 10
44.532592152031057
 20
42.218665061662151
 30
0.0
 11
44.532592152031057
 21
30.018665061662151
 31
0.0
  0
LINE
  5
3D
  8
2
 10
45.187828098051618
 20
43.568070700115541
 30
0.0
 11
45.187828098051618
 21
30.018665061662151
 31
0.0
  0
LINE
  5
3E
  8
2
 10
49.877356206010461
 20
43.568070700115541
 30
0.0
 11
47.532592152031043
 21
44.921820857866763
 31
0.0
  0
LINE
  5
42
  8
2
 10
43.524144559363293
 20
46.7186650616622
 30
0.0
 11
42.732592152031138
 21
46.16441409916014
 31
0.0
  0
LINE
  5
44
  8
2
 10
43.532592152030979
 20
41.7186650616622
 30
0.0
 11
42.732592152031138
 21
41.7186650616622
 31
0.0
  0
LINE
  5
45
  8
2
 10
43.532592152030979
 20
39.218665061662207
 30
0.0
 11
43.532592152030979
 21
41.7186650616622
 31
0.0
  0
LINE
  5
46
  8
2
 10
42.732592152031138
 20
39.218665061662207
 30
0.0
 11
43.532592152030979
 21
39.218665061662207
 31
0.0
  0
LINE
  5
47
  8
2
 10
43.532592152030979
 20
35.218665061662151
 30
0.0
 11
42.732592152031138
 21
35.218665061662151
 31
0.0
  0
LINE
  5
48
  8
2
 10
42.732592152031138
 20
35.218665061662151
 30
0.0
 11
42.732592152031138
 21
39.218665061662207
 31
0.0
  0
LINE
  5
49
  8
2
 10
42.732592152031138
 20
41.7186650616622
 30
0.0
 11
42.732592152031138
 21
46.16441409916014
 31
0.0
  0
LINE
  5
4A
  8
2
 10
43.532592152030979
 20
30.218665061662151
 30
0.0
 11
43.532592152030979
 21
35.218665061662151
 31
0.0
  0
LINE
  5
4B
  8
2
 10
49.877356206010461
 20
43.568070700115541
 30
0.0
 11
49.877356206010461
 21
30.018665061662151
 31
0.0
  0
LINE
  5
4C
  8
2
 10
50.532592152031022
 20
42.218665061662151
 30
0.0
 11
50.532592152031022
 21
30.018665061662151
 31
0.0
  0
LINE
  5
4D
  8
2
 10
51.5410397446988
 20
46.7186650616622
 30
0.0
 11
52.332592152031083
 21
46.16441409916014
 31
0.0
  0
LINE
  5
4E
  8
2
 10
51.5410397446988
 20
46.7186650616622
 30
0.0
 11
43.524144559363293
 21
46.7186650616622
 31
0.0
  0
LINE
  5
4F
  8
2
 10
52.332592152031083
 20
41.7186650616622
 30
0.0
 11
52.332592152031083
 21
46.16441409916014
 31
0.0
  0
LINE
  5
50
  8
2
 10
51.5325921520311
 20
41.7186650616622
 30
0.0
 11
52.332592152031083
 21
41.7186650616622
 31
0.0
  0
LINE
  5
51
  8
2
 10
51.5325921520311
 20
39.218665061662207
 30
0.0
 11
51.5325921520311
 21
41.7186650616622
 31
0.0
  0
LINE
  5
52
  8
2
 10
52.332592152031083
 20
39.218665061662207
 30
0.0
 11
51.5325921520311
 21
39.218665061662207
 31
0.0
  0
LINE
  5
53
  8
2
 10
52.332592152031083
 20
35.218665061662151
 30
0.0
 11
52.332592152031083
 21
39.218665061662207
 31
0.0
  0
LINE
  5
54
  8
2
 10
51.5325921520311
 20
35.218665061662151
 30
0.0
 11
52.332592152031083
 21
35.218665061662151
 31
0.0
  0
LINE
  5
55
  8
2
 10
51.5325921520311
 20
30.218665061662151
 30
0.0
 11
51.5325921520311
 21
35.218665061662151
 31
0.0
  0
CIRCLE
  5
56
  8
0
 10
45.032592152031043
 20
91.034436557196656
 30
0.0
 40
0.9000000000000001
  0
CIRCLE
  5
57
  8
0
 10
42.532592152031043
 20
91.034436557196656
 30
0.0
 40
0.9000000000000001
  0
CIRCLE
  5
58
  8
0
 10
52.53259215203105
 20
91.034436557196656
 30
0.0
 40
0.9000000000000001
  0
CIRCLE
  5
59
  8
0
 10
50.03259215203105
 20
91.034436557196656
 30
0.0
 40
0.9000000000000001
  0
CIRCLE
  5
5A
  8
0
 10
47.532592152031043
 20
91.034436557196656
 30
0.0
 40
0.9000000000000001
  0
CIRCLE
  5
5B
  8
0
 10
47.532592152031043
 20
91.034436557196656
 30
0.0
 40
9.25
  0
LINE
  5
5C
  8
0
 10
45.532592152031008
 20
52.718665061662151
 30
0.0
 11
45.532592152031008
 21
50.218665061662257
 31
0.0
  0
LINE
  5
5D
  8
0
 10
46.808238368244467
 20
52.718665061662151
 30
0.0
 11
46.808238368244467
 21
50.218665061662257
 31
0.0
  0
LINE
  5
5E
  8
0
 10
35.532592152031022
 20
52.718665061662257
 30
0.0
 11
35.03259215203105
 21
52.218665061662151
 31
0.0
  0
LINE
  5
5F
  8
0
 10
35.632592152031073
 20
52.718665061662151
 30
0.0
 11
35.632592152031073
 21
50.218665061662257
 31
0.0
  0
LINE
  5
60
  8
0
 10
35.03259215203105
 20
52.218665061662151
 30
0.0
 11
35.03259215203105
 21
48.1112475297871
 31
0.0
  0
LINE
  5
61
  8
0
 10
36.332592152030998
 20
52.718665061662151
 30
0.0
 11
36.332592152030998
 21
50.218665061662257
 31
0.0
  0
LINE
  5
62
  8
0
 10
37.132592152030981
 20
52.718665061662151
 30
0.0
 11
37.132592152030981
 21
50.218665061662257
 31
0.0
  0
LINE
  5
63
  8
0
 10
38.032592152031022
 20
52.718665061662151
 30
0.0
 11
38.032592152031022
 21
50.218665061662257
 31
0.0
  0
LINE
  5
64
  8
0
 10
39.0325921520311
 20
52.718665061662151
 30
0.0
 11
39.0325921520311
 21
50.218665061662257
 31
0.0
  0
LINE
  5
65
  8
0
 10
40.132592152031087
 20
52.718665061662151
 30
0.0
 11
40.132592152031087
 21
50.218665061662257
 31
0.0
  0
LINE
  5
66
  8
0
 10
41.33259215203099
 20
52.718665061662151
 30
0.0
 11
41.33259215203099
 21
50.218665061662257
 31
0.0
  0
LINE
  5
67
  8
0
 10
42.632592152031087
 20
52.718665061662151
 30
0.0
 11
42.632592152031087
 21
50.218665061662257
 31
0.0
  0
LINE
  5
68
  8
0
 10
44.032592152031093
 20
52.718665061662151
 30
0.0
 11
44.032592152031093
 21
50.218665061662257
 31
0.0
  0
ARC
  5
69
  8
0
 10
39.660861593746581
 20
43.913433962434063
 30
0.0
 40
0.5
 50
0.5091967829641242
 51
69.072415261089418
  0
LINE
  5
6A
  8
0
 10
39.839455456536861
 20
44.380450270686318
 30
0.0
 11
36.800325906684641
 21
45.542657834399122
 31
0.0
  0
LINE
  5
6B
  8
0
 10
54.782592152030993
 20
30.218665061662151
 30
0.0
 11
40.282592152031093
 21
30.218665061662151
 31
0.0
  0
LINE
  5
6C
  8
0
 10
40.282592152031093
 20
30.218665061662151
 30
0.0
 11
40.16084184847147
 21
43.917877484142437
 31
0.0
  0
ARC
  5
6D
  8
0
 10
37.7825921520311
 20
48.1112475297871
 30
0.0
 40
2.75
 50
180.0
 51
249.07241526108939
  0
LINE
  5
6E
  8
0
 10
60.03259215203105
 20
50.218665061662151
 30
0.0
 11
35.03259215203105
 21
50.218665061662151
 31
0.0
  0
LINE
  5
6F
  8
0
 10
59.43259215203102
 20
52.718665061662037
 30
0.0
 11
35.532592152031022
 21
52.718665061662257
 31
0.0
  0
LINE
  5
70
  8
0
 10
59.532592152031071
 20
52.718665061662257
 30
0.0
 11
60.03259215203105
 21
52.218665061662151
 31
0.0
  0
LINE
  5
71
  8
0
 10
48.256945935817612
 20
52.718665061662151
 30
0.0
 11
48.256945935817612
 21
50.218665061662257
 31
0.0
  0
LINE
  5
72
  8
0
 10
49.532592152031071
 20
52.718665061662151
 30
0.0
 11
49.532592152031071
 21
50.218665061662257
 31
0.0
  0
LINE
  5
73
  8
0
 10
51.032592152030993
 20
52.718665061662151
 30
0.0
 11
51.032592152030993
 21
50.218665061662257
 31
0.0
  0
LINE
  5
74
  8
0
 10
52.432592152031141
 20
52.718665061662151
 30
0.0
 11
52.432592152031141
 21
50.218665061662257
 31
0.0
  0
LINE
  5
75
  8
0
 10
53.732592152031089
 20
52.718665061662151
 30
0.0
 11
53.732592152031089
 21
50.218665061662257
 31
0.0
  0
LINE
  5
76
  8
0
 10
54.932592152031141
 20
52.718665061662151
 30
0.0
 11
54.932592152031141
 21
50.218665061662257
 31
0.0
  0
LINE
  5
77
  8
0
 10
56.032592152030993
 20
52.718665061662151
 30
0.0
 11
56.032592152030993
 21
50.218665061662257
 31
0.0
  0
LINE
  5
78
  8
0
 10
57.032592152031071
 20
52.718665061662151
 30
0.0
 11
57.032592152031071
 21
50.218665061662257
 31
0.0
  0
LINE
  5
79
  8
0
 10
57.932592152031113
 20
52.718665061662151
 30
0.0
 11
57.932592152031113
 21
50.218665061662257
 31
0.0
  0
LINE
  5
7A
  8
0
 10
58.732592152031089
 20
52.718665061662151
 30
0.0
 11
58.732592152031089
 21
50.218665061662257
 31
0.0
  0
LINE
  5
7B
  8
0
 10
59.43259215203102
 20
52.718665061662151
 30
0.0
 11
59.43259215203102
 21
50.218665061662257
 31
0.0
  0
ARC
  5
7D
  8
0
 10
55.404322710315512
 20
43.913433962434063
 30
0.0
 40
0.5
 50
110.9275847389106
 51
179.4908032170359
  0
ARC
  5
7E
  8
0
 10
57.282592152030993
 20
48.1112475297871
 30
0.0
 40
2.75
 50
290.92758473891058
 51
0.0
  0
LINE
  5
7F
  8
0
 10
55.225728847525382
 20
44.380450270686318
 30
0.0
 11
58.264858397377452
 21
45.542657834399122
 31
0.0
  0
LINE
  5
80
  8
0
 10
54.782592152030993
 20
30.218665061662151
 30
0.0
 11
54.904342455590609
 21
43.917877484142437
 31
0.0
  0
LINE
  5
82
  8
0
 10
60.03259215203105
 20
52.218665061662151
 30
0.0
 11
60.03259215203105
 21
48.1112475297871
 31
0.0
  0
LINE
  5
85
  8
0
 10
59.019486066669657
 20
95.944170639375756
 30
0.0
 11
58.226304846550683
 21
96.058799144124464
 31
0.0
  0
LINE
  5
86
  8
0
 10
58.533138038835261
 20
96.954082725354525
 30
0.0
 11
58.128217810866012
 21
96.262478972450012
 31
0.0
  0
LINE
  5
87
  8
0
 10
58.533138038835261
 20
96.954082725354525
 30
0.0
 11
57.732874713170652
 21
96.997149553036834
 31
0.0
  0
LINE
  5
88
  8
0
 10
57.958220083736649
 20
97.916333301083043
 30
0.0
 11
57.616924828005871
 21
97.191216972163161
 31
0.0
  0
LINE
  5
89
  8
0
 10
57.958220083736649
 20
97.916333301083043
 30
0.0
 11
57.157317902277391
 21
97.887491702925104
 31
0.0
  0
LINE
  5
8A
  8
0
 10
57.299361102701774
 20
98.823174890719301
 30
0.0
 11
57.024438727930431
 21
98.070384196103291
 31
0.0
  0
LINE
  5
8B
  8
0
 10
57.299361102701774
 20
98.823174890719301
 30
0.0
 11
56.504268458890181
 21
98.722657082311045
 31
0.0
  0
LINE
  5
8C
  8
0
 10
55.75167217636934
 20
100.4419305974495
 30
0.0
 11
55.615583886127979
 21
99.652148273445192
 31
0.0
  0
LINE
  5
8D
  8
0
 10
55.75167217636934
 20
100.4419305974495
 30
0.0
 11
54.987305146187452
 21
100.2010588780192
 31
0.0
  0
LINE
  5
8E
  8
0
 10
54.87530331228033
 20
101.1408114454057
 30
0.0
 11
54.810558415194102
 21
100.34200969255851
 31
0.0
  0
LINE
  5
8F
  8
0
 10
54.87530331228033
 20
101.1408114454057
 30
0.0
 11
54.135604973505771
 21
100.83239207236861
 31
0.0
  0
LINE
  5
90
  8
0
 10
53.939815255373162
 20
101.7583217052141
 30
0.0
 11
53.946935039283971
 21
100.9569320055501
 31
0.0
  0
LINE
  5
91
  8
0
 10
53.939815255373162
 20
101.7583217052141
 30
0.0
 11
53.23074122409426
 21
101.3848378900143
 31
0.0
  0
LINE
  5
92
  8
0
 10
52.95274000542409
 20
102.2894895473531
 30
0.0
 11
53.031667146018322
 21
101.4919642195245
 31
0.0
  0
LINE
  5
93
  8
0
 10
52.95274000542409
 20
102.2894895473531
 30
0.0
 11
52.279999328811932
 21
101.85394836206559
 31
0.0
  0
LINE
  5
94
  8
0
 10
51.922024911954907
 20
102.7300383206792
 30
0.0
 11
52.072123934304841
 21
101.94279856968851
 31
0.0
  0
LINE
  5
95
  8
0
 10
51.922024911954907
 20
102.7300383206792
 30
0.0
 11
51.291034102372237
 21
102.2359464868339
 31
0.0
  0
LINE
  5
96
  8
0
 10
56.561865840843268
 20
99.667306138998214
 30
0.0
 11
56.355529860341171
 21
98.892902106725359
 31
0.0
  0
LINE
  5
97
  8
0
 10
56.561865840843268
 20
99.667306138998214
 30
0.0
 11
55.77898435314043
 21
99.495921430629366
 31
0.0
  0
LINE
  5
98
  8
0
 10
50.85596868684749
 20
103.07642098550831
 30
0.0
 11
50.271808111276528
 21
102.52775664003011
 31
0.0
  0
LINE
  5
99
  8
0
 10
49.763154587995359
 20
103.32584867229291
 30
0.0
 11
50.05140854270411
 21
102.5780614033151
 31
0.0
  0
LINE
  5
9A
  8
0
 10
49.763154587995359
 20
103.32584867229291
 30
0.0
 11
49.230527563909902
 21
102.727029337882
 31
0.0
  0
LINE
  5
9B
  8
0
 10
45.30202971606672
 20
103.32584867229291
 30
0.0
 11
45.013775761357969
 21
102.5780614033151
 31
0.0
  0
LINE
  5
9C
  8
0
 10
44.209215617214731
 20
103.07642098550831
 30
0.0
 11
44.793376192785551
 21
102.52775664003011
 31
0.0
  0
LINE
  5
9D
  8
0
 10
44.209215617214731
 20
103.07642098550831
 30
0.0
 11
43.989153222180327
 21
102.3058052029409
 31
0.0
  0
LINE
  5
9E
  8
0
 10
43.143159392107172
 20
102.7300383206792
 30
0.0
 11
43.774150201689842
 21
102.2359464868339
 31
0.0
  0
LINE
  5
9F
  8
0
 10
43.143159392107172
 20
102.7300383206792
 30
0.0
 11
42.993060369757238
 21
101.94279856968851
 31
0.0
  0
LINE
  5
A0
  8
0
 10
42.112444298637989
 20
102.2894895473531
 30
0.0
 11
42.785184975250303
 21
101.85394836206559
 31
0.0
  0
LINE
  5
A1
  8
0
 10
42.112444298637989
 20
102.2894895473531
 30
0.0
 11
42.033517158043757
 21
101.4919642195245
 31
0.0
  0
LINE
  5
A2
  8
0
 10
41.125369048688917
 20
101.7583217052141
 30
0.0
 11
41.834443079967819
 21
101.3848378900143
 31
0.0
  0
LINE
  5
A3
  8
0
 10
41.125369048688917
 20
101.7583217052141
 30
0.0
 11
41.118249264778107
 21
100.9569320055501
 31
0.0
  0
LINE
  5
A4
  8
0
 10
45.30202971606672
 20
103.32584867229291
 30
0.0
 11
45.834656740152177
 21
102.727029337882
 31
0.0
  0
LINE
  5
A5
  8
0
 10
47.532592152031043
 20
103.5266029251199
 30
0.0
 11
47.115447984244007
 21
102.84230263626149
 31
0.0
  0
LINE
  5
A6
  8
0
 10
47.532592152031043
 20
103.5266029251199
 30
0.0
 11
47.949736319818207
 21
102.84230263626149
 31
0.0
  0
LINE
  5
A7
  8
0
 10
46.412802992103671
 20
103.47631313596
 30
0.0
 11
46.889608065085348
 21
102.8321601537971
 31
0.0
  0
LINE
  5
A8
  8
0
 10
46.412802992103671
 20
103.47631313596
 30
0.0
 11
46.058678329073381
 21
102.75737512397011
 31
0.0
  0
LINE
  5
A9
  8
0
 10
48.652381311958408
 20
103.47631313596
 30
0.0
 11
49.006505974988841
 21
102.75737512397011
 31
0.0
  0
LINE
  5
AA
  8
0
 10
48.652381311958408
 20
103.47631313596
 30
0.0
 11
48.175576238976731
 21
102.8321601537971
 31
0.0
  0
LINE
  5
AB
  8
0
 10
40.189880991781763
 20
101.1408114454057
 30
0.0
 11
40.254625888867977
 21
100.34200969255841
 31
0.0
  0
LINE
  5
AC
  8
0
 10
39.313512127692753
 20
100.4419305974496
 30
0.0
 11
40.077879157874627
 21
100.2010588780192
 31
0.0
  0
LINE
  5
AD
  8
0
 10
39.313512127692753
 20
100.4419305974496
 30
0.0
 11
39.449600417934107
 21
99.652148273445192
 31
0.0
  0
LINE
  5
AE
  8
0
 10
38.50331846321896
 20
99.667306138998214
 30
0.0
 11
39.286199950921663
 21
99.495921430629366
 31
0.0
  0
LINE
  5
AF
  8
0
 10
38.50331846321896
 20
99.667306138998214
 30
0.0
 11
38.709654443720922
 21
98.892902106725359
 31
0.0
  0
LINE
  5
B0
  8
0
 10
37.765823201360462
 20
98.823174890719301
 30
0.0
 11
38.560915845171913
 21
98.722657082311045
 31
0.0
  0
LINE
  5
B1
  8
0
 10
37.765823201360462
 20
98.823174890719301
 30
0.0
 11
38.040745576131663
 21
98.070384196103291
 31
0.0
  0
LINE
  5
B2
  8
0
 10
37.10696422032558
 20
97.916333301083043
 30
0.0
 11
37.907866401784702
 21
97.887491702925104
 31
0.0
  0
LINE
  5
B3
  8
0
 10
37.10696422032558
 20
97.916333301083043
 30
0.0
 11
37.448259476056222
 21
97.191216972163161
 31
0.0
  0
LINE
  5
B4
  8
0
 10
36.532046265226967
 20
96.954082725354525
 30
0.0
 11
37.332309590891441
 21
96.997149553036834
 31
0.0
  0
LINE
  5
B5
  8
0
 10
36.532046265226967
 20
96.954082725354525
 30
0.0
 11
36.936966493196081
 21
96.262478972450012
 31
0.0
  0
LINE
  5
B6
  8
0
 10
36.045698237392429
 20
95.944170639375756
 30
0.0
 11
36.83887945751141
 21
96.058799144124464
 31
0.0
  0
LINE
  5
B7
  8
0
 10
40.189880991781763
 20
101.1408114454057
 30
0.0
 11
40.929579330556322
 21
100.83239207236861
 31
0.0
  0
LINE
  5
B8
  8
0
 10
50.85596868684749
 20
103.07642098550831
 30
0.0
 11
51.076031081881901
 21
102.3058052029409
 31
0.0
  0
LINE
  5
B9
  8
0
 10
59.711553827738328
 20
88.254668029868725
 30
0.0
 11
58.951587066005857
 21
88.000253676672514
 31
0.0
  0
LINE
  5
BA
  8
0
 10
59.711553827738328
 20
88.254668029868725
 30
0.0
 11
59.13723368562674
 21
88.813624661831554
 31
0.0
  0
LINE
  5
BB
  8
0
 10
59.911701438289981
 20
89.357572268492831
 30
0.0
 11
59.177599606109261
 21
89.036059217374714
 31
0.0
  0
LINE
  5
BC
  8
0
 10
59.911701438289981
 20
89.357572268492831
 30
0.0
 11
59.28958885402696
 21
89.862797044757684
 31
0.0
  0
LINE
  5
BD
  8
0
 10
60.012179739666919
 20
90.473977632389264
 30
0.0
 11
59.309853393345719
 21
90.087954517390244
 31
0.0
  0
LINE
  5
BE
  8
0
 10
60.012179739666919
 20
90.473977632389264
 30
0.0
 11
59.347283597984728
 21
90.921402780125291
 31
0.0
  0
LINE
  5
BF
  8
0
 10
60.012179739666919
 20
91.594895482003906
 30
0.0
 11
59.347283597984728
 21
91.147470334268021
 31
0.0
  0
LINE
  5
C0
  8
0
 10
60.012179739666919
 20
91.594895482003906
 30
0.0
 11
59.309853393345719
 21
91.980918597002912
 31
0.0
  0
LINE
  5
C1
  8
0
 10
59.911701438289981
 20
92.711300845900482
 30
0.0
 11
59.289588854026817
 21
92.206076069635472
 31
0.0
  0
LINE
  5
C2
  8
0
 10
59.911701438289981
 20
92.711300845900482
 30
0.0
 11
59.177599606109261
 21
93.032813897018585
 31
0.0
  0
LINE
  5
C3
  8
0
 10
59.711553827738328
 20
93.814205084524573
 30
0.0
 11
59.13723368562674
 21
93.255248452561744
 31
0.0
  0
LINE
  5
C4
  8
0
 10
59.711553827738328
 20
93.814205084524573
 30
0.0
 11
58.951587066005857
 21
94.068619437720784
 31
0.0
  0
LINE
  5
C5
  8
0
 10
59.41334837888764
 20
94.894728261444001
 30
0.0
 11
58.891444767016772
 21
94.286540163922652
 31
0.0
  0
LINE
  5
C6
  8
0
 10
59.41334837888764
 20
94.894728261444001
 30
0.0
 11
58.633635493115612
 21
95.079995521939566
 31
0.0
  0
LINE
  5
C7
  8
0
 10
57.299361102701774
 20
83.245698223673855
 30
0.0
 11
56.504268458890181
 21
83.346216032082125
 31
0.0
  0
LINE
  5
C8
  8
0
 10
57.299361102701774
 20
83.245698223673855
 30
0.0
 11
57.024438727930431
 21
83.998488918289866
 31
0.0
  0
LINE
  5
C9
  8
0
 10
57.958220083736649
 20
84.152539813310256
 30
0.0
 11
57.157317902277391
 21
84.181381411468195
 31
0.0
  0
LINE
  5
CA
  8
0
 10
57.958220083736649
 20
84.152539813310256
 30
0.0
 11
57.616924828005871
 21
84.877656142230151
 31
0.0
  0
LINE
  5
CB
  8
0
 10
58.533138038835261
 20
85.114790389038774
 30
0.0
 11
57.732874713170652
 21
85.071723561356464
 31
0.0
  0
LINE
  5
CC
  8
0
 10
58.533138038835261
 20
85.114790389038774
 30
0.0
 11
58.128217810866012
 21
85.806394141943301
 31
0.0
  0
LINE
  5
CD
  8
0
 10
59.019486066669657
 20
86.124702475017543
 30
0.0
 11
58.226304846550683
 21
86.010073970268834
 31
0.0
  0
LINE
  5
CE
  8
0
 10
59.019486066669657
 20
86.124702475017543
 30
0.0
 11
58.554201046048213
 21
86.777225265144935
 31
0.0
  0
LINE
  5
CF
  8
0
 10
59.41334837888764
 20
87.174144852949155
 30
0.0
 11
58.633635493115612
 21
86.988877592453591
 31
0.0
  0
LINE
  5
D0
  8
0
 10
59.41334837888764
 20
87.174144852949155
 30
0.0
 11
58.891444767016772
 21
87.782332950470504
 31
0.0
  0
LINE
  5
D1
  8
0
 10
53.939815255373162
 20
80.310551409179183
 30
0.0
 11
53.23074122409426
 21
80.684035224378803
 31
0.0
  0
LINE
  5
D2
  8
0
 10
53.939815255373162
 20
80.310551409179183
 30
0.0
 11
53.946935039283971
 21
81.111941108843084
 31
0.0
  0
LINE
  5
D3
  8
0
 10
54.87530331228033
 20
80.928061668987638
 30
0.0
 11
54.135604973505771
 21
81.236481042024693
 31
0.0
  0
LINE
  5
D4
  8
0
 10
54.87530331228033
 20
80.928061668987638
 30
0.0
 11
54.810558415194102
 21
81.72686342183475
 31
0.0
  0
LINE
  5
D5
  8
0
 10
55.75167217636934
 20
81.626942516943686
 30
0.0
 11
54.987305146187452
 21
81.867814236373917
 31
0.0
  0
LINE
  5
D6
  8
0
 10
55.75167217636934
 20
81.626942516943686
 30
0.0
 11
55.615583886127979
 21
82.416724840947992
 31
0.0
  0
LINE
  5
D7
  8
0
 10
56.561865840843268
 20
82.401566975394971
 30
0.0
 11
56.355529860341171
 21
83.175971007667954
 31
0.0
  0
LINE
  5
D8
  8
0
 10
56.561865840843268
 20
82.401566975394971
 30
0.0
 11
55.77898435314043
 21
82.572951683763776
 31
0.0
  0
LINE
  5
D9
  8
0
 10
51.922024911954907
 20
79.338834793713986
 30
0.0
 11
51.291034102372237
 21
79.832926627559203
 31
0.0
  0
LINE
  5
DA
  8
0
 10
51.922024911954907
 20
79.338834793713986
 30
0.0
 11
52.072123934304841
 21
80.126074544704792
 31
0.0
  0
LINE
  5
DB
  8
0
 10
52.95274000542409
 20
79.779383567040199
 30
0.0
 11
52.279999328811932
 21
80.214924752327519
 31
0.0
  0
LINE
  5
DC
  8
0
 10
52.95274000542409
 20
79.779383567040199
 30
0.0
 11
53.031667146018322
 21
80.576908894868879
 31
0.0
  0
LINE
  5
DD
  8
0
 10
41.125369048688917
 20
80.310551409179183
 30
0.0
 11
41.118249264778107
 21
81.111941108843084
 31
0.0
  0
LINE
  5
DE
  8
0
 10
41.125369048688917
 20
80.310551409179183
 30
0.0
 11
41.834443079967819
 21
80.684035224378803
 31
0.0
  0
LINE
  5
DF
  8
0
 10
35.353630476323758
 20
88.254668029868725
 30
0.0
 11
36.113597238056229
 21
88.000253676672514
 31
0.0
  0
LINE
  5
E0
  8
0
 10
35.651835925174602
 20
94.894728261444001
 30
0.0
 11
36.43154881094663
 21
95.079995521939566
 31
0.0
  0
LINE
  5
E1
  8
0
 10
35.651835925174602
 20
94.894728261444001
 30
0.0
 11
36.173739537045321
 21
94.286540163922652
 31
0.0
  0
LINE
  5
E2
  8
0
 10
35.353630476323758
 20
93.814205084524573
 30
0.0
 11
36.113597238056229
 21
94.068619437720784
 31
0.0
  0
LINE
  5
E3
  8
0
 10
35.353630476323758
 20
93.814205084524573
 30
0.0
 11
35.927950618435347
 21
93.255248452561744
 31
0.0
  0
LINE
  5
E4
  8
0
 10
35.153482865772112
 20
92.711300845900325
 30
0.0
 11
35.887584697952981
 21
93.032813897018585
 31
0.0
  0
LINE
  5
E5
  8
0
 10
35.153482865772112
 20
92.711300845900325
 30
0.0
 11
35.775595450035127
 21
92.206076069635472
 31
0.0
  0
LINE
  5
E6
  8
0
 10
35.053004564395167
 20
91.594895482003906
 30
0.0
 11
35.755330910716367
 21
91.980918597002912
 31
0.0
  0
LINE
  5
E7
  8
0
 10
35.053004564395167
 20
91.594895482003906
 30
0.0
 11
35.717900706077359
 21
91.147470334268021
 31
0.0
  0
LINE
  5
E8
  8
0
 10
35.053004564395167
 20
90.473977632389264
 30
0.0
 11
35.717900706077359
 21
90.921402780125291
 31
0.0
  0
LINE
  5
E9
  8
0
 10
35.053004564395167
 20
90.473977632389264
 30
0.0
 11
35.755330910716367
 21
90.087954517390244
 31
0.0
  0
LINE
  5
EA
  8
0
 10
35.153482865772112
 20
89.357572268492831
 30
0.0
 11
35.775595450035127
 21
89.862797044757684
 31
0.0
  0
LINE
  5
EB
  8
0
 10
35.153482865772112
 20
89.357572268492831
 30
0.0
 11
35.887584697952981
 21
89.036059217374714
 31
0.0
  0
LINE
  5
EC
  8
0
 10
35.353630476323758
 20
88.254668029868725
 30
0.0
 11
35.927950618435347
 21
88.813624661831554
 31
0.0
  0
LINE
  5
ED
  8
0
 10
40.189880991781763
 20
80.928061668987638
 30
0.0
 11
40.254625888867977
 21
81.72686342183475
 31
0.0
  0
LINE
  5
EE
  8
0
 10
35.651835925174602
 20
87.174144852949155
 30
0.0
 11
36.173739537045321
 21
87.782332950470504
 31
0.0
  0
LINE
  5
EF
  8
0
 10
35.651835925174602
 20
87.174144852949155
 30
0.0
 11
36.431548810946481
 21
86.988877592453591
 31
0.0
  0
LINE
  5
F0
  8
0
 10
36.045698237392429
 20
86.124702475017543
 30
0.0
 11
36.51098325801388
 21
86.777225265144935
 31
0.0
  0
LINE
  5
F1
  8
0
 10
36.045698237392429
 20
86.124702475017543
 30
0.0
 11
36.83887945751141
 21
86.010073970268834
 31
0.0
  0
LINE
  5
F2
  8
0
 10
36.532046265226832
 20
85.114790389038646
 30
0.0
 11
36.936966493196081
 21
85.806394141943301
 31
0.0
  0
LINE
  5
F3
  8
0
 10
36.532046265226832
 20
85.114790389038646
 30
0.0
 11
37.332309590891441
 21
85.071723561356464
 31
0.0
  0
LINE
  5
F4
  8
0
 10
37.10696422032558
 20
84.152539813310256
 30
0.0
 11
37.448259476056222
 21
84.877656142229995
 31
0.0
  0
LINE
  5
F5
  8
0
 10
37.10696422032558
 20
84.152539813310256
 30
0.0
 11
37.907866401784702
 21
84.181381411468195
 31
0.0
  0
LINE
  5
F6
  8
0
 10
37.765823201360462
 20
83.245698223673855
 30
0.0
 11
38.040745576131663
 21
83.998488918289866
 31
0.0
  0
LINE
  5
F7
  8
0
 10
37.765823201360462
 20
83.245698223673855
 30
0.0
 11
38.560915845171913
 21
83.346216032082125
 31
0.0
  0
LINE
  5
F8
  8
0
 10
38.50331846321896
 20
82.401566975394971
 30
0.0
 11
38.709654443720922
 21
83.175971007667954
 31
0.0
  0
LINE
  5
F9
  8
0
 10
38.50331846321896
 20
82.401566975394971
 30
0.0
 11
39.286199950921663
 21
82.572951683763776
 31
0.0
  0
LINE
  5
FA
  8
0
 10
39.313512127692753
 20
81.626942516943686
 30
0.0
 11
39.449600417934107
 21
82.416724840947992
 31
0.0
  0
LINE
  5
FB
  8
0
 10
39.313512127692753
 20
81.626942516943686
 30
0.0
 11
40.077879157874627
 21
81.867814236373917
 31
0.0
  0
LINE
  5
FC
  8
0
 10
40.189880991781763
 20
80.928061668987638
 30
0.0
 11
40.929579330556322
 21
81.236481042024693
 31
0.0
  0
LINE
  5
FD
  8
0
 10
46.412802992103671
 20
78.5925599784333
 30
0.0
 11
46.058678329073381
 21
79.311497990423263
 31
0.0
  0
LINE
  5
FE
  8
0
 10
46.412802992103671
 20
78.5925599784333
 30
0.0
 11
46.889608065085348
 21
79.236712960596137
 31
0.0
  0
LINE
  5
FF
  8
0
 10
47.532592152031043
 20
78.542270189273367
 30
0.0
 11
47.115447984244007
 21
79.226570478131848
 31
0.0
  0
LINE
  5
100
  8
0
 10
47.532592152031043
 20
78.542270189273367
 30
0.0
 11
47.949736319818207
 21
79.226570478131848
 31
0.0
  0
LINE
  5
101
  8
0
 10
48.652381311958408
 20
78.5925599784333
 30
0.0
 11
48.175576238976731
 21
79.236712960596137
 31
0.0
  0
LINE
  5
102
  8
0
 10
48.652381311958408
 20
78.5925599784333
 30
0.0
 11
49.006505974988698
 21
79.311497990423263
 31
0.0
  0
LINE
  5
103
  8
0
 10
49.763154587995359
 20
78.743024442100349
 30
0.0
 11
49.230527563909902
 21
79.341843776511254
 31
0.0
  0
LINE
  5
104
  8
0
 10
49.763154587995359
 20
78.743024442100349
 30
0.0
 11
50.05140854270411
 21
79.490811711078123
 31
0.0
  0
LINE
  5
105
  8
0
 10
50.85596868684749
 20
78.992452128884779
 30
0.0
 11
50.271808111276528
 21
79.541116474363136
 31
0.0
  0
LINE
  5
106
  8
0
 10
42.112444298637989
 20
79.779383567040199
 30
0.0
 11
42.785184975250303
 21
80.214924752327519
 31
0.0
  0
LINE
  5
107
  8
0
 10
43.143159392107172
 20
79.338834793713986
 30
0.0
 11
42.993060369757238
 21
80.126074544704792
 31
0.0
  0
LINE
  5
108
  8
0
 10
43.143159392107172
 20
79.338834793713986
 30
0.0
 11
43.774150201689842
 21
79.832926627559203
 31
0.0
  0
LINE
  5
109
  8
0
 10
44.209215617214731
 20
78.992452128884779
 30
0.0
 11
43.989153222180327
 21
79.763067911452396
 31
0.0
  0
LINE
  5
10A
  8
0
 10
44.209215617214731
 20
78.992452128884779
 30
0.0
 11
44.793376192785551
 21
79.541116474363136
 31
0.0
  0
LINE
  5
10B
  8
0
 10
45.30202971606672
 20
78.743024442100349
 30
0.0
 11
45.013775761357969
 21
79.490811711077967
 31
0.0
  0
LINE
  5
10C
  8
0
 10
45.30202971606672
 20
78.743024442100349
 30
0.0
 11
45.834656740152177
 21
79.341843776511254
 31
0.0
  0
LINE
  5
10D
  8
0
 10
42.112444298637989
 20
79.779383567040199
 30
0.0
 11
42.033517158043757
 21
80.576908894868694
 31
0.0
  0
LINE
  5
10E
  8
0
 10
50.85596868684749
 20
78.992452128884779
 30
0.0
 11
51.076031081881901
 21
79.763067911452396
 31
0.0
  0
LINE
  5
10F
  8
1
 10
32.032137617066809
 20
91.034436557196656
 30
0.0
 11
63.169760343325862
 21
91.034436557196656
 31
0.0
  0
CIRCLE
  5
110
  8
0
 10
47.532592152031043
 20
91.034436557196656
 30
0.0
 40
12.4921663679232
  0
CIRCLE
  5
111
  8
0
 10
47.532592152031043
 20
91.034436557196656
 30
0.0
 40
11.815232143206041
  0
LINE
  5
112
  8
0
 10
36.045698237392429
 20
95.944170639375756
 30
0.0
 11
36.51098325801388
 21
95.291647849248236
 31
0.0
  0
LINE
  5
113
  8
0
 10
59.019486066669657
 20
95.944170639375756
 30
0.0
 11
58.554201046048213
 21
95.291647849248236
 31
0.0
  0
LINE
  5
114
  8
1
 10
47.532592152031043
 20
74.127180250984892
 30
0.0
 11
47.532592152031043
 21
106.99867194139109
 31
0.0
  0
LINE
  5
115
  8
1
 10
47.532592152031043
 20
27.215315729988578
 30
0.0
 11
47.532592152031043
 21
55.016274867590042
 31
0.0
  0
LINE
  5
116
  8
0
 10
51.532592152031128
 20
30.018665061662151
 30
0.0
 11
43.532592152030979
 21
30.018665061662151
 31
0.0
  0
LINE
  5
117
  8
0
 10
43.532592152030979
 20
30.218665061662151
 30
0.0
 11
43.532592152030979
 21
30.018665061662151
 31
0.0
  0
LINE
  5
119
  8
0
 10
51.532592152031107
 20
30.218665061662151
 30
0.0
 11
51.532592152031107
 21
30.018665061662151
 31
0.0
  0
TEXT
  5
2DE
  8
0
 62
     3
 10
0.0
 20
0.0
 30
0.0
 40
10.0
  1
EKK25-LB
  7
STANDARD1
  0
ENDSEC
  0
EOF
