  0
SECTION
  2
HEADER
  9
$ACADVER
  1
AC1009
  9
$INSBASE
 10
0.0
 20
0.0
 30
0.0
  9
$EXTMIN
 10
0.0
 20
-2.960436562073669
 30
0.0
  9
$EXTMAX
 10
460.48303102710969
 20
251.2585785948809
 30
0.0
  9
$LIMMIN
 10
0.0
 20
0.0
  9
$LIMMAX
 10
750.0
 20
540.0
  9
$ORTHOMODE
 70
     0
  9
$REGENMODE
 70
     1
  9
$FILLMODE
 70
     1
  9
$QTEXTMODE
 70
     0
  9
$MIRRTEXT
 70
     0
  9
$DRAGMODE
 70
     2
  9
$LTSCALE
 40
10.0
  9
$OSMODE
 70
  3071
  9
$ATTMODE
 70
     1
  9
$TEXTSIZE
 40
0.2
  9
$TRACEWID
 40
0.05
  9
$TEXTSTYLE
  7
STANDARD
  9
$CLAYER
  8
0
  9
$CELTYPE
  6
BYLAYER
  9
$CECOLOR
 62
   256
  9
$DIMSCALE
 40
2.0
  9
$DIMASZ
 40
3.0
  9
$DIMEXO
 40
2.0
  9
$DIMDLI
 40
0.38
  9
$DIMRND
 40
0.0
  9
$DIMDLE
 40
0.0
  9
$DIMEXE
 40
2.0
  9
$DIMTP
 40
0.0
  9
$DIMTM
 40
0.0
  9
$DIMTXT
 40
3.2000000000000002
  9
$DIMCEN
 40
0.0
  9
$DIMTSZ
 40
0.0
  9
$DIMTOL
 70
     0
  9
$DIMLIM
 70
     0
  9
$DIMTIH
 70
     0
  9
$DIMTOH
 70
     0
  9
$DIMSE1
 70
     0
  9
$DIMSE2
 70
     0
  9
$DIMTAD
 70
     1
  9
$DIMZIN
 70
     0
  9
$DIMBLK
  1

  9
$DIMASO
 70
     0
  9
$DIMSHO
 70
     0
  9
$DIMPOST
  1

  9
$DIMAPOST
  1

  9
$DIMALT
 70
     0
  9
$DIMALTD
 70
     2
  9
$DIMALTF
 40
25.399999999999999
  9
$DIMLFAC
 40
1.0
  9
$DIMTOFL
 70
     1
  9
$DIMTVP
 40
1.6000000000000001
  9
$DIMTIX
 70
     1
  9
$DIMSOXD
 70
     0
  9
$DIMSAH
 70
     0
  9
$DIMBLK1
  1

  9
$DIMBLK2
  1

  9
$DIMSTYLE
  2
STANDARD
  9
$DIMCLRD
 70
     0
  9
$DIMCLRE
 70
     0
  9
$DIMCLRT
 70
     0
  9
$DIMTFAC
 40
1.0
  9
$DIMGAP
 40
0.09
  9
$LUNITS
 70
     2
  9
$LUPREC
 70
     4
  9
$SKETCHINC
 40
0.1
  9
$FILLETRAD
 40
0.0
  9
$AUNITS
 70
     0
  9
$AUPREC
 70
     4
  9
$MENU
  1
E:\r13\win\SUPPORT\ACAD
  9
$ELEVATION
 40
0.0
  9
$PELEVATION
 40
0.0
  9
$THICKNESS
 40
0.0
  9
$LIMCHECK
 70
     0
  9
$BLIPMODE
 70
     0
  9
$CHAMFERA
 40
0.0
  9
$CHAMFERB
 40
0.0
  9
$SKPOLY
 70
     0
  9
$TDCREATE
 40
2449839.7768055559
  9
$TDUPDATE
 40
2456598.6600073269
  9
$TDINDWG
 40
0.0043566551
  9
$TDUSRTIMER
 40
0.0043566551
  9
$USRTIMER
 70
     1
  9
$ANGBASE
 50
0.0
  9
$ANGDIR
 70
     0
  9
$PDMODE
 70
     0
  9
$PDSIZE
 40
0.0
  9
$PLINEWID
 40
0.0
  9
$COORDS
 70
     1
  9
$SPLFRAME
 70
     0
  9
$SPLINETYPE
 70
     6
  9
$SPLINESEGS
 70
     8
  9
$ATTDIA
 70
     0
  9
$ATTREQ
 70
     1
  9
$HANDLING
 70
     1
  9
$HANDSEED
  5
18AE
  9
$SURFTAB1
 70
     6
  9
$SURFTAB2
 70
     6
  9
$SURFTYPE
 70
     6
  9
$SURFU
 70
     6
  9
$SURFV
 70
     6
  9
$UCSNAME
  2

  9
$UCSORG
 10
0.0
 20
0.0
 30
0.0
  9
$UCSXDIR
 10
1.0
 20
0.0
 30
0.0
  9
$UCSYDIR
 10
0.0
 20
1.0
 30
0.0
  9
$PUCSNAME
  2

  9
$PUCSORG
 10
0.0
 20
0.0
 30
0.0
  9
$PUCSXDIR
 10
1.0
 20
0.0
 30
0.0
  9
$PUCSYDIR
 10
0.0
 20
1.0
 30
0.0
  9
$USERI1
 70
     0
  9
$USERI2
 70
     1
  9
$USERI3
 70
     0
  9
$USERI4
 70
     0
  9
$USERI5
 70
     0
  9
$USERR1
 40
0.0
  9
$USERR2
 40
0.0
  9
$USERR3
 40
0.0
  9
$USERR4
 40
0.0
  9
$USERR5
 40
0.0
  9
$WORLDVIEW
 70
     1
  9
$SHADEDGE
 70
     3
  9
$SHADEDIF
 70
    70
  9
$TILEMODE
 70
     1
  9
$MAXACTVP
 70
    16
  9
$PLIMCHECK
 70
     0
  9
$PEXTMIN
 10
1.0000000000000000E+020
 20
1.0000000000000000E+020
 30
1.0000000000000000E+020
  9
$PEXTMAX
 10
-1.0000000000000000E+020
 20
-1.0000000000000000E+020
 30
-1.0000000000000000E+020
  9
$PLIMMIN
 10
0.0
 20
0.0
  9
$PLIMMAX
 10
12.0
 20
9.0
  9
$UNITMODE
 70
     0
  9
$VISRETAIN
 70
     0
  9
$PLINEGEN
 70
     0
  9
$PSLTSCALE
 70
     0
  0
ENDSEC
  0
SECTION
  2
TABLES
  0
TABLE
  2
VPORT
 70
     1
  0
VPORT
  2
*ACTIVE
 70
     0
 10
0.0
 20
0.0
 11
1.0
 21
1.0
 12
374.98855678130462
 22
340.90031900923282
 13
0.0
 23
0.0
 14
20.0
 24
20.0
 15
20.0
 25
20.0
 16
0.0
 26
0.0
 36
1.0
 17
0.0
 27
0.0
 37
0.0
 40
694.00739314055488
 41
1.831871345029239
 42
50.0
 43
0.0
 44
0.0
 50
0.0
 51
0.0
 71
     0
 72
   500
 73
     1
 74
     0
 75
     0
 76
     0
 77
     0
 78
     2
  0
ENDTAB
  0
TABLE
  2
LTYPE
 70
     5
  0
LTYPE
  2
CONTINUOUS
 70
     0
  3
Solid Line
 72
    65
 73
     0
 40
0.0
  0
LTYPE
  2
CENTER
 70
     0
  3
____ _ ____ _ ____ _ ____ _ ____ _ ____ _ ____
 72
    65
 73
     4
 40
2.0
 49
1.25
 49
-0.25
 49
0.25
 49
-0.25
  0
LTYPE
  2
HIDDEN
 70
     0
  3
_ _ _ _ _ _ _ _ _ _ _ _ _ _ _ _ _ _ _ _ _ _ _
 72
    65
 73
     2
 40
0.375
 49
0.25
 49
-0.125
  0
LTYPE
  2
PHANTOM
 70
     0
  3
_____ _ _ _____ _ _ _____ _ _ _____ _ _ ____
 72
    65
 73
     6
 40
2.5
 49
1.25
 49
-0.25
 49
0.25
 49
-0.25
 49
0.25
 49
-0.25
  0
LTYPE
  2
PHANTOM2
 70
     0
  3
___ _ _ ___ _ _ ___ _ _ ___ _ _
 72
    65
 73
     6
 40
1.25
 49
0.625
 49
-0.125
 49
0.125
 49
-0.125
 49
0.125
 49
-0.125
  0
ENDTAB
  0
TABLE
  2
LAYER
 70
     4
  0
LAYER
  2
0
 70
     0
 62
     7
  6
CONTINUOUS
  0
LAYER
  2
1
 70
     0
 62
     1
  6
CENTER
  0
LAYER
  2
2
 70
     0
 62
     2
  6
HIDDEN
  0
LAYER
  2
5
 70
     0
 62
     3
  6
PHANTOM
  0
ENDTAB
  0
TABLE
  2
STYLE
 70
     2
  0
STYLE
  2
STANDARD
 70
     0
 40
0.0
 41
1.0
 50
0.0
 71
     0
 42
0.2
  3
TXT
  4
BIGFONT
  0
STYLE
  2
STANDARD1
 70
     0
 40
0.0
 41
1.0
 50
0.0
 71
     0
 42
3.0
  3
txt
  4

  0
ENDTAB
  0
TABLE
  2
VIEW
 70
     1
  0
VIEW
  2
ALL
 70
     0
 40
540.0
 10
441.98319327731087
 20
270.0
 41
0.0
 11
0.0
 21
0.0
 31
1.0
 12
0.0
 22
0.0
 32
0.0
 42
0.0
 43
0.0
 44
0.0
 50
0.0
 71
     0
  0
ENDTAB
  0
TABLE
  2
UCS
 70
     0
  0
ENDTAB
  0
TABLE
  2
APPID
 70
     3
  0
APPID
  2
ACAD
 70
     0
  0
APPID
  2
ACAD_MLEADERVER
 70
     0
  0
APPID
  2
ACAD_NAV_VCDISPLAY
 70
     0
  0
ENDTAB
  0
TABLE
  2
DIMSTYLE
 70
     1
  0
DIMSTYLE
  2
STANDARD
 70
     0
  3

  4

  5

  6

  7

 40
1.0
 41
0.18
 42
0.0625
 43
0.38
 44
0.18
 45
0.0
 46
0.0
 47
0.0
 48
0.0
140
0.18
141
0.09
142
0.0
143
25.399999999999999
144
1.0
145
0.0
146
1.0
147
0.09
 71
     0
 72
     0
 73
     1
 74
     1
 75
     0
 76
     0
 77
     0
 78
     0
170
     0
171
     2
172
     0
173
     0
174
     0
175
     0
176
     0
177
     0
178
     0
  0
ENDTAB
  0
ENDSEC
  0
SECTION
  2
BLOCKS
  0
BLOCK
  8
0
  2
$MODEL_SPACE
 70
     0
 10
0.0
 20
0.0
 30
0.0
  3
$MODEL_SPACE
  1

  0
ENDBLK
  5
35E
  8
0
  0
BLOCK
 67
     1
  8
0
  2
$PAPER_SPACE
 70
     0
 10
0.0
 20
0.0
 30
0.0
  3
$PAPER_SPACE
  1

  0
ENDBLK
  5
35C
 67
     1
  8
0
  0
ENDSEC
  0
SECTION
  2
ENTITIES
  0
CIRCLE
  5
13BE
  8
0
 10
125.9830310271097
 20
194.75857859488079
 30
0.0
 40
14.000000000003119
  0
ARC
  5
13BF
  8
0
 10
150.54582662648909
 20
229.3218661577898
 30
0.0
 40
10.00963419551986
 50
126.47279270610029
 51
144.73566675257121
  0
ARC
  5
13C0
  8
0
 10
129.67578332143779
 20
244.07918446753979
 30
0.0
 40
15.55082650553156
 50
307.85738511621429
 51
324.73566675257132
  0
ARC
  5
13C1
  8
0
 10
125.9830310271097
 20
194.75857859488079
 30
0.0
 40
46.5
 50
62.166626448281349
 51
66.404802121732033
  0
ARC
  5
13C2
  8
0
 10
118.8491653315771
 20
236.5564222599713
 30
0.0
 40
10.00963419551986
 50
9.5500475274337813
 51
27.8129215738997
  0
ARC
  5
13C3
  8
0
 10
144.0553850692088
 20
240.79713420352741
 30
0.0
 40
15.55082650553155
 50
189.5500475274338
 51
206.4283273649211
  0
ARC
  5
13C4
  8
0
 10
135.52311540046949
 20
236.5564192413986
 30
0.0
 40
6.0228000000000002
 50
206.42832451912059
 51
307.85738047155002
  0
LINE
  5
13C5
  8
1
 10
125.9830310271097
 20
251.2585785948807
 30
0.0
 11
125.9830310271097
 21
138.2585785948807
 31
0.0
  0
LINE
  5
13C6
  8
1
 10
182.48303102710969
 20
194.75857859488079
 30
0.0
 11
69.483031027109746
 21
194.75857859488079
 31
0.0
  0
CIRCLE
  5
13C7
  8
0
 10
125.9830310271097
 20
194.75857859488079
 30
0.0
 40
21.000000000000188
  0
CIRCLE
  5
13C8
  8
5
 10
125.9830310271097
 20
194.75857859488079
 30
0.0
 40
42.805000000000021
  0
ARC
  5
13C9
  8
0
 10
152.7137534314204
 20
228.27784428352919
 30
0.0
 40
6.0228000000000002
 50
180.7140388048328
 51
282.14309475726043
  0
ARC
  5
13CA
  8
0
 10
162.24104003980281
 20
228.3965833750234
 30
0.0
 40
15.55082650553155
 50
163.8357618131455
 51
180.71404165063589
  0
ARC
  5
13CB
  8
0
 10
137.6910448240985
 20
235.51240280491979
 30
0.0
 40
10.00963419551986
 50
343.83576181314561
 51
2.0986358596183639
  0
ARC
  5
13CC
  8
0
 10
125.9830310271097
 20
194.75857859488079
 30
0.0
 40
46.5
 50
36.452340733986283
 51
40.690516407453657
  0
ARC
  5
13CD
  8
0
 10
150.70949477274729
 20
237.5926838591337
 30
0.0
 40
15.55082650553156
 50
282.14309940192368
 51
299.02138103827622
  0
ARC
  5
13CE
  8
0
 10
163.10979361479141
 20
215.2416270635816
 30
0.0
 40
10.00963419551986
 50
100.75850699181819
 51
119.0213810382762
  0
ARC
  5
13CF
  8
0
 10
164.61004405940091
 20
213.36036766920699
 30
0.0
 40
6.0228000000000002
 50
154.99975309055111
 51
256.4288090429668
  0
ARC
  5
13D0
  8
0
 10
173.2453516501339
 20
209.3336131567566
 30
0.0
 40
15.55082650553155
 50
138.1214760988675
 51
154.9997559363465
  0
ARC
  5
13D1
  8
0
 10
154.21400859476009
 20
226.39658865221631
 30
0.0
 40
10.00963419551986
 50
318.1214760988675
 51
336.38435014532638
  0
ARC
  5
13D2
  8
0
 10
125.9830310271097
 20
194.75857859488079
 30
0.0
 40
46.5
 50
10.73805501970353
 51
14.97623069316762
  0
ARC
  5
13D3
  8
0
 10
166.84582682905619
 20
222.62236337731579
 30
0.0
 40
15.55082650553156
 50
256.42881368763472
 51
273.3070953239897
  0
ARC
  5
13D4
  8
0
 10
168.3203499427413
 20
197.10446901204341
 30
0.0
 40
10.00963419551986
 50
75.044221277529104
 51
93.307095323989714
  0
ARC
  5
13D5
  8
0
 10
168.85578102710991
 20
194.75857859274291
 30
0.0
 40
6.0228000000000002
 50
129.28546737626471
 51
230.71452332868739
  0
ARC
  5
13D6
  8
0
 10
174.8887810267513
 20
187.38387859244199
 30
0.0
 40
15.55082650553155
 50
112.4071903845776
 51
129.2854702220591
  0
ARC
  5
13D7
  8
0
 10
165.14548102792989
 20
211.0144785929277
 30
0.0
 40
10.00963419551986
 50
292.40719038457758
 51
310.67006443103668
  0
ARC
  5
13D8
  8
0
 10
125.9830310271097
 20
194.75857859488079
 30
0.0
 40
46.5
 50
345.02376930541652
 51
349.2619449788786
  0
ARC
  5
13D9
  8
0
 10
174.88878102748711
 20
202.133278592442
 30
0.0
 40
15.55082650553156
 50
230.7145279733576
 51
247.59280960971529
  0
ARC
  5
13DA
  8
0
 10
165.14548102630849
 20
178.50267859292799
 30
0.0
 40
10.00963419551986
 50
49.329935563243637
 51
67.592809609715303
  0
ARC
  5
13DB
  8
0
 10
164.61004405754579
 20
176.1567895167021
 30
0.0
 40
6.0228000000000002
 50
103.5711816619748
 51
205.0002376143967
  0
ARC
  5
13DC
  8
0
 10
166.84582682627729
 20
166.89479380837039
 30
0.0
 40
15.55082650553155
 50
86.692904670294695
 51
103.5711845077807
  0
ARC
  5
13DD
  8
0
 10
168.32034994250739
 20
192.41268817349581
 30
0.0
 40
10.00963419551986
 50
266.69290467029458
 51
284.95577871675363
  0
ARC
  5
13DE
  8
0
 10
125.9830310271097
 20
194.75857859488079
 30
0.0
 40
46.5
 50
319.30948359112892
 51
323.54765926459203
  0
ARC
  5
13DF
  8
0
 10
173.2453516486805
 20
180.18354402829129
 30
0.0
 40
15.55082650553156
 50
205.0002422590689
 51
221.87852389542931
  0
ARC
  5
13E0
  8
0
 10
154.2140085916046
 20
163.12056853472961
 30
0.0
 40
10.00963419551986
 50
23.615649848956039
 51
41.878523895429353
  0
ARC
  5
13E1
  8
0
 10
152.7137534280773
 20
161.23931290356629
 30
0.0
 40
6.0228000000000002
 50
77.856895947696316
 51
179.2859519001143
  0
ARC
  5
13E2
  8
0
 10
150.7094947684752
 20
151.92447332816189
 30
0.0
 40
15.55082650553155
 50
60.978618956002741
 51
77.856898793495134
  0
ARC
  5
13E3
  8
0
 10
163.10979361274869
 20
174.27553012247711
 30
0.0
 40
10.00963419551986
 50
240.97861895600269
 51
259.24149300246643
  0
ARC
  5
13E4
  8
0
 10
125.9830310271097
 20
194.75857859488079
 30
0.0
 40
46.5
 50
293.59519787684633
 51
297.83337355030437
  0
ARC
  5
13E5
  8
0
 10
162.24104003644811
 20
161.12057381112211
 30
0.0
 40
15.55082650553156
 50
179.2859565447842
 51
196.16423818113731
  0
ARC
  5
13E6
  8
0
 10
137.69104482003399
 20
154.004754383674
 30
0.0
 40
10.00963419551986
 50
357.90136413467172
 51
16.164238181137289
  0
ARC
  5
13E7
  8
0
 10
135.52311539630091
 20
152.9607379474115
 30
0.0
 40
6.0228000000000002
 50
52.142610233410679
 51
153.57166618582309
  0
ARC
  5
13E8
  8
0
 10
129.67578331651899
 20
145.4379727218535
 30
0.0
 40
15.55082650553155
 50
35.264333241717971
 51
52.142613079210591
  0
ARC
  5
13E9
  8
0
 10
150.5458266230421
 20
160.19529102952191
 30
0.0
 40
10.00963419551986
 50
215.26433324171791
 51
233.52720728819421
  0
ARC
  5
13EA
  8
0
 10
125.9830310271097
 20
194.75857859488079
 30
0.0
 40
46.5
 50
267.8809121625643
 51
272.1190878360278
  0
ARC
  5
13EB
  8
0
 10
144.05538506461721
 20
148.72002298443169
 30
0.0
 40
15.55082650553156
 50
153.5716708304918
 51
170.44995246685261
  0
ARC
  5
13EC
  8
0
 10
118.8491653274086
 20
152.9607349305017
 30
0.0
 40
10.00963419551986
 50
332.18707842038282
 51
350.44995246685272
  0
ARC
  5
13ED
  8
0
 10
116.4429466537497
 20
152.96073794836289
 30
0.0
 40
6.0228000000000002
 50
26.428324519120679
 51
127.85738047155
  0
ARC
  5
13EE
  8
0
 10
107.9106769850102
 20
148.72002298623411
 30
0.0
 40
15.55082650553155
 50
9.5500475274337813
 51
26.42832736492112
  0
ARC
  5
13EF
  8
0
 10
133.11689672264191
 20
152.96073492979019
 30
0.0
 40
10.00963419551986
 50
189.5500475274338
 51
207.8129215738997
  0
ARC
  5
13F0
  8
0
 10
125.9830310271097
 20
194.75857859488079
 30
0.0
 40
46.5
 50
242.16662644828131
 51
246.40480212173199
  0
ARC
  5
13F1
  8
0
 10
122.2902787327814
 20
145.4379727222217
 30
0.0
 40
15.55082650553156
 50
127.8573851162142
 51
144.73566675257121
  0
ARC
  5
13F2
  8
0
 10
101.42023542773011
 20
160.19529103197169
 30
0.0
 40
10.00963419551986
 50
306.47279270610028
 51
324.73566675257132
  0
ARC
  5
13F3
  8
0
 10
99.252308622799106
 20
161.2393129062323
 30
0.0
 40
6.0228000000000002
 50
0.7140388048393245
 51
102.1430947572603
  0
ARC
  5
13F4
  8
0
 10
89.725022014416467
 20
161.12057381473809
 30
0.0
 40
15.55082650553155
 50
343.83576181314561
 51
0.7140416506359194
  0
ARC
  5
13F5
  8
0
 10
114.2750172301207
 20
154.0047543848417
 30
0.0
 40
10.00963419551986
 50
163.8357618131455
 51
182.0986358596183
  0
ARC
  5
13F6
  8
0
 10
125.9830310271097
 20
194.75857859488079
 30
0.0
 40
46.5
 50
216.45234073398629
 51
220.6905164074536
  0
ARC
  5
13F7
  8
0
 10
101.2565672814719
 20
151.92447333062779
 30
0.0
 40
15.55082650553156
 50
102.14309940192371
 51
119.0213810382762
  0
ARC
  5
13F8
  8
0
 10
88.856268439427822
 20
174.27553012617989
 30
0.0
 40
10.00963419551986
 50
280.75850699181819
 51
299.02138103827622
  0
ARC
  5
13F9
  8
0
 10
87.356017994818316
 20
176.1567895205545
 30
0.0
 40
6.0228000000000002
 50
334.99975309055122
 51
76.428809042966833
  0
ARC
  5
13FA
  8
0
 10
78.720710404085125
 20
180.18354403300481
 30
0.0
 40
15.55082650553155
 50
318.1214760988675
 51
334.99975593634662
  0
ARC
  5
13FB
  8
0
 10
97.752053459459376
 20
163.12056853754521
 30
0.0
 40
10.00963419551986
 50
138.1214760988675
 51
156.38435014532649
  0
ARC
  5
13FC
  8
0
 10
125.9830310271097
 20
194.75857859488079
 30
0.0
 40
46.5
 50
190.73805501970349
 51
194.97623069316759
  0
ARC
  5
13FD
  8
0
 10
85.120235225163242
 20
166.8947938124457
 30
0.0
 40
15.55082650553156
 50
76.428813687634744
 51
93.307095323989714
  0
ARC
  5
13FE
  8
0
 10
83.645712111477906
 20
192.41268817771811
 30
0.0
 40
10.00963419551986
 50
255.04422127752909
 51
273.3070953239897
  0
ARC
  5
13FF
  8
0
 10
83.110281027109295
 20
194.75857859701861
 30
0.0
 40
6.0228000000000002
 50
309.28546737626471
 51
50.714523328687363
  0
ARC
  5
1400
  8
0
 10
77.077281027467734
 20
202.1332785973195
 30
0.0
 40
15.55082650553155
 50
292.40719038457758
 51
309.28547022205908
  0
ARC
  5
1401
  8
0
 10
86.820581026289574
 20
178.50267859683379
 30
0.0
 40
10.00963419551986
 50
112.4071903845776
 51
130.67006443103671
  0
ARC
  5
1402
  8
0
 10
125.9830310271097
 20
194.75857859488079
 30
0.0
 40
46.5
 50
165.02376930541641
 51
169.2619449788786
  0
ARC
  5
1403
  8
0
 10
77.077281026732393
 20
187.38387859731949
 30
0.0
 40
15.55082650553156
 50
50.714527973357548
 51
67.592809609715303
  0
ARC
  5
1404
  8
0
 10
86.820581027910734
 20
211.01447859683341
 30
0.0
 40
10.00963419551986
 50
229.32993556324359
 51
247.59280960971529
  0
ARC
  5
1405
  8
0
 10
87.356017996673486
 20
213.36036767305939
 30
0.0
 40
6.0228000000000002
 50
283.57118166197489
 51
25.000237614396671
  0
ARC
  5
1406
  8
0
 10
85.120235227942203
 20
222.6223633813911
 30
0.0
 40
15.55082650553155
 50
266.69290467029458
 51
283.5711845077808
  0
ARC
  5
1407
  8
0
 10
83.645712111711859
 20
197.10446901626571
 30
0.0
 40
10.00963419551986
 50
86.692904670294695
 51
104.9557787167535
  0
ARC
  5
1408
  8
0
 10
125.9830310271097
 20
194.75857859488079
 30
0.0
 40
46.5
 50
139.3094835911289
 51
143.547659264592
  0
ARC
  5
1409
  8
0
 10
78.720710405538966
 20
209.3336131614702
 30
0.0
 40
15.55082650553156
 50
25.000242259068909
 51
41.878523895429353
  0
ARC
  5
140A
  8
0
 10
97.752053462614654
 20
226.39658865503179
 30
0.0
 40
10.00963419551986
 50
203.615649848956
 51
221.87852389542931
  0
ARC
  5
140B
  8
0
 10
99.252308626141939
 20
228.2778442861952
 30
0.0
 40
6.0228000000000002
 50
257.85689594769627
 51
359.2859519001143
  0
ARC
  5
140C
  8
0
 10
101.2565672857438
 20
237.5926838615996
 30
0.0
 40
15.55082650553155
 50
240.97861895600269
 51
257.85689879349508
  0
ARC
  5
140D
  8
0
 10
88.856268441470533
 20
215.24162706728441
 30
0.0
 40
10.00963419551986
 50
60.978618956002741
 51
79.241493002466427
  0
ARC
  5
140E
  8
0
 10
125.9830310271097
 20
194.75857859488079
 30
0.0
 40
46.5
 50
113.5951978768463
 51
117.8333735503044
  0
ARC
  5
140F
  8
0
 10
89.725022017771366
 20
228.39658337863941
 30
0.0
 40
15.55082650553156
 50
359.2859565447842
 51
16.164238181137289
  0
ARC
  5
1410
  8
0
 10
114.2750172341852
 20
235.51240280608741
 30
0.0
 40
10.00963419551986
 50
177.9013641346717
 51
196.16423818113731
  0
ARC
  5
1411
  8
0
 10
116.4429466579183
 20
236.55641924234999
 30
0.0
 40
6.0228000000000002
 50
232.14261023341069
 51
333.57166618582312
  0
ARC
  5
1412
  8
0
 10
122.29027873770021
 20
244.07918446790799
 30
0.0
 40
15.55082650553155
 50
215.26433324171791
 51
232.14261307921061
  0
ARC
  5
1413
  8
0
 10
101.4202354311771
 20
229.32186616023949
 30
0.0
 40
10.00963419551986
 50
35.264333241717971
 51
53.527207288194241
  0
ARC
  5
1414
  8
0
 10
125.9830310271097
 20
194.75857859488079
 30
0.0
 40
46.5
 50
87.880912162564272
 51
92.119087836027774
  0
ARC
  5
1415
  8
0
 10
107.9106769896018
 20
240.7971342053298
 30
0.0
 40
15.55082650553156
 50
333.57167083049183
 51
350.44995246685272
  0
ARC
  5
1416
  8
0
 10
133.11689672681061
 20
236.55642225925979
 30
0.0
 40
10.00963419551986
 50
152.18707842038279
 51
170.44995246685261
  0
CIRCLE
  5
1417
  8
0
 10
125.9830310271097
 20
194.75857859488079
 30
0.0
 40
7.5
  0
CIRCLE
  5
1418
  8
0
 10
403.98303102710969
 20
194.75857859488079
 30
0.0
 40
27.50000000000006
  0
CIRCLE
  5
1419
  8
0
 10
403.98303102710969
 20
194.75857859488079
 30
0.0
 40
17.50000000000307
  0
CIRCLE
  5
141A
  8
0
 10
403.98303102710969
 20
194.75857859488079
 30
0.0
 40
7.5
  0
ARC
  5
141B
  8
0
 10
396.84916532740891
 20
236.55642225925979
 30
0.0
 40
10.00963419551986
 50
9.5500475331473513
 51
27.812921579617178
  0
ARC
  5
141C
  8
0
 10
422.05538506461761
 20
240.7971342053298
 30
0.0
 40
15.55082650553156
 50
189.55004753314731
 51
206.42832916950749
  0
ARC
  5
141D
  8
0
 10
403.98303102710969
 20
194.75857859488079
 30
0.0
 40
46.5
 50
87.880912163972212
 51
92.119087837435714
  0
ARC
  5
141E
  8
0
 10
428.54582662304227
 20
229.32186616023949
 30
0.0
 40
10.00963419551986
 50
126.4727927118057
 51
144.73566675828201
  0
ARC
  5
141F
  8
0
 10
407.6757833165193
 20
244.07918446790799
 30
0.0
 40
15.55082650553155
 50
307.85738692078939
 51
324.73566675828198
  0
ARC
  5
1420
  8
0
 10
413.52311539630108
 20
236.55641924234999
 30
0.0
 40
6.0228000000000002
 50
206.42833381417691
 51
307.85738976658939
  0
ARC
  5
1421
  8
0
 10
415.69104482003422
 20
235.51240280608741
 30
0.0
 40
10.00963419551986
 50
343.83576181886269
 51
2.0986358653282671
  0
ARC
  5
1422
  8
0
 10
440.241040036448
 20
228.39658337863941
 30
0.0
 40
15.55082650553156
 50
163.83576181886269
 51
180.71404345521569
  0
ARC
  5
1423
  8
0
 10
403.98303102710969
 20
194.75857859488079
 30
0.0
 40
46.5
 50
62.166626449695613
 51
66.404802123153686
  0
ARC
  5
1424
  8
0
 10
441.10979361274889
 20
215.24162706728441
 30
0.0
 40
10.00963419551986
 50
100.7585069975335
 51
119.0213810439972
  0
ARC
  5
1425
  8
0
 10
428.70949476847568
 20
237.5926838615996
 30
0.0
 40
15.55082650553155
 50
282.14310120650481
 51
299.02138104399728
  0
ARC
  5
1426
  8
0
 10
430.71375342807761
 20
228.2778442861952
 30
0.0
 40
6.0228000000000002
 50
180.7140480998857
 51
282.14310405230373
  0
ARC
  5
1427
  8
0
 10
432.2140085916048
 20
226.39658865503179
 30
0.0
 40
10.00963419551986
 50
318.1214761045706
 51
336.38435015104398
  0
ARC
  5
1428
  8
0
 10
451.24535164868053
 20
209.3336131614702
 30
0.0
 40
15.55082650553156
 50
138.1214761045706
 51
154.9997577409311
  0
ARC
  5
1429
  8
0
 10
403.98303102710969
 20
194.75857859488079
 30
0.0
 40
46.5
 50
36.452340735407951
 51
40.690516408871119
  0
ARC
  5
142A
  8
0
 10
446.32034994250762
 20
197.10446901626571
 30
0.0
 40
10.00963419551986
 50
75.044221283246415
 51
93.307095329705319
  0
ARC
  5
142B
  8
0
 10
444.84582682627729
 20
222.6223633813911
 30
0.0
 40
15.55082650553155
 50
256.42881549221931
 51
273.30709532970531
  0
ARC
  5
142C
  8
0
 10
442.61004405754602
 20
213.36036767305939
 30
0.0
 40
6.0228000000000002
 50
154.9997623856033
 51
256.42881833802522
  0
ARC
  5
142D
  8
0
 10
443.14548102630869
 20
211.01447859683341
 30
0.0
 40
10.00963419551986
 50
292.40719039028471
 51
310.67006443675638
  0
ARC
  5
142E
  8
0
 10
452.88878102748708
 20
187.38387859731949
 30
0.0
 40
15.55082650553156
 50
112.4071903902847
 51
129.2854720266424
  0
ARC
  5
142F
  8
0
 10
403.98303102710969
 20
194.75857859488079
 30
0.0
 40
46.5
 50
10.73805502112142
 51
14.97623069458353
  0
ARC
  5
1430
  8
0
 10
443.14548102792992
 20
178.50267859683379
 30
0.0
 40
10.00963419551986
 50
49.329935568963251
 51
67.592809615422397
  0
ARC
  5
1431
  8
0
 10
452.88878102675181
 20
202.1332785973195
 30
0.0
 40
15.55082650553155
 50
230.7145297779409
 51
247.5928096154224
  0
ARC
  5
1432
  8
0
 10
446.8557810271102
 20
194.75857859701861
 30
0.0
 40
6.0228000000000002
 50
129.28547667131261
 51
230.71453262373529
  0
ARC
  5
1433
  8
0
 10
446.32034994274147
 20
192.41268817771811
 30
0.0
 40
10.00963419551986
 50
266.6929046760103
 51
284.95577872247088
  0
ARC
  5
1434
  8
0
 10
444.84582682905619
 20
166.8947938124457
 30
0.0
 40
15.55082650553156
 50
86.692904676010286
 51
103.5711863123652
  0
ARC
  5
1435
  8
0
 10
403.98303102710969
 20
194.75857859488079
 30
0.0
 40
46.5
 50
345.02376930683238
 51
349.26194498029571
  0
ARC
  5
1436
  8
0
 10
432.21400859476012
 20
163.12056853754521
 30
0.0
 40
10.00963419551986
 50
23.615649854673549
 51
41.878523901132461
  0
ARC
  5
1437
  8
0
 10
451.2453516501343
 20
180.18354403300481
 30
0.0
 40
15.55082650553155
 50
205.00024406365341
 51
221.87852390113241
  0
ARC
  5
1438
  8
0
 10
442.6100440594011
 20
176.1567895205545
 30
0.0
 40
6.0228000000000002
 50
103.5711909570331
 51
205.0002469094488
  0
ARC
  5
1439
  8
0
 10
441.10979361479173
 20
174.27553012617989
 30
0.0
 40
10.00963419551986
 50
240.9786189617237
 51
259.24149300818181
  0
ARC
  5
143A
  8
0
 10
428.70949477274752
 20
151.92447333062779
 30
0.0
 40
15.55082650553156
 50
60.978618961723782
 51
77.856900598076265
  0
ARC
  5
143B
  8
0
 10
403.98303102710969
 20
194.75857859488079
 30
0.0
 40
46.5
 50
319.30948359254643
 51
323.5476592660138
  0
ARC
  5
143C
  8
0
 10
415.6910448240987
 20
154.0047543848417
 30
0.0
 40
10.00963419551986
 50
357.90136414038159
 51
16.16423818685448
  0
ARC
  5
143D
  8
0
 10
440.2410400398029
 20
161.12057381473809
 30
0.0
 40
15.55082650553155
 50
179.28595834936411
 51
196.1642381868545
  0
ARC
  5
143E
  8
0
 10
430.7137534314204
 20
161.2393129062323
 30
0.0
 40
6.0228000000000002
 50
77.856905242739614
 51
179.28596119516061
  0
ARC
  5
143F
  8
0
 10
428.54582662648932
 20
160.19529103197169
 30
0.0
 40
10.00963419551986
 50
215.26433324742871
 51
233.52720729389961
  0
ARC
  5
1440
  8
0
 10
407.67578332143802
 20
145.4379727222217
 30
0.0
 40
15.55082650553156
 50
35.264333247428738
 51
52.142614883785747
  0
ARC
  5
1441
  8
0
 10
403.98303102710969
 20
194.75857859488079
 30
0.0
 40
46.5
 50
293.59519787826798
 51
297.83337355171858
  0
ARC
  5
1442
  8
0
 10
396.84916533157752
 20
152.96073492979019
 30
0.0
 40
10.00963419551986
 50
332.1870784261003
 51
350.44995247256622
  0
ARC
  5
1443
  8
0
 10
422.05538506920919
 20
148.72002298623411
 30
0.0
 40
15.55082650553155
 50
153.57167263507881
 51
170.4499524725662
  0
ARC
  5
1444
  8
0
 10
413.52311540046969
 20
152.96073794836289
 30
0.0
 40
6.0228000000000002
 50
52.14261952845002
 51
153.57167548087929
  0
ARC
  5
1445
  8
0
 10
411.11689672681081
 20
152.9607349305017
 30
0.0
 40
10.00963419551986
 50
189.55004753314731
 51
207.81292157961721
  0
ARC
  5
1446
  8
0
 10
385.91067698960228
 20
148.72002298443169
 30
0.0
 40
15.55082650553156
 50
9.5500475331473513
 51
26.428329169508149
  0
ARC
  5
1447
  8
0
 10
403.98303102710969
 20
194.75857859488079
 30
0.0
 40
46.5
 50
267.8809121639722
 51
272.1190878374357
  0
ARC
  5
1448
  8
0
 10
379.42023543117739
 20
160.19529102952191
 30
0.0
 40
10.00963419551986
 50
306.47279271180582
 51
324.73566675828198
  0
ARC
  5
1449
  8
0
 10
400.29027873770042
 20
145.4379727218535
 30
0.0
 40
15.55082650553155
 50
127.85738692078939
 51
144.73566675828201
  0
ARC
  5
144A
  8
0
 10
394.44294665791858
 20
152.9607379474115
 30
0.0
 40
6.0228000000000002
 50
26.42833381417692
 51
127.85738976658931
  0
ARC
  5
144B
  8
0
 10
392.2750172341855
 20
154.004754383674
 30
0.0
 40
10.00963419551986
 50
163.83576181886269
 51
182.09863586532819
  0
ARC
  5
144C
  8
0
 10
367.72502201777138
 20
161.12057381112211
 30
0.0
 40
15.55082650553156
 50
343.83576181886269
 51
0.7140434552157638
  0
ARC
  5
144D
  8
0
 10
403.98303102710969
 20
194.75857859488079
 30
0.0
 40
46.5
 50
242.1666264496956
 51
246.4048021231537
  0
ARC
  5
144E
  8
0
 10
366.85626844147077
 20
174.27553012247711
 30
0.0
 40
10.00963419551986
 50
280.75850699753357
 51
299.02138104399728
  0
ARC
  5
144F
  8
0
 10
379.25656728574432
 20
151.92447332816189
 30
0.0
 40
15.55082650553155
 50
102.1431012065048
 51
119.0213810439972
  0
ARC
  5
1450
  8
0
 10
377.25230862614222
 20
161.23931290356629
 30
0.0
 40
6.0228000000000002
 50
0.7140480998857063
 51
102.1431040523037
  0
ARC
  5
1451
  8
0
 10
375.75205346261492
 20
163.12056853472961
 30
0.0
 40
10.00963419551986
 50
138.1214761045706
 51
156.38435015104389
  0
ARC
  5
1452
  8
0
 10
356.72071040553902
 20
180.18354402829129
 30
0.0
 40
15.55082650553156
 50
318.1214761045706
 51
334.9997577409311
  0
ARC
  5
1453
  8
0
 10
403.98303102710969
 20
194.75857859488079
 30
0.0
 40
46.5
 50
216.45234073540789
 51
220.6905164088711
  0
ARC
  5
1454
  8
0
 10
361.6457121117121
 20
192.41268817349581
 30
0.0
 40
10.00963419551986
 50
255.0442212832464
 51
273.30709532970531
  0
ARC
  5
1455
  8
0
 10
363.1202352279422
 20
166.89479380837039
 30
0.0
 40
15.55082650553155
 50
76.428815492219243
 51
93.307095329705319
  0
ARC
  5
1456
  8
0
 10
365.3560179966737
 20
176.1567895167021
 30
0.0
 40
6.0228000000000002
 50
334.99976238560339
 51
76.428818338025167
  0
ARC
  5
1457
  8
0
 10
364.82058102791098
 20
178.50267859292799
 30
0.0
 40
10.00963419551986
 50
112.4071903902847
 51
130.67006443675629
  0
ARC
  5
1458
  8
0
 10
355.07728102673241
 20
202.133278592442
 30
0.0
 40
15.55082650553156
 50
292.40719039028471
 51
309.28547202664242
  0
ARC
  5
1459
  8
0
 10
403.98303102710969
 20
194.75857859488079
 30
0.0
 40
46.5
 50
190.7380550211214
 51
194.97623069458351
  0
ARC
  5
145A
  8
0
 10
364.82058102628957
 20
211.0144785929277
 30
0.0
 40
10.00963419551986
 50
229.32993556896329
 51
247.5928096154224
  0
ARC
  5
145B
  8
0
 10
355.07728102746819
 20
187.38387859244199
 30
0.0
 40
15.55082650553155
 50
50.714529777940889
 51
67.592809615422397
  0
ARC
  5
145C
  8
0
 10
361.11028102710952
 20
194.75857859274291
 30
0.0
 40
6.0228000000000002
 50
309.28547667131261
 51
50.714532623735288
  0
ARC
  5
145D
  8
0
 10
361.64571211147808
 20
197.10446901204341
 30
0.0
 40
10.00963419551986
 50
86.692904676010286
 51
104.9557787224709
  0
ARC
  5
145E
  8
0
 10
363.12023522516319
 20
222.62236337731579
 30
0.0
 40
15.55082650553156
 50
266.6929046760103
 51
283.57118631236523
  0
ARC
  5
145F
  8
0
 10
403.98303102710969
 20
194.75857859488079
 30
0.0
 40
46.5
 50
165.02376930683241
 51
169.2619449802956
  0
ARC
  5
1460
  8
0
 10
375.75205345945938
 20
226.39658865221631
 30
0.0
 40
10.00963419551986
 50
203.61564985467351
 51
221.87852390113241
  0
ARC
  5
1461
  8
0
 10
356.72071040408559
 20
209.3336131567566
 30
0.0
 40
15.55082650553155
 50
25.000244063653408
 51
41.878523901132461
  0
ARC
  5
1462
  8
0
 10
365.35601799481861
 20
213.36036766920699
 30
0.0
 40
6.0228000000000002
 50
283.5711909570332
 51
25.000246909448851
  0
ARC
  5
1463
  8
0
 10
366.85626843942799
 20
215.2416270635816
 30
0.0
 40
10.00963419551986
 50
60.978618961723782
 51
79.24149300818172
  0
ARC
  5
1464
  8
0
 10
379.25656728147209
 20
237.5926838591337
 30
0.0
 40
15.55082650553156
 50
240.9786189617237
 51
257.85690059807632
  0
ARC
  5
1465
  8
0
 10
403.98303102710969
 20
194.75857859488079
 30
0.0
 40
46.5
 50
139.30948359254629
 51
143.54765926601371
  0
ARC
  5
1466
  8
0
 10
392.27501723012102
 20
235.51240280491979
 30
0.0
 40
10.00963419551986
 50
177.90136414038159
 51
196.1642381868545
  0
ARC
  5
1467
  8
0
 10
367.72502201441671
 20
228.3965833750234
 30
0.0
 40
15.55082650553155
 50
359.28595834936408
 51
16.16423818685448
  0
ARC
  5
1468
  8
0
 10
377.25230862279909
 20
228.27784428352919
 30
0.0
 40
6.0228000000000002
 50
257.85690524273957
 51
359.2859611951672
  0
CIRCLE
  5
1469
  8
5
 10
403.98303102710969
 20
194.75857859488079
 30
0.0
 40
42.805000000000021
  0
CIRCLE
  5
146A
  8
0
 10
403.98303102710969
 20
194.75857859488079
 30
0.0
 40
21.000000000000188
  0
LINE
  5
146B
  8
1
 10
268.50805843826203
 20
151.9535785948807
 30
0.0
 11
248.1580036159574
 21
151.95357859488081
 31
0.0
  0
LINE
  5
146C
  8
1
 10
268.5080584382622
 20
237.56357859488079
 30
0.0
 11
248.1580036159576
 21
237.56357859488091
 31
0.0
  0
LINE
  5
146D
  8
2
 10
277.48303102710969
 20
173.7585785948809
 30
0.0
 11
273.48303102710969
 21
173.7585785948809
 31
0.0
  0
LINE
  5
146E
  8
2
 10
271.48303102710969
 20
173.7585785948809
 30
0.0
 11
271.48303102710969
 21
174.7585785948809
 31
0.0
  0
LINE
  5
146F
  8
2
 10
271.48303102710969
 20
174.7585785948809
 30
0.0
 11
273.48303102710969
 21
174.7585785948809
 31
0.0
  0
LINE
  5
1470
  8
2
 10
273.48303102710969
 20
174.7585785948809
 30
0.0
 11
273.48303102710969
 21
173.7585785948809
 31
0.0
  0
LINE
  5
1471
  8
2
 10
271.48303102710969
 20
173.7585785948809
 30
0.0
 11
252.48303102710969
 21
173.7585785948809
 31
0.0
  0
LINE
  5
1472
  8
2
 10
271.48303102710969
 20
215.7585785948809
 30
0.0
 11
252.48303102710969
 21
215.7585785948809
 31
0.0
  0
LINE
  5
1473
  8
2
 10
273.48303102710969
 20
214.7585785948809
 30
0.0
 11
273.48303102710969
 21
215.7585785948809
 31
0.0
  0
LINE
  5
1474
  8
2
 10
271.48303102710969
 20
214.7585785948809
 30
0.0
 11
273.48303102710969
 21
214.7585785948809
 31
0.0
  0
LINE
  5
1475
  8
2
 10
271.48303102710969
 20
215.7585785948809
 30
0.0
 11
271.48303102710969
 21
214.7585785948809
 31
0.0
  0
LINE
  5
1476
  8
2
 10
277.48303102710969
 20
215.7585785948809
 30
0.0
 11
273.48303102710969
 21
215.7585785948809
 31
0.0
  0
ARC
  5
1477
  8
0
 10
264.7830310271097
 20
166.65857859488079
 30
0.0
 40
0.6
 50
90.0
 51
180.0
  0
ARC
  5
1478
  8
0
 10
264.7830310271097
 20
222.85857859488081
 30
0.0
 40
0.6
 50
180.0
 51
270.0
  0
LINE
  5
1479
  8
1
 10
242.48303102711
 20
194.75857859488079
 30
0.0
 11
287.48303102710969
 21
194.75857859488079
 31
0.0
  0
LINE
  5
147A
  8
1
 10
258.33303102710988
 20
251.2585785948809
 30
0.0
 11
258.33303102710988
 21
138.25857859488079
 31
0.0
  0
ARC
  5
147B
  8
0
 10
272.7830310271097
 20
231.75857859488079
 30
0.0
 40
20.300000000000001
 50
152.096727175822
 51
180.0
  0
ARC
  5
147C
  8
0
 10
243.88303102710981
 20
231.75857859488079
 30
0.0
 40
20.300000000000001
 50
0.0
 51
27.903272824170621
  0
LINE
  5
147D
  8
0
 10
261.82293069238108
 20
241.25857859488079
 30
0.0
 11
254.8431313618384
 21
241.25857859488079
 31
0.0
  0
LINE
  5
147E
  8
0
 10
261.82293069238108
 20
148.25857859488079
 30
0.0
 11
254.8431313618384
 21
148.25857859488079
 31
0.0
  0
ARC
  5
147F
  8
0
 10
243.88303102710961
 20
157.7585785948807
 30
0.0
 40
20.300000000000001
 50
332.09672717582941
 51
0.0
  0
ARC
  5
1480
  8
0
 10
272.7830310271097
 20
157.75857859488079
 30
0.0
 40
20.300000000000001
 50
180.0
 51
207.90327282417789
  0
LINE
  5
1481
  8
0
 10
264.18303102710979
 20
157.7585785948807
 30
0.0
 11
264.18303102710979
 21
231.75857859488079
 31
0.0
  0
LINE
  5
1482
  8
0
 10
252.48303102710969
 20
231.75857859488079
 30
0.0
 11
252.48303102710969
 21
157.7585785948807
 31
0.0
  0
LINE
  5
1483
  8
0
 10
264.7830310271097
 20
222.25857859488079
 30
0.0
 11
276.68303102710979
 21
222.25857859488079
 31
0.0
  0
ARC
  5
1484
  8
0
 10
276.68303102710979
 20
221.45857859488069
 30
0.0
 40
0.8
 50
0.0
 51
90.0
  0
ARC
  5
1485
  8
0
 10
276.68303102710979
 20
168.0585785948808
 30
0.0
 40
0.8
 50
270.0
 51
0.0
  0
LINE
  5
1486
  8
0
 10
264.7830310271097
 20
167.25857859488079
 30
0.0
 11
276.68303102710979
 21
167.25857859488079
 31
0.0
  0
LINE
  5
1487
  8
0
 10
277.48303102710969
 20
221.45857859488069
 30
0.0
 11
277.48303102710969
 21
168.0585785948808
 31
0.0
  0
LINE
  5
1488
  8
1
 10
347.4830310271098
 20
194.75857859488079
 30
0.0
 11
460.48303102710969
 21
194.75857859488079
 31
0.0
  0
LINE
  5
1489
  8
1
 10
403.98303102710969
 20
251.2585785948807
 30
0.0
 11
403.98303102710969
 21
138.2585785948807
 31
0.0
  0
ARC
  5
148A
  8
0
 10
394.44294665374991
 20
236.5564192413986
 30
0.0
 40
6.0228000000000002
 50
232.14261952845001
 51
333.57167548087932
  0
ARC
  5
148B
  8
0
 10
385.9106769850107
 20
240.79713420352741
 30
0.0
 40
15.55082650553155
 50
333.57167263507893
 51
350.44995247256622
  0
ARC
  5
148C
  8
0
 10
411.11689672264242
 20
236.5564222599713
 30
0.0
 40
10.00963419551986
 50
152.1870784261003
 51
170.4499524725662
  0
ARC
  5
148D
  8
0
 10
403.98303102710969
 20
194.75857859488079
 30
0.0
 40
46.5
 50
113.5951978782679
 51
117.83337355171859
  0
ARC
  5
148E
  8
0
 10
400.29027873278159
 20
244.07918446753979
 30
0.0
 40
15.55082650553156
 50
215.26433324742871
 51
232.1426148837858
  0
ARC
  5
148F
  8
0
 10
379.4202354277304
 20
229.3218661577898
 30
0.0
 40
10.00963419551986
 50
35.264333247428738
 51
53.52720729389965
  0
LINE
  5
1490
  8
2
 10
253.48300751834199
 20
180.75857859488389
 30
0.0
 11
252.48300751834199
 21
179.75857859488389
 31
0.0
  0
LINE
  5
1491
  8
2
 10
259.4830310271098
 20
181.25857859488019
 30
0.0
 11
262.69174317963348
 21
181.25857859488019
 31
0.0
  0
ARC
  5
1492
  8
2
 10
260.48303102710969
 20
178.25857859488039
 30
0.0
 40
1.0
 50
180.0
 51
270.0
  0
LINE
  5
1493
  8
2
 10
270.48303102710969
 20
176.25857859488389
 30
0.0
 11
272.2330310271098
 21
176.25857859488389
 31
0.0
  0
LINE
  5
1494
  8
2
 10
267.27431887458602
 20
181.25857859488019
 30
0.0
 11
270.48303102710969
 21
181.25857859488019
 31
0.0
  0
ARC
  5
1495
  8
2
 10
269.48303102710969
 20
178.25857859488039
 30
0.0
 40
1.0
 50
270.0
 51
0.0
  0
LINE
  5
1496
  8
2
 10
259.4830310271098
 20
177.25857859488389
 30
0.0
 11
270.48303102710969
 21
177.25857859488389
 31
0.0
  0
LINE
  5
1497
  8
2
 10
259.4830310271098
 20
183.258578594884
 30
0.0
 11
262.69174317963348
 21
183.258578594884
 31
0.0
  0
ARC
  5
1498
  8
2
 10
260.48303102710969
 20
186.25857859488011
 30
0.0
 40
1.0
 50
90.0
 51
180.0
  0
LINE
  5
1499
  8
2
 10
267.27431887458602
 20
183.258578594884
 30
0.0
 11
270.48303102710969
 21
183.25857859488389
 31
0.0
  0
ARC
  5
149A
  8
2
 10
269.48303102710969
 20
186.25857859488011
 30
0.0
 40
1.0
 50
0.0
 51
90.0
  0
LINE
  5
149B
  8
2
 10
269.48303102710969
 20
187.25857859488011
 30
0.0
 11
260.48303102710969
 21
187.25857859488011
 31
0.0
  0
CIRCLE
  5
149C
  8
2
 10
264.98303102710969
 20
182.25857859488019
 30
0.0
 40
2.5
  0
LINE
  5
149D
  8
2
 10
253.48300751834199
 20
180.75857859488389
 30
0.0
 11
259.48303102710997
 21
180.75857859488389
 31
0.0
  0
ARC
  5
149E
  8
2
 10
260.48303102710969
 20
203.25857859488161
 30
0.0
 40
1.0
 50
180.0
 51
270.0
  0
ARC
  5
149F
  8
2
 10
269.48303102710969
 20
203.25857859488161
 30
0.0
 40
1.0
 50
270.0
 51
0.0
  0
LINE
  5
14A0
  8
2
 10
269.48303102710969
 20
202.25857859488161
 30
0.0
 11
260.48303102710969
 21
202.25857859488161
 31
0.0
  0
LINE
  5
14A1
  8
2
 10
276.4830545358775
 20
177.25857859488389
 30
0.0
 11
277.4830545358775
 21
176.68122832569421
 31
0.0
  0
LINE
  5
14A2
  8
2
 10
272.23303102710997
 20
177.25857859488389
 30
0.0
 11
276.4830545358775
 21
177.25857859488389
 31
0.0
  0
LINE
  5
14A3
  8
2
 10
253.48300751834199
 20
208.75857859488389
 30
0.0
 11
252.48300751834199
 21
209.75857859488389
 31
0.0
  0
LINE
  5
14A4
  8
2
 10
259.4830310271098
 20
206.25857859487769
 30
0.0
 11
262.69174317963348
 21
206.25857859487769
 31
0.0
  0
LINE
  5
14A5
  8
2
 10
259.4830310271098
 20
208.25857859488141
 30
0.0
 11
262.69174317963348
 21
208.25857859488141
 31
0.0
  0
ARC
  5
14A6
  8
2
 10
260.48303102710969
 20
211.2585785948811
 30
0.0
 40
1.0
 50
90.0
 51
180.0
  0
LINE
  5
14A7
  8
2
 10
267.27431887458602
 20
206.25857859487769
 30
0.0
 11
270.48303102710969
 21
206.25857859487769
 31
0.0
  0
LINE
  5
14A8
  8
2
 10
267.27431887458602
 20
208.25857859488141
 30
0.0
 11
270.48303102710969
 21
208.25857859488141
 31
0.0
  0
ARC
  5
14A9
  8
2
 10
269.48303102710969
 20
211.2585785948811
 30
0.0
 40
1.0
 50
0.0
 51
90.0
  0
LINE
  5
14AA
  8
2
 10
260.45283284565812
 20
207.25857859488141
 30
0.0
 11
269.51322920856143
 21
207.25857859488141
 31
0.0
  0
LINE
  5
14AB
  8
2
 10
259.48303102710997
 20
212.25857859488389
 30
0.0
 11
270.48303102710969
 21
212.25857859488389
 31
0.0
  0
LINE
  5
14AC
  8
2
 10
270.48303102710969
 20
213.25857859488389
 30
0.0
 11
272.2330310271098
 21
213.25857859488389
 31
0.0
  0
LINE
  5
14AD
  8
2
 10
253.48300751834199
 20
208.75857859488389
 30
0.0
 11
259.4830310271098
 21
208.75857859488389
 31
0.0
  0
LINE
  5
14AE
  8
2
 10
276.4830545358775
 20
212.2585785948778
 30
0.0
 11
277.4830545358775
 21
212.8359288640674
 31
0.0
  0
LINE
  5
14AF
  8
2
 10
272.23303102710997
 20
212.25857859488389
 30
0.0
 11
276.4830545358775
 21
212.25857859488389
 31
0.0
  0
LINE
  5
14B0
  8
2
 10
276.4830545358775
 20
212.25857859488389
 30
0.0
 11
276.4830545358775
 21
177.2585785948838
 31
0.0
  0
CIRCLE
  5
14B1
  8
2
 10
264.98303102710969
 20
207.25857859488141
 30
0.0
 40
2.5
  0
LINE
  5
14B2
  8
2
 10
270.48303102710969
 20
176.25857859488389
 30
0.0
 11
270.48303102710969
 21
213.25857859488389
 31
0.0
  0
LINE
  5
14B3
  8
2
 10
259.4830310271098
 20
177.25857859488389
 30
0.0
 11
259.48303102710997
 21
212.25857859488389
 31
0.0
  0
LINE
  5
14B4
  8
2
 10
272.2330310271098
 20
176.258578594884
 30
0.0
 11
272.2330310271098
 21
213.25857859488389
 31
0.0
  0
LINE
  5
14B5
  8
2
 10
253.48300751834199
 20
208.75857859488389
 30
0.0
 11
253.48300751834199
 21
180.75857859488389
 31
0.0
  0
TEXT
  5
1815
  8
0
 62
     3
 10
0.0
 20
0.0
 30
0.0
 40
10.0
  1
EIS614S
  7
STANDARD1
  0
ENDSEC
  0
EOF
