  0
SECTION
  2
HEADER
  9
$ACADVER
  1
AC1009
  9
$INSBASE
 10
0.0
 20
0.0
 30
0.0
  9
$EXTMIN
 10
0.0
 20
-2.960436562073669
 30
0.0
  9
$EXTMAX
 10
220.94460359846681
 20
191.02421679854061
 30
0.0
  9
$LIMMIN
 10
0.0
 20
0.0
  9
$LIMMAX
 10
385.0
 20
270.0
  9
$ORTHOMODE
 70
     1
  9
$REGENMODE
 70
     1
  9
$FILLMODE
 70
     1
  9
$QTEXTMODE
 70
     0
  9
$MIRRTEXT
 70
     0
  9
$DRAGMODE
 70
     2
  9
$LTSCALE
 40
10.0
  9
$OSMODE
 70
  3071
  9
$ATTMODE
 70
     1
  9
$TEXTSIZE
 40
0.2
  9
$TRACEWID
 40
0.05
  9
$TEXTSTYLE
  7
STANDARD
  9
$CLAYER
  8
0
  9
$CELTYPE
  6
BYLAYER
  9
$CECOLOR
 62
   256
  9
$DIMSCALE
 40
1.0
  9
$DIMASZ
 40
3.0
  9
$DIMEXO
 40
0.0625
  9
$DIMDLI
 40
0.38
  9
$DIMRND
 40
0.0
  9
$DIMDLE
 40
0.0
  9
$DIMEXE
 40
0.18
  9
$DIMTP
 40
0.0
  9
$DIMTM
 40
0.0
  9
$DIMTXT
 40
3.0
  9
$DIMCEN
 40
0.09
  9
$DIMTSZ
 40
0.0
  9
$DIMTOL
 70
     0
  9
$DIMLIM
 70
     0
  9
$DIMTIH
 70
     1
  9
$DIMTOH
 70
     1
  9
$DIMSE1
 70
     0
  9
$DIMSE2
 70
     0
  9
$DIMTAD
 70
     0
  9
$DIMZIN
 70
     0
  9
$DIMBLK
  1

  9
$DIMASO
 70
     1
  9
$DIMSHO
 70
     1
  9
$DIMPOST
  1

  9
$DIMAPOST
  1

  9
$DIMALT
 70
     0
  9
$DIMALTD
 70
     2
  9
$DIMALTF
 40
25.399999999999999
  9
$DIMLFAC
 40
1.0
  9
$DIMTOFL
 70
     0
  9
$DIMTVP
 40
0.0
  9
$DIMTIX
 70
     0
  9
$DIMSOXD
 70
     0
  9
$DIMSAH
 70
     0
  9
$DIMBLK1
  1

  9
$DIMBLK2
  1

  9
$DIMSTYLE
  2
STANDARD
  9
$DIMCLRD
 70
     0
  9
$DIMCLRE
 70
     0
  9
$DIMCLRT
 70
     0
  9
$DIMTFAC
 40
1.0
  9
$DIMGAP
 40
0.09
  9
$LUNITS
 70
     2
  9
$LUPREC
 70
     4
  9
$SKETCHINC
 40
0.1
  9
$FILLETRAD
 40
0.0
  9
$AUNITS
 70
     0
  9
$AUPREC
 70
     0
  9
$MENU
  1
E:\r13\win\SUPPORT\ACAD
  9
$ELEVATION
 40
0.0
  9
$PELEVATION
 40
0.0
  9
$THICKNESS
 40
0.0
  9
$LIMCHECK
 70
     0
  9
$BLIPMODE
 70
     0
  9
$CHAMFERA
 40
0.0
  9
$CHAMFERB
 40
0.0
  9
$SKPOLY
 70
     0
  9
$TDCREATE
 40
2450375.5568519682
  9
$TDUPDATE
 40
2456598.658939213
  9
$TDINDWG
 40
0.1093668519
  9
$TDUSRTIMER
 40
0.1093668519
  9
$USRTIMER
 70
     1
  9
$ANGBASE
 50
0.0
  9
$ANGDIR
 70
     0
  9
$PDMODE
 70
     0
  9
$PDSIZE
 40
0.0
  9
$PLINEWID
 40
0.0
  9
$COORDS
 70
     1
  9
$SPLFRAME
 70
     0
  9
$SPLINETYPE
 70
     6
  9
$SPLINESEGS
 70
     8
  9
$ATTDIA
 70
     0
  9
$ATTREQ
 70
     1
  9
$HANDLING
 70
     1
  9
$HANDSEED
  5
DF5
  9
$SURFTAB1
 70
     6
  9
$SURFTAB2
 70
     6
  9
$SURFTYPE
 70
     6
  9
$SURFU
 70
     6
  9
$SURFV
 70
     6
  9
$UCSNAME
  2

  9
$UCSORG
 10
0.0
 20
0.0
 30
0.0
  9
$UCSXDIR
 10
1.0
 20
0.0
 30
0.0
  9
$UCSYDIR
 10
0.0
 20
1.0
 30
0.0
  9
$PUCSNAME
  2

  9
$PUCSORG
 10
0.0
 20
0.0
 30
0.0
  9
$PUCSXDIR
 10
1.0
 20
0.0
 30
0.0
  9
$PUCSYDIR
 10
0.0
 20
1.0
 30
0.0
  9
$USERI1
 70
     3
  9
$USERI2
 70
     1
  9
$USERI3
 70
     1
  9
$USERI4
 70
     0
  9
$USERI5
 70
     0
  9
$USERR1
 40
1.0
  9
$USERR2
 40
3.0
  9
$USERR3
 40
3.0
  9
$USERR4
 40
3.0
  9
$USERR5
 40
10.0
  9
$WORLDVIEW
 70
     1
  9
$SHADEDGE
 70
     3
  9
$SHADEDIF
 70
    70
  9
$TILEMODE
 70
     1
  9
$MAXACTVP
 70
    16
  9
$PLIMCHECK
 70
     0
  9
$PEXTMIN
 10
1.0000000000000000E+020
 20
1.0000000000000000E+020
 30
1.0000000000000000E+020
  9
$PEXTMAX
 10
-1.0000000000000000E+020
 20
-1.0000000000000000E+020
 30
-1.0000000000000000E+020
  9
$PLIMMIN
 10
0.0
 20
0.0
  9
$PLIMMAX
 10
12.0
 20
9.0
  9
$UNITMODE
 70
     0
  9
$VISRETAIN
 70
     0
  9
$PLINEGEN
 70
     0
  9
$PSLTSCALE
 70
     0
  0
ENDSEC
  0
SECTION
  2
TABLES
  0
TABLE
  2
VPORT
 70
     1
  0
VPORT
  2
*ACTIVE
 70
     0
 10
0.0
 20
0.0
 11
1.0
 21
1.0
 12
192.49412581440311
 22
169.9063198933564
 13
0.0
 23
0.0
 14
5.0
 24
5.0
 15
0.0
 25
0.0
 16
0.0
 26
0.0
 36
1.0
 17
0.0
 27
0.0
 37
0.0
 40
348.89937369551939
 41
1.831871345029239
 42
50.0
 43
0.0
 44
0.0
 50
0.0
 51
0.0
 71
     0
 72
   100
 73
     1
 74
     0
 75
     0
 76
     0
 77
     0
 78
     0
  0
ENDTAB
  0
TABLE
  2
LTYPE
 70
     4
  0
LTYPE
  2
CONTINUOUS
 70
     0
  3
Solid Line
 72
    65
 73
     0
 40
0.0
  0
LTYPE
  2
CENTER
 70
     0
  3
____ _ ____ _ ____ _ ____ _ ____ _ ____ _ ____
 72
    65
 73
     4
 40
2.0
 49
1.25
 49
-0.25
 49
0.25
 49
-0.25
  0
LTYPE
  2
HIDDEN
 70
     0
  3
_ _ _ _ _ _ _ _ _ _ _ _ _ _ _ _ _ _ _ _ _ _ _
 72
    65
 73
     2
 40
0.375
 49
0.25
 49
-0.125
  0
LTYPE
  2
PHANTOM2
 70
     0
  3
___ _ _ ___ _ _ ___ _ _ ___ _ _
 72
    65
 73
     6
 40
1.25
 49
0.625
 49
-0.125
 49
0.125
 49
-0.125
 49
0.125
 49
-0.125
  0
ENDTAB
  0
TABLE
  2
LAYER
 70
     5
  0
LAYER
  2
0
 70
     0
 62
     7
  6
CONTINUOUS
  0
LAYER
  2
1
 70
     0
 62
     1
  6
CENTER
  0
LAYER
  2
2
 70
     0
 62
     2
  6
HIDDEN
  0
LAYER
  2
3
 70
     0
 62
     3
  6
CONTINUOUS
  0
LAYER
  2
DEFPOINTS
 70
     0
 62
     7
  6
CONTINUOUS
  0
ENDTAB
  0
TABLE
  2
STYLE
 70
     2
  0
STYLE
  2
STANDARD
 70
     0
 40
0.0
 41
1.0
 50
0.0
 71
     0
 42
0.2
  3
SIMPLEX
  4
BIGFONT
  0
STYLE
  2
STANDARD1
 70
     0
 40
0.0
 41
1.0
 50
0.0
 71
     0
 42
3.0
  3
txt
  4

  0
ENDTAB
  0
TABLE
  2
VIEW
 70
     0
  0
ENDTAB
  0
TABLE
  2
UCS
 70
     0
  0
ENDTAB
  0
TABLE
  2
APPID
 70
     7
  0
APPID
  2
ACAD
 70
     0
  0
APPID
  2
GENIUS_GENODEF_13
 70
     0
  0
APPID
  2
GENIUS_GENOBJ-N-FIL_13
 70
     0
  0
APPID
  2
GENIUS_GENOREF_13
 70
     0
  0
APPID
  2
ACAD_EXEMPT_FROM_CAD_STANDARDS
 70
     0
  0
APPID
  2
ACAD_MLEADERVER
 70
     0
  0
APPID
  2
ACAD_NAV_VCDISPLAY
 70
     0
  0
ENDTAB
  0
TABLE
  2
DIMSTYLE
 70
     1
  0
DIMSTYLE
  2
STANDARD
 70
     0
  3

  4

  5

  6

  7

 40
1.0
 41
0.18
 42
0.0625
 43
0.38
 44
0.18
 45
0.0
 46
0.0
 47
0.0
 48
0.0
140
0.18
141
0.09
142
0.0
143
25.399999999999999
144
1.0
145
0.0
146
1.0
147
0.09
 71
     0
 72
     0
 73
     1
 74
     1
 75
     0
 76
     0
 77
     0
 78
     0
170
     0
171
     2
172
     0
173
     0
174
     0
175
     0
176
     0
177
     0
178
     0
  0
ENDTAB
  0
ENDSEC
  0
SECTION
  2
BLOCKS
  0
BLOCK
  8
0
  2
$MODEL_SPACE
 70
     0
 10
0.0
 20
0.0
 30
0.0
  3
$MODEL_SPACE
  1

  0
ENDBLK
  5
128
  8
0
  0
BLOCK
 67
     1
  8
0
  2
$PAPER_SPACE
 70
     0
 10
0.0
 20
0.0
 30
0.0
  3
$PAPER_SPACE
  1

  0
ENDBLK
  5
126
 67
     1
  8
0
  0
ENDSEC
  0
SECTION
  2
ENTITIES
  0
CIRCLE
  5
195
  8
2
 10
102.9446285984659
 20
161.0242417985406
 30
0.0
 40
5.0
  0
CIRCLE
  5
196
  8
0
 10
102.9446285984659
 20
161.0242417985406
 30
0.0
 40
19.999999999997002
  0
CIRCLE
  5
198
  8
0
 10
102.9446285984659
 20
161.0242417985406
 30
0.0
 40
24.999974999999999
  0
CIRCLE
  5
19A
  8
0
 10
102.9446285984659
 20
164.9171257658605
 30
0.0
 40
1.5
  0
LINE
  5
19B
  8
1
 10
102.9446285984659
 20
161.02424179854049
 30
0.0
 11
122.7436007940197
 21
141.2252696029868
 31
0.0
1001
GENIUS_GENOREF_13
1005
0
  0
CIRCLE
  5
19C
  8
0
 10
102.9446285984659
 20
157.1313578312205
 30
0.0
 40
1.5
  0
CIRCLE
  5
19D
  8
0
 10
102.9446285984659
 20
153.2148217279113
 30
0.0
 40
1.5
  0
CIRCLE
  5
19E
  8
0
 10
102.9446285984659
 20
161.0242417985406
 30
0.0
 40
1.5
  0
CIRCLE
  5
1A0
  8
0
 10
102.9446285984659
 20
168.8336618691699
 30
0.0
 40
1.5
  0
ARC
  5
1A1
  8
0
 10
182.94460359846619
 20
141.02424179853799
 30
0.0
 40
5.0
 50
180.0
 51
270.0
1001
GENIUS_GENODEF_13
1002
{
1000
HIER
1070
     0
1002
}
1002
{
1000
MANEDIT
1070
     0
1002
}
1002
{
1000
NOSEL
1070
     0
1002
}
1002
{
1000
BEHIND
1070
     0
1002
}
1002
{
1000
REACTOR
1002
}
1001
GENIUS_GENOBJ-N-FIL_13
1002
{
1000
OWNER
1000
GEN
1002
}
  0
ARC
  5
1A2
  8
0
 10
182.9446035984659
 20
181.0242417985398
 30
0.0
 40
5.0
 50
90.0
 51
180.0
1001
GENIUS_GENODEF_13
1002
{
1000
HIER
1070
     0
1002
}
1002
{
1000
MANEDIT
1070
     0
1002
}
1002
{
1000
NOSEL
1070
     0
1002
}
1002
{
1000
BEHIND
1070
     0
1002
}
1002
{
1000
REACTOR
1002
}
1001
GENIUS_GENOBJ-N-FIL_13
1002
{
1000
OWNER
1000
GEN
1002
}
  0
LINE
  5
1A3
  8
1
 10
220.94460359846681
 20
161.0242417985406
 30
0.0
 11
172.9446035984659
 21
161.0242417985406
 31
0.0
  0
ARC
  5
1A7
  8
2
 10
103.8068990992159
 20
161.02782247527969
 30
0.0
 40
76.711069049931425
 50
359.99732557937779
 51
14.88267107922851
  0
ARC
  5
1A8
  8
2
 10
100.51595373658419
 20
161.02752358794339
 30
0.0
 40
81.218618282493523
 50
359.99768485740782
 51
14.253266496408621
  0
LINE
  5
1AA
  8
3
 10
209.1246035984656
 20
184.55977570447249
 30
0.0
 11
209.124603598466
 21
137.48870789260579
 31
0.0
  0
POLYLINE
  5
1AC
  8
0
 10
206.69685289356894
 20
161.02424179854009
 30
0.0
 66
     1
 70
     8
  0
VERTEX
  8
0
  5
BED
 10
206.697
 20
161.024
 30
0.000000
  70
    32
  0
VERTEX
  8
0
  5
BEE
 10
206.694
 20
161.367
 30
0.000000
  70
    32
  0
VERTEX
  8
0
  5
BEF
 10
206.684
 20
161.710
 30
0.000000
  70
    32
  0
VERTEX
  8
0
  5
BF0
 10
206.669
 20
162.052
 30
0.000000
  70
    32
  0
VERTEX
  8
0
  5
BF1
 10
206.647
 20
162.393
 30
0.000000
  70
    32
  0
VERTEX
  8
0
  5
BF2
 10
206.619
 20
162.734
 30
0.000000
  70
    32
  0
VERTEX
  8
0
  5
BF3
 10
206.585
 20
163.073
 30
0.000000
  70
    32
  0
VERTEX
  8
0
  5
BF4
 10
206.544
 20
163.412
 30
0.000000
  70
    32
  0
VERTEX
  8
0
  5
BF5
 10
206.497
 20
163.749
 30
0.000000
  70
    32
  0
VERTEX
  8
0
  5
BF6
 10
206.445
 20
164.084
 30
0.000000
  70
    32
  0
VERTEX
  8
0
  5
BF7
 10
206.386
 20
164.418
 30
0.000000
  70
    32
  0
VERTEX
  8
0
  5
BF8
 10
206.321
 20
164.749
 30
0.000000
  70
    32
  0
VERTEX
  8
0
  5
BF9
 10
206.250
 20
165.078
 30
0.000000
  70
    32
  0
VERTEX
  8
0
  5
BFA
 10
206.173
 20
165.405
 30
0.000000
  70
    32
  0
VERTEX
  8
0
  5
BFB
 10
206.090
 20
165.729
 30
0.000000
  70
    32
  0
VERTEX
  8
0
  5
BFC
 10
206.001
 20
166.050
 30
0.000000
  70
    32
  0
VERTEX
  8
0
  5
BFD
 10
205.907
 20
166.369
 30
0.000000
  70
    32
  0
VERTEX
  8
0
  5
BFE
 10
205.806
 20
166.684
 30
0.000000
  70
    32
  0
VERTEX
  8
0
  5
BFF
 10
205.700
 20
166.995
 30
0.000000
  70
    32
  0
VERTEX
  8
0
  5
C00
 10
205.589
 20
167.303
 30
0.000000
  70
    32
  0
VERTEX
  8
0
  5
C01
 10
205.471
 20
167.608
 30
0.000000
  70
    32
  0
VERTEX
  8
0
  5
C02
 10
205.348
 20
167.908
 30
0.000000
  70
    32
  0
VERTEX
  8
0
  5
C03
 10
205.220
 20
168.204
 30
0.000000
  70
    32
  0
VERTEX
  8
0
  5
C04
 10
205.086
 20
168.496
 30
0.000000
  70
    32
  0
VERTEX
  8
0
  5
C05
 10
204.948
 20
168.783
 30
0.000000
  70
    32
  0
VERTEX
  8
0
  5
C06
 10
204.803
 20
169.066
 30
0.000000
  70
    32
  0
VERTEX
  8
0
  5
C07
 10
204.654
 20
169.344
 30
0.000000
  70
    32
  0
VERTEX
  8
0
  5
C08
 10
204.500
 20
169.616
 30
0.000000
  70
    32
  0
VERTEX
  8
0
  5
C09
 10
204.341
 20
169.884
 30
0.000000
  70
    32
  0
VERTEX
  8
0
  5
C0A
 10
204.177
 20
170.146
 30
0.000000
  70
    32
  0
VERTEX
  8
0
  5
C0B
 10
204.008
 20
170.403
 30
0.000000
  70
    32
  0
VERTEX
  8
0
  5
C0C
 10
203.835
 20
170.654
 30
0.000000
  70
    32
  0
VERTEX
  8
0
  5
C0D
 10
203.657
 20
170.899
 30
0.000000
  70
    32
  0
VERTEX
  8
0
  5
C0E
 10
203.474
 20
171.139
 30
0.000000
  70
    32
  0
VERTEX
  8
0
  5
C0F
 10
203.288
 20
171.372
 30
0.000000
  70
    32
  0
VERTEX
  8
0
  5
C10
 10
203.097
 20
171.599
 30
0.000000
  70
    32
  0
VERTEX
  8
0
  5
C11
 10
202.902
 20
171.820
 30
0.000000
  70
    32
  0
VERTEX
  8
0
  5
C12
 10
202.703
 20
172.034
 30
0.000000
  70
    32
  0
VERTEX
  8
0
  5
C13
 10
202.500
 20
172.242
 30
0.000000
  70
    32
  0
VERTEX
  8
0
  5
C14
 10
202.294
 20
172.442
 30
0.000000
  70
    32
  0
VERTEX
  8
0
  5
C15
 10
202.084
 20
172.636
 30
0.000000
  70
    32
  0
VERTEX
  8
0
  5
C16
 10
201.870
 20
172.823
 30
0.000000
  70
    32
  0
VERTEX
  8
0
  5
C17
 10
201.653
 20
173.003
 30
0.000000
  70
    32
  0
VERTEX
  8
0
  5
C18
 10
201.433
 20
173.176
 30
0.000000
  70
    32
  0
VERTEX
  8
0
  5
C19
 10
201.210
 20
173.341
 30
0.000000
  70
    32
  0
VERTEX
  8
0
  5
C1A
 10
200.984
 20
173.499
 30
0.000000
  70
    32
  0
VERTEX
  8
0
  5
C1B
 10
200.755
 20
173.649
 30
0.000000
  70
    32
  0
VERTEX
  8
0
  5
C1C
 10
200.523
 20
173.792
 30
0.000000
  70
    32
  0
VERTEX
  8
0
  5
C1D
 10
200.289
 20
173.927
 30
0.000000
  70
    32
  0
VERTEX
  8
0
  5
C1E
 10
200.053
 20
174.054
 30
0.000000
  70
    32
  0
VERTEX
  8
0
  5
C1F
 10
199.814
 20
174.173
 30
0.000000
  70
    32
  0
VERTEX
  8
0
  5
C20
 10
199.573
 20
174.285
 30
0.000000
  70
    32
  0
VERTEX
  8
0
  5
C21
 10
199.330
 20
174.389
 30
0.000000
  70
    32
  0
VERTEX
  8
0
  5
C22
 10
199.085
 20
174.484
 30
0.000000
  70
    32
  0
VERTEX
  8
0
  5
C23
 10
198.839
 20
174.571
 30
0.000000
  70
    32
  0
VERTEX
  8
0
  5
C24
 10
198.591
 20
174.651
 30
0.000000
  70
    32
  0
VERTEX
  8
0
  5
C25
 10
198.342
 20
174.722
 30
0.000000
  70
    32
  0
VERTEX
  8
0
  5
C26
 10
198.092
 20
174.784
 30
0.000000
  70
    32
  0
VERTEX
  8
0
  5
C27
 10
197.840
 20
174.839
 30
0.000000
  70
    32
  0
VERTEX
  8
0
  5
C28
 10
197.588
 20
174.885
 30
0.000000
  70
    32
  0
VERTEX
  8
0
  5
C29
 10
197.334
 20
174.923
 30
0.000000
  70
    32
  0
VERTEX
  8
0
  5
C2A
 10
197.081
 20
174.952
 30
0.000000
  70
    32
  0
VERTEX
  8
0
  5
C2B
 10
196.826
 20
174.973
 30
0.000000
  70
    32
  0
VERTEX
  8
0
  5
C2C
 10
196.572
 20
174.986
 30
0.000000
  70
    32
  0
VERTEX
  8
0
  5
C2D
 10
196.317
 20
174.990
 30
0.000000
  70
    32
  0
VERTEX
  8
0
  5
C2E
 10
196.062
 20
174.986
 30
0.000000
  70
    32
  0
VERTEX
  8
0
  5
C2F
 10
195.808
 20
174.973
 30
0.000000
  70
    32
  0
VERTEX
  8
0
  5
C30
 10
195.553
 20
174.952
 30
0.000000
  70
    32
  0
VERTEX
  8
0
  5
C31
 10
195.300
 20
174.923
 30
0.000000
  70
    32
  0
VERTEX
  8
0
  5
C32
 10
195.046
 20
174.885
 30
0.000000
  70
    32
  0
VERTEX
  8
0
  5
C33
 10
194.794
 20
174.839
 30
0.000000
  70
    32
  0
VERTEX
  8
0
  5
C34
 10
194.542
 20
174.784
 30
0.000000
  70
    32
  0
VERTEX
  8
0
  5
C35
 10
194.292
 20
174.722
 30
0.000000
  70
    32
  0
VERTEX
  8
0
  5
C36
 10
194.043
 20
174.651
 30
0.000000
  70
    32
  0
VERTEX
  8
0
  5
C37
 10
193.795
 20
174.571
 30
0.000000
  70
    32
  0
VERTEX
  8
0
  5
C38
 10
193.548
 20
174.484
 30
0.000000
  70
    32
  0
VERTEX
  8
0
  5
C39
 10
193.304
 20
174.389
 30
0.000000
  70
    32
  0
VERTEX
  8
0
  5
C3A
 10
193.061
 20
174.285
 30
0.000000
  70
    32
  0
VERTEX
  8
0
  5
C3B
 10
192.820
 20
174.173
 30
0.000000
  70
    32
  0
VERTEX
  8
0
  5
C3C
 10
192.581
 20
174.054
 30
0.000000
  70
    32
  0
VERTEX
  8
0
  5
C3D
 10
192.345
 20
173.927
 30
0.000000
  70
    32
  0
VERTEX
  8
0
  5
C3E
 10
192.111
 20
173.792
 30
0.000000
  70
    32
  0
VERTEX
  8
0
  5
C3F
 10
191.879
 20
173.649
 30
0.000000
  70
    32
  0
VERTEX
  8
0
  5
C40
 10
191.650
 20
173.499
 30
0.000000
  70
    32
  0
VERTEX
  8
0
  5
C41
 10
191.424
 20
173.341
 30
0.000000
  70
    32
  0
VERTEX
  8
0
  5
C42
 10
191.201
 20
173.176
 30
0.000000
  70
    32
  0
VERTEX
  8
0
  5
C43
 10
190.981
 20
173.003
 30
0.000000
  70
    32
  0
VERTEX
  8
0
  5
C44
 10
190.764
 20
172.823
 30
0.000000
  70
    32
  0
VERTEX
  8
0
  5
C45
 10
190.550
 20
172.636
 30
0.000000
  70
    32
  0
VERTEX
  8
0
  5
C46
 10
190.340
 20
172.442
 30
0.000000
  70
    32
  0
VERTEX
  8
0
  5
C47
 10
190.134
 20
172.242
 30
0.000000
  70
    32
  0
VERTEX
  8
0
  5
C48
 10
189.931
 20
172.034
 30
0.000000
  70
    32
  0
VERTEX
  8
0
  5
C49
 10
189.732
 20
171.820
 30
0.000000
  70
    32
  0
VERTEX
  8
0
  5
C4A
 10
189.537
 20
171.599
 30
0.000000
  70
    32
  0
VERTEX
  8
0
  5
C4B
 10
189.346
 20
171.372
 30
0.000000
  70
    32
  0
VERTEX
  8
0
  5
C4C
 10
189.160
 20
171.139
 30
0.000000
  70
    32
  0
VERTEX
  8
0
  5
C4D
 10
188.977
 20
170.899
 30
0.000000
  70
    32
  0
VERTEX
  8
0
  5
C4E
 10
188.799
 20
170.654
 30
0.000000
  70
    32
  0
VERTEX
  8
0
  5
C4F
 10
188.626
 20
170.403
 30
0.000000
  70
    32
  0
VERTEX
  8
0
  5
C50
 10
188.457
 20
170.146
 30
0.000000
  70
    32
  0
VERTEX
  8
0
  5
C51
 10
188.293
 20
169.884
 30
0.000000
  70
    32
  0
VERTEX
  8
0
  5
C52
 10
188.134
 20
169.616
 30
0.000000
  70
    32
  0
VERTEX
  8
0
  5
C53
 10
187.980
 20
169.344
 30
0.000000
  70
    32
  0
VERTEX
  8
0
  5
C54
 10
187.830
 20
169.066
 30
0.000000
  70
    32
  0
VERTEX
  8
0
  5
C55
 10
187.686
 20
168.783
 30
0.000000
  70
    32
  0
VERTEX
  8
0
  5
C56
 10
187.547
 20
168.496
 30
0.000000
  70
    32
  0
VERTEX
  8
0
  5
C57
 10
187.414
 20
168.204
 30
0.000000
  70
    32
  0
VERTEX
  8
0
  5
C58
 10
187.286
 20
167.908
 30
0.000000
  70
    32
  0
VERTEX
  8
0
  5
C59
 10
187.163
 20
167.608
 30
0.000000
  70
    32
  0
VERTEX
  8
0
  5
C5A
 10
187.045
 20
167.303
 30
0.000000
  70
    32
  0
VERTEX
  8
0
  5
C5B
 10
186.934
 20
166.995
 30
0.000000
  70
    32
  0
VERTEX
  8
0
  5
C5C
 10
186.828
 20
166.684
 30
0.000000
  70
    32
  0
VERTEX
  8
0
  5
C5D
 10
186.727
 20
166.369
 30
0.000000
  70
    32
  0
VERTEX
  8
0
  5
C5E
 10
186.633
 20
166.050
 30
0.000000
  70
    32
  0
VERTEX
  8
0
  5
C5F
 10
186.544
 20
165.729
 30
0.000000
  70
    32
  0
VERTEX
  8
0
  5
C60
 10
186.461
 20
165.405
 30
0.000000
  70
    32
  0
VERTEX
  8
0
  5
C61
 10
186.384
 20
165.078
 30
0.000000
  70
    32
  0
VERTEX
  8
0
  5
C62
 10
186.313
 20
164.749
 30
0.000000
  70
    32
  0
VERTEX
  8
0
  5
C63
 10
186.248
 20
164.418
 30
0.000000
  70
    32
  0
VERTEX
  8
0
  5
C64
 10
186.189
 20
164.084
 30
0.000000
  70
    32
  0
VERTEX
  8
0
  5
C65
 10
186.136
 20
163.749
 30
0.000000
  70
    32
  0
VERTEX
  8
0
  5
C66
 10
186.090
 20
163.412
 30
0.000000
  70
    32
  0
VERTEX
  8
0
  5
C67
 10
186.049
 20
163.073
 30
0.000000
  70
    32
  0
VERTEX
  8
0
  5
C68
 10
186.015
 20
162.734
 30
0.000000
  70
    32
  0
VERTEX
  8
0
  5
C69
 10
185.987
 20
162.393
 30
0.000000
  70
    32
  0
VERTEX
  8
0
  5
C6A
 10
185.965
 20
162.052
 30
0.000000
  70
    32
  0
VERTEX
  8
0
  5
C6B
 10
185.950
 20
161.710
 30
0.000000
  70
    32
  0
VERTEX
  8
0
  5
C6C
 10
185.940
 20
161.367
 30
0.000000
  70
    32
  0
VERTEX
  8
0
  5
C6D
 10
185.937
 20
161.024
 30
0.000000
  70
    32
  0
SEQEND
  8
0
  5
C6E
  0
LINE
  5
1AD
  8
3
 10
182.9446035984659
 20
184.5536667330914
 30
0.0
 11
182.94460359846639
 21
137.49481686398639
 31
0.0
  0
LINE
  5
1AF
  8
2
 10
193.71460359846569
 20
166.02424179853909
 30
0.0
 11
215.94460359846639
 21
166.0242417985414
 31
0.0
  0
ARC
  5
1B0
  8
0
 10
196.31694794290479
 20
124.635745130852
 30
0.0
 40
15.68847178319916
 50
48.575980940094141
 51
131.42401905990531
  0
POLYLINE
  5
1B1
  8
0
 10
206.69685289356894
 20
161.0242417985381
 30
0.0
 66
     1
 70
     8
  0
VERTEX
  8
0
  5
C6F
 10
206.697
 20
161.024
 30
0.000000
  70
    32
  0
VERTEX
  8
0
  5
C70
 10
206.694
 20
160.682
 30
0.000000
  70
    32
  0
VERTEX
  8
0
  5
C71
 10
206.684
 20
160.339
 30
0.000000
  70
    32
  0
VERTEX
  8
0
  5
C72
 10
206.669
 20
159.997
 30
0.000000
  70
    32
  0
VERTEX
  8
0
  5
C73
 10
206.647
 20
159.655
 30
0.000000
  70
    32
  0
VERTEX
  8
0
  5
C74
 10
206.619
 20
159.315
 30
0.000000
  70
    32
  0
VERTEX
  8
0
  5
C75
 10
206.585
 20
158.975
 30
0.000000
  70
    32
  0
VERTEX
  8
0
  5
C76
 10
206.544
 20
158.637
 30
0.000000
  70
    32
  0
VERTEX
  8
0
  5
C77
 10
206.497
 20
158.300
 30
0.000000
  70
    32
  0
VERTEX
  8
0
  5
C78
 10
206.445
 20
157.964
 30
0.000000
  70
    32
  0
VERTEX
  8
0
  5
C79
 10
206.386
 20
157.631
 30
0.000000
  70
    32
  0
VERTEX
  8
0
  5
C7A
 10
206.321
 20
157.299
 30
0.000000
  70
    32
  0
VERTEX
  8
0
  5
C7B
 10
206.250
 20
156.970
 30
0.000000
  70
    32
  0
VERTEX
  8
0
  5
C7C
 10
206.173
 20
156.643
 30
0.000000
  70
    32
  0
VERTEX
  8
0
  5
C7D
 10
206.090
 20
156.319
 30
0.000000
  70
    32
  0
VERTEX
  8
0
  5
C7E
 10
206.001
 20
155.998
 30
0.000000
  70
    32
  0
VERTEX
  8
0
  5
C7F
 10
205.907
 20
155.680
 30
0.000000
  70
    32
  0
VERTEX
  8
0
  5
C80
 10
205.806
 20
155.365
 30
0.000000
  70
    32
  0
VERTEX
  8
0
  5
C81
 10
205.700
 20
155.053
 30
0.000000
  70
    32
  0
VERTEX
  8
0
  5
C82
 10
205.589
 20
154.745
 30
0.000000
  70
    32
  0
VERTEX
  8
0
  5
C83
 10
205.471
 20
154.441
 30
0.000000
  70
    32
  0
VERTEX
  8
0
  5
C84
 10
205.348
 20
154.141
 30
0.000000
  70
    32
  0
VERTEX
  8
0
  5
C85
 10
205.220
 20
153.844
 30
0.000000
  70
    32
  0
VERTEX
  8
0
  5
C86
 10
205.086
 20
153.553
 30
0.000000
  70
    32
  0
VERTEX
  8
0
  5
C87
 10
204.948
 20
153.265
 30
0.000000
  70
    32
  0
VERTEX
  8
0
  5
C88
 10
204.803
 20
152.983
 30
0.000000
  70
    32
  0
VERTEX
  8
0
  5
C89
 10
204.654
 20
152.705
 30
0.000000
  70
    32
  0
VERTEX
  8
0
  5
C8A
 10
204.500
 20
152.432
 30
0.000000
  70
    32
  0
VERTEX
  8
0
  5
C8B
 10
204.341
 20
152.165
 30
0.000000
  70
    32
  0
VERTEX
  8
0
  5
C8C
 10
204.177
 20
151.902
 30
0.000000
  70
    32
  0
VERTEX
  8
0
  5
C8D
 10
204.008
 20
151.645
 30
0.000000
  70
    32
  0
VERTEX
  8
0
  5
C8E
 10
203.835
 20
151.394
 30
0.000000
  70
    32
  0
VERTEX
  8
0
  5
C8F
 10
203.657
 20
151.149
 30
0.000000
  70
    32
  0
VERTEX
  8
0
  5
C90
 10
203.474
 20
150.910
 30
0.000000
  70
    32
  0
VERTEX
  8
0
  5
C91
 10
203.288
 20
150.676
 30
0.000000
  70
    32
  0
VERTEX
  8
0
  5
C92
 10
203.097
 20
150.449
 30
0.000000
  70
    32
  0
VERTEX
  8
0
  5
C93
 10
202.902
 20
150.229
 30
0.000000
  70
    32
  0
VERTEX
  8
0
  5
C94
 10
202.703
 20
150.014
 30
0.000000
  70
    32
  0
VERTEX
  8
0
  5
C95
 10
202.500
 20
149.807
 30
0.000000
  70
    32
  0
VERTEX
  8
0
  5
C96
 10
202.294
 20
149.606
 30
0.000000
  70
    32
  0
VERTEX
  8
0
  5
C97
 10
202.084
 20
149.412
 30
0.000000
  70
    32
  0
VERTEX
  8
0
  5
C98
 10
201.870
 20
149.225
 30
0.000000
  70
    32
  0
VERTEX
  8
0
  5
C99
 10
201.653
 20
149.046
 30
0.000000
  70
    32
  0
VERTEX
  8
0
  5
C9A
 10
201.433
 20
148.873
 30
0.000000
  70
    32
  0
VERTEX
  8
0
  5
C9B
 10
201.210
 20
148.708
 30
0.000000
  70
    32
  0
VERTEX
  8
0
  5
C9C
 10
200.984
 20
148.550
 30
0.000000
  70
    32
  0
VERTEX
  8
0
  5
C9D
 10
200.755
 20
148.399
 30
0.000000
  70
    32
  0
VERTEX
  8
0
  5
C9E
 10
200.523
 20
148.257
 30
0.000000
  70
    32
  0
VERTEX
  8
0
  5
C9F
 10
200.289
 20
148.122
 30
0.000000
  70
    32
  0
VERTEX
  8
0
  5
CA0
 10
200.053
 20
147.994
 30
0.000000
  70
    32
  0
VERTEX
  8
0
  5
CA1
 10
199.814
 20
147.875
 30
0.000000
  70
    32
  0
VERTEX
  8
0
  5
CA2
 10
199.573
 20
147.763
 30
0.000000
  70
    32
  0
VERTEX
  8
0
  5
CA3
 10
199.330
 20
147.660
 30
0.000000
  70
    32
  0
VERTEX
  8
0
  5
CA4
 10
199.085
 20
147.565
 30
0.000000
  70
    32
  0
VERTEX
  8
0
  5
CA5
 10
198.839
 20
147.477
 30
0.000000
  70
    32
  0
VERTEX
  8
0
  5
CA6
 10
198.591
 20
147.398
 30
0.000000
  70
    32
  0
VERTEX
  8
0
  5
CA7
 10
198.342
 20
147.327
 30
0.000000
  70
    32
  0
VERTEX
  8
0
  5
CA8
 10
198.092
 20
147.264
 30
0.000000
  70
    32
  0
VERTEX
  8
0
  5
CA9
 10
197.840
 20
147.210
 30
0.000000
  70
    32
  0
VERTEX
  8
0
  5
CAA
 10
197.588
 20
147.164
 30
0.000000
  70
    32
  0
VERTEX
  8
0
  5
CAB
 10
197.334
 20
147.126
 30
0.000000
  70
    32
  0
VERTEX
  8
0
  5
CAC
 10
197.081
 20
147.096
 30
0.000000
  70
    32
  0
VERTEX
  8
0
  5
CAD
 10
196.826
 20
147.075
 30
0.000000
  70
    32
  0
VERTEX
  8
0
  5
CAE
 10
196.572
 20
147.063
 30
0.000000
  70
    32
  0
VERTEX
  8
0
  5
CAF
 10
196.317
 20
147.059
 30
0.000000
  70
    32
  0
VERTEX
  8
0
  5
CB0
 10
196.062
 20
147.063
 30
0.000000
  70
    32
  0
VERTEX
  8
0
  5
CB1
 10
195.808
 20
147.075
 30
0.000000
  70
    32
  0
VERTEX
  8
0
  5
CB2
 10
195.553
 20
147.096
 30
0.000000
  70
    32
  0
VERTEX
  8
0
  5
CB3
 10
195.300
 20
147.126
 30
0.000000
  70
    32
  0
VERTEX
  8
0
  5
CB4
 10
195.046
 20
147.164
 30
0.000000
  70
    32
  0
VERTEX
  8
0
  5
CB5
 10
194.794
 20
147.210
 30
0.000000
  70
    32
  0
VERTEX
  8
0
  5
CB6
 10
194.542
 20
147.264
 30
0.000000
  70
    32
  0
VERTEX
  8
0
  5
CB7
 10
194.292
 20
147.327
 30
0.000000
  70
    32
  0
VERTEX
  8
0
  5
CB8
 10
194.043
 20
147.398
 30
0.000000
  70
    32
  0
VERTEX
  8
0
  5
CB9
 10
193.795
 20
147.477
 30
0.000000
  70
    32
  0
VERTEX
  8
0
  5
CBA
 10
193.548
 20
147.565
 30
0.000000
  70
    32
  0
VERTEX
  8
0
  5
CBB
 10
193.304
 20
147.660
 30
0.000000
  70
    32
  0
VERTEX
  8
0
  5
CBC
 10
193.061
 20
147.763
 30
0.000000
  70
    32
  0
VERTEX
  8
0
  5
CBD
 10
192.820
 20
147.875
 30
0.000000
  70
    32
  0
VERTEX
  8
0
  5
CBE
 10
192.581
 20
147.994
 30
0.000000
  70
    32
  0
VERTEX
  8
0
  5
CBF
 10
192.345
 20
148.122
 30
0.000000
  70
    32
  0
VERTEX
  8
0
  5
CC0
 10
192.111
 20
148.257
 30
0.000000
  70
    32
  0
VERTEX
  8
0
  5
CC1
 10
191.879
 20
148.399
 30
0.000000
  70
    32
  0
VERTEX
  8
0
  5
CC2
 10
191.650
 20
148.550
 30
0.000000
  70
    32
  0
VERTEX
  8
0
  5
CC3
 10
191.424
 20
148.708
 30
0.000000
  70
    32
  0
VERTEX
  8
0
  5
CC4
 10
191.201
 20
148.873
 30
0.000000
  70
    32
  0
VERTEX
  8
0
  5
CC5
 10
190.981
 20
149.046
 30
0.000000
  70
    32
  0
VERTEX
  8
0
  5
CC6
 10
190.764
 20
149.225
 30
0.000000
  70
    32
  0
VERTEX
  8
0
  5
CC7
 10
190.550
 20
149.412
 30
0.000000
  70
    32
  0
VERTEX
  8
0
  5
CC8
 10
190.340
 20
149.606
 30
0.000000
  70
    32
  0
VERTEX
  8
0
  5
CC9
 10
190.134
 20
149.807
 30
0.000000
  70
    32
  0
VERTEX
  8
0
  5
CCA
 10
189.931
 20
150.014
 30
0.000000
  70
    32
  0
VERTEX
  8
0
  5
CCB
 10
189.732
 20
150.229
 30
0.000000
  70
    32
  0
VERTEX
  8
0
  5
CCC
 10
189.537
 20
150.449
 30
0.000000
  70
    32
  0
VERTEX
  8
0
  5
CCD
 10
189.346
 20
150.676
 30
0.000000
  70
    32
  0
VERTEX
  8
0
  5
CCE
 10
189.160
 20
150.910
 30
0.000000
  70
    32
  0
VERTEX
  8
0
  5
CCF
 10
188.977
 20
151.149
 30
0.000000
  70
    32
  0
VERTEX
  8
0
  5
CD0
 10
188.799
 20
151.394
 30
0.000000
  70
    32
  0
VERTEX
  8
0
  5
CD1
 10
188.626
 20
151.645
 30
0.000000
  70
    32
  0
VERTEX
  8
0
  5
CD2
 10
188.457
 20
151.902
 30
0.000000
  70
    32
  0
VERTEX
  8
0
  5
CD3
 10
188.293
 20
152.165
 30
0.000000
  70
    32
  0
VERTEX
  8
0
  5
CD4
 10
188.134
 20
152.432
 30
0.000000
  70
    32
  0
VERTEX
  8
0
  5
CD5
 10
187.980
 20
152.705
 30
0.000000
  70
    32
  0
VERTEX
  8
0
  5
CD6
 10
187.830
 20
152.983
 30
0.000000
  70
    32
  0
VERTEX
  8
0
  5
CD7
 10
187.686
 20
153.265
 30
0.000000
  70
    32
  0
VERTEX
  8
0
  5
CD8
 10
187.547
 20
153.553
 30
0.000000
  70
    32
  0
VERTEX
  8
0
  5
CD9
 10
187.414
 20
153.844
 30
0.000000
  70
    32
  0
VERTEX
  8
0
  5
CDA
 10
187.286
 20
154.141
 30
0.000000
  70
    32
  0
VERTEX
  8
0
  5
CDB
 10
187.163
 20
154.441
 30
0.000000
  70
    32
  0
VERTEX
  8
0
  5
CDC
 10
187.045
 20
154.745
 30
0.000000
  70
    32
  0
VERTEX
  8
0
  5
CDD
 10
186.934
 20
155.053
 30
0.000000
  70
    32
  0
VERTEX
  8
0
  5
CDE
 10
186.828
 20
155.365
 30
0.000000
  70
    32
  0
VERTEX
  8
0
  5
CDF
 10
186.727
 20
155.680
 30
0.000000
  70
    32
  0
VERTEX
  8
0
  5
CE0
 10
186.633
 20
155.998
 30
0.000000
  70
    32
  0
VERTEX
  8
0
  5
CE1
 10
186.544
 20
156.319
 30
0.000000
  70
    32
  0
VERTEX
  8
0
  5
CE2
 10
186.461
 20
156.643
 30
0.000000
  70
    32
  0
VERTEX
  8
0
  5
CE3
 10
186.384
 20
156.970
 30
0.000000
  70
    32
  0
VERTEX
  8
0
  5
CE4
 10
186.313
 20
157.299
 30
0.000000
  70
    32
  0
VERTEX
  8
0
  5
CE5
 10
186.248
 20
157.631
 30
0.000000
  70
    32
  0
VERTEX
  8
0
  5
CE6
 10
186.189
 20
157.964
 30
0.000000
  70
    32
  0
VERTEX
  8
0
  5
CE7
 10
186.136
 20
158.300
 30
0.000000
  70
    32
  0
VERTEX
  8
0
  5
CE8
 10
186.090
 20
158.637
 30
0.000000
  70
    32
  0
VERTEX
  8
0
  5
CE9
 10
186.049
 20
158.975
 30
0.000000
  70
    32
  0
VERTEX
  8
0
  5
CEA
 10
186.015
 20
159.315
 30
0.000000
  70
    32
  0
VERTEX
  8
0
  5
CEB
 10
185.987
 20
159.655
 30
0.000000
  70
    32
  0
VERTEX
  8
0
  5
CEC
 10
185.965
 20
159.997
 30
0.000000
  70
    32
  0
VERTEX
  8
0
  5
CED
 10
185.950
 20
160.339
 30
0.000000
  70
    32
  0
VERTEX
  8
0
  5
CEE
 10
185.940
 20
160.682
 30
0.000000
  70
    32
  0
VERTEX
  8
0
  5
CEF
 10
185.937
 20
161.024
 30
0.000000
  70
    32
  0
SEQEND
  8
0
  5
CF0
  0
LINE
  5
1B2
  8
2
 10
215.64460359846609
 20
150.0242417985398
 30
0.0
 11
195.7146035984662
 21
150.0242417985398
 31
0.0
  0
LINE
  5
1B3
  8
2
 10
193.71460359846611
 20
156.0242417985398
 30
0.0
 11
215.94460359846681
 21
156.02424179853969
 31
0.0
  0
LINE
  5
1B5
  8
0
 10
212.62460359846591
 20
139.5242417985389
 30
0.0
 11
212.6246035984656
 21
182.5242417985389
 31
0.0
  0
LINE
  5
1B7
  8
1
 10
201.9446035984661
 20
138.9889869942983
 30
0.0
 11
201.9446035984661
 21
147.81748801402949
 31
0.0
  0
ARC
  5
1B8
  8
0
 10
209.12460359846631
 20
139.52424179853841
 30
0.0
 40
3.5
 50
270.0
 51
0.0
1001
GENIUS_GENODEF_13
1002
{
1000
HIER
1070
     0
1002
}
1002
{
1000
MANEDIT
1070
     0
1002
}
1002
{
1000
NOSEL
1070
     0
1002
}
1002
{
1000
BEHIND
1070
     0
1002
}
1002
{
1000
REACTOR
1002
}
1001
GENIUS_GENOBJ-N-FIL_13
1002
{
1000
OWNER
1000
GEN
1002
}
  0
LINE
  5
1BA
  8
0
 10
212.62460359846631
 20
139.52424179853949
 30
0.0
 11
215.64460359846629
 21
139.52424179853949
 31
0.0
  0
LINE
  5
1BB
  8
0
 10
212.62460359846591
 20
139.5242417985389
 30
0.0
 11
215.64460359846589
 21
139.52424179853881
 31
0.0
  0
ARC
  5
1BC
  8
0
 10
207.68929228735669
 20
137.52424179853799
 30
0.0
 40
1.5
 50
228.5759809400941
 51
269.99999999999022
1001
GENIUS_GENODEF_13
1002
{
1000
HIER
1070
     0
1002
}
1002
{
1000
MANEDIT
1070
     0
1002
}
1002
{
1000
NOSEL
1070
     0
1002
}
1002
{
1000
BEHIND
1070
     0
1002
}
1002
{
1000
REACTOR
1002
}
1001
GENIUS_GENOBJ-N-FIL_13
1002
{
1000
OWNER
1000
GEN
1002
}
  0
LINE
  5
1BD
  8
0
 10
207.68929228735681
 20
136.02424179853841
 30
0.0
 11
209.124603598466
 21
136.02424179853799
 31
0.0
  0
LINE
  5
1BE
  8
0
 10
215.6446035984662
 20
139.52424179853881
 30
0.0
 11
215.64460359846601
 21
182.5242417985389
 31
0.0
  0
LINE
  5
1BF
  8
0
 10
215.94460359846681
 20
150.0242417985398
 30
0.0
 11
215.94460359846681
 21
172.02424179854131
 31
0.0
  0
LINE
  5
1C0
  8
0
 10
215.94460359846681
 20
150.0242417985398
 30
0.0
 11
215.64460359846609
 21
150.02424179853861
 31
0.0
  0
LINE
  5
1C1
  8
0
 10
215.64460359846601
 20
150.0242417985398
 30
0.0
 11
215.64460359846601
 21
150.0242417985398
 31
0.0
  0
LINE
  5
1C3
  8
0
 10
177.94460359846619
 20
141.02424179853969
 30
0.0
 11
177.94460359846551
 21
181.02424179853969
 31
0.0
  0
ARC
  5
1C4
  8
2
 10
100.51595373658419
 20
161.02096000912681
 30
0.0
 40
81.218618282493523
 50
345.74673350359728
 51
0.0023151425921924
  0
ARC
  5
1C5
  8
2
 10
103.8068990992159
 20
161.02066112179071
 30
0.0
 40
76.711069049931425
 50
345.11732892077401
 51
0.002674420628807
  0
LINE
  5
1C6
  8
2
 10
187.7390381730807
 20
141.0242417985402
 30
0.0
 11
187.73903817308039
 21
181.02424179853821
 31
0.0
  0
LINE
  5
1C7
  8
2
 10
193.71460359846611
 20
147.0242417985398
 30
0.0
 11
193.71460359846611
 21
175.02424179853921
 31
0.0
  0
LINE
  5
1C8
  8
2
 10
187.7390381730807
 20
147.0242417985398
 30
0.0
 11
193.71460359846611
 21
147.02424179853969
 31
0.0
1001
GENIUS_GENOREF_13
1005
0
  0
LINE
  5
1C9
  8
2
 10
178.2446035984658
 20
141.02424179854
 30
0.0
 11
187.7390381730807
 21
141.0242417985402
 31
0.0
  0
ARC
  5
1CA
  8
0
 10
184.94460359845289
 20
137.52424179853799
 30
0.0
 40
1.5
 50
270.0
 51
311.42401905990528
1001
GENIUS_GENODEF_13
1002
{
1000
HIER
1070
     0
1002
}
1002
{
1000
MANEDIT
1070
     0
1002
}
1002
{
1000
NOSEL
1070
     0
1002
}
1002
{
1000
BEHIND
1070
     0
1002
}
1002
{
1000
REACTOR
1002
}
1001
GENIUS_GENOBJ-N-FIL_13
1002
{
1000
OWNER
1000
GEN
1002
}
  0
LINE
  5
1CB
  8
0
 10
182.9446035984659
 20
136.02424179853799
 30
0.0
 11
184.94460359845289
 21
136.02424179853841
 31
0.0
  0
ARC
  5
1CD
  8
2
 10
178.2443792979544
 20
141.32424179853979
 30
0.0
 40
0.3
 50
182.21574204042
 51
270.0
1001
GENIUS_GENODEF_13
1002
{
1000
HIER
1070
     0
1002
}
1002
{
1000
MANEDIT
1070
     0
1002
}
1002
{
1000
NOSEL
1070
     0
1002
}
1002
{
1000
BEHIND
1070
     0
1002
}
1002
{
1000
REACTOR
1002
}
1001
GENIUS_GENOBJ-N-FIL_13
1002
{
1000
OWNER
1000
GEN
1002
}
  0
LINE
  5
1D1
  8
2
 10
195.7146035984662
 20
151.0242417985398
 30
0.0
 11
193.71460359846611
 21
151.0242417985398
 31
0.0
  0
LINE
  5
1D2
  8
2
 10
195.7146035984662
 20
150.0242417985398
 30
0.0
 11
195.7146035984662
 21
151.0242417985398
 31
0.0
  0
LINE
  5
1D3
  8
2
 10
215.64460359846601
 20
172.0242417985398
 30
0.0
 11
195.71460359846509
 21
172.02424179853941
 31
0.0
  0
ARC
  5
1D4
  8
0
 10
196.31694794290411
 20
197.41273846622599
 30
0.0
 40
15.68847178319916
 50
228.5759809400941
 51
311.42401905990528
  0
LINE
  5
1D6
  8
0
 10
215.94460359846579
 20
172.02424179854131
 30
0.0
 11
215.64460359846601
 21
172.02424179854131
 31
0.0
  0
ARC
  5
1D7
  8
0
 10
209.1246035984656
 20
182.52424179854029
 30
0.0
 40
3.5
 50
0.0
 51
90.0
1001
GENIUS_GENODEF_13
1002
{
1000
HIER
1070
     0
1002
}
1002
{
1000
MANEDIT
1070
     0
1002
}
1002
{
1000
NOSEL
1070
     0
1002
}
1002
{
1000
BEHIND
1070
     0
1002
}
1002
{
1000
REACTOR
1002
}
1001
GENIUS_GENOBJ-N-FIL_13
1002
{
1000
OWNER
1000
GEN
1002
}
  0
LINE
  5
1D9
  8
0
 10
212.6246035984656
 20
182.52424179853949
 30
0.0
 11
215.64460359846561
 21
182.52424179853961
 31
0.0
  0
LINE
  5
1DA
  8
0
 10
212.624603598466
 20
182.5242417985389
 30
0.0
 11
215.64460359846601
 21
182.5242417985389
 31
0.0
  0
LINE
  5
1DB
  8
0
 10
207.6892922873563
 20
186.0242417985398
 30
0.0
 11
209.12460359846551
 21
186.02424179854029
 31
0.0
  0
ARC
  5
1DC
  8
0
 10
207.6892922873563
 20
184.52424179854029
 30
0.0
 40
1.5
 50
90.000000000009763
 51
131.42401905990531
1001
GENIUS_GENODEF_13
1002
{
1000
HIER
1070
     0
1002
}
1002
{
1000
MANEDIT
1070
     0
1002
}
1002
{
1000
NOSEL
1070
     0
1002
}
1002
{
1000
BEHIND
1070
     0
1002
}
1002
{
1000
REACTOR
1002
}
1001
GENIUS_GENOBJ-N-FIL_13
1002
{
1000
OWNER
1000
GEN
1002
}
  0
LINE
  5
1DD
  8
2
 10
187.73903817307939
 20
175.02424179853861
 30
0.0
 11
193.71460359846481
 21
175.02424179853921
 31
0.0
1001
GENIUS_GENOREF_13
1005
0
  0
LINE
  5
1DE
  8
2
 10
195.71460359846509
 20
172.02424179853941
 30
0.0
 11
195.7146035984652
 21
171.02424179853941
 31
0.0
  0
LINE
  5
1DF
  8
2
 10
195.7146035984652
 20
171.02424179853941
 30
0.0
 11
193.7146035984652
 21
171.02424179853909
 31
0.0
  0
ARC
  5
1E0
  8
2
 10
178.24437929795681
 20
180.72424179854141
 30
0.0
 40
0.3
 50
89.999999999993491
 51
177.78425797485801
1001
GENIUS_GENODEF_13
1002
{
1000
HIER
1070
     0
1002
}
1002
{
1000
MANEDIT
1070
     0
1002
}
1002
{
1000
NOSEL
1070
     0
1002
}
1002
{
1000
BEHIND
1070
     0
1002
}
1002
{
1000
REACTOR
1002
}
1001
GENIUS_GENOBJ-N-FIL_13
1002
{
1000
OWNER
1000
GEN
1002
}
  0
LINE
  5
1E3
  8
2
 10
178.24437929795681
 20
181.0242417985375
 30
0.0
 11
187.73903817307891
 21
181.02424179853821
 31
0.0
  0
LINE
  5
1E4
  8
0
 10
182.94460359846539
 20
186.0242417985398
 30
0.0
 11
184.94460359845249
 21
186.02424179853941
 31
0.0
  0
ARC
  5
1E5
  8
0
 10
184.94460359845249
 20
184.5242417985398
 30
0.0
 40
1.5
 50
48.575980940094141
 51
90.0
1001
GENIUS_GENODEF_13
1002
{
1000
HIER
1070
     0
1002
}
1002
{
1000
MANEDIT
1070
     0
1002
}
1002
{
1000
NOSEL
1070
     0
1002
}
1002
{
1000
BEHIND
1070
     0
1002
}
1002
{
1000
REACTOR
1002
}
1001
GENIUS_GENOBJ-N-FIL_13
1002
{
1000
OWNER
1000
GEN
1002
}
  0
LINE
  5
1E6
  8
1
 10
102.9446285984659
 20
191.02421679854061
 30
0.0
 11
102.9446285984659
 21
131.02426679854059
 31
0.0
  0
LINE
  5
1E7
  8
1
 10
132.9446035984659
 20
161.0242417985406
 30
0.0
 11
72.944653598465891
 21
161.0242417985406
 31
0.0
  0
ARC
  5
3A8
  8
0
 10
82.944628598463282
 20
81.024266798540282
 30
0.0
 40
5.0
 50
90.0
 51
180.0
1001
GENIUS_GENODEF_13
1002
{
1000
HIER
1070
     0
1002
}
1002
{
1000
MANEDIT
1070
     0
1002
}
1002
{
1000
NOSEL
1070
     0
1002
}
1002
{
1000
BEHIND
1070
     0
1002
}
1002
{
1000
REACTOR
1002
}
1001
GENIUS_GENOBJ-N-FIL_13
1002
{
1000
OWNER
1000
GEN
1002
}
  0
ARC
  5
3A9
  8
0
 10
122.9446285984651
 20
81.024266798540623
 30
0.0
 40
5.0
 50
0.0
 51
90.0
1001
GENIUS_GENODEF_13
1002
{
1000
HIER
1070
     0
1002
}
1002
{
1000
MANEDIT
1070
     0
1002
}
1002
{
1000
NOSEL
1070
     0
1002
}
1002
{
1000
BEHIND
1070
     0
1002
}
1002
{
1000
REACTOR
1002
}
1001
GENIUS_GENOBJ-N-FIL_13
1002
{
1000
OWNER
1000
GEN
1002
}
  0
LINE
  5
3AA
  8
1
 10
102.9446285984659
 20
43.02426679854068
 30
0.0
 11
102.9446285984659
 21
91.024266798540623
 31
0.0
  0
LINE
  5
3AD
  8
3
 10
126.4801625043977
 20
54.84426679854095
 30
0.0
 11
79.409094692531085
 21
54.844266798540502
 31
0.0
  0
POLYLINE
  5
3AE
  8
0
 10
102.9446285984654
 20
57.272017503437553
 30
0.0
 66
     1
 70
     8
  0
VERTEX
  8
0
  5
CF1
 10
102.945
 20
57.2720
 30
0.000000
  70
    32
  0
VERTEX
  8
0
  5
CF2
 10
103.287
 20
57.2751
 30
0.000000
  70
    32
  0
VERTEX
  8
0
  5
CF3
 10
103.630
 20
57.2845
 30
0.000000
  70
    32
  0
VERTEX
  8
0
  5
CF4
 10
103.972
 20
57.3001
 30
0.000000
  70
    32
  0
VERTEX
  8
0
  5
CF5
 10
104.313
 20
57.3220
 30
0.000000
  70
    32
  0
VERTEX
  8
0
  5
CF6
 10
104.654
 20
57.3501
 30
0.000000
  70
    32
  0
VERTEX
  8
0
  5
CF7
 10
104.994
 20
57.3844
 30
0.000000
  70
    32
  0
VERTEX
  8
0
  5
CF8
 10
105.332
 20
57.4248
 30
0.000000
  70
    32
  0
VERTEX
  8
0
  5
CF9
 10
105.669
 20
57.4715
 30
0.000000
  70
    32
  0
VERTEX
  8
0
  5
CFA
 10
106.005
 20
57.5242
 30
0.000000
  70
    32
  0
VERTEX
  8
0
  5
CFB
 10
106.338
 20
57.5831
 30
0.000000
  70
    32
  0
VERTEX
  8
0
  5
CFC
 10
106.669
 20
57.6480
 30
0.000000
  70
    32
  0
VERTEX
  8
0
  5
CFD
 10
106.999
 20
57.7190
 30
0.000000
  70
    32
  0
VERTEX
  8
0
  5
CFE
 10
107.325
 20
57.7959
 30
0.000000
  70
    32
  0
VERTEX
  8
0
  5
CFF
 10
107.650
 20
57.8788
 30
0.000000
  70
    32
  0
VERTEX
  8
0
  5
D00
 10
107.971
 20
57.9675
 30
0.000000
  70
    32
  0
VERTEX
  8
0
  5
D01
 10
108.289
 20
58.0621
 30
0.000000
  70
    32
  0
VERTEX
  8
0
  5
D02
 10
108.604
 20
58.1625
 30
0.000000
  70
    32
  0
VERTEX
  8
0
  5
D03
 10
108.916
 20
58.2686
 30
0.000000
  70
    32
  0
VERTEX
  8
0
  5
D04
 10
109.224
 20
58.3803
 30
0.000000
  70
    32
  0
VERTEX
  8
0
  5
D05
 10
109.528
 20
58.4977
 30
0.000000
  70
    32
  0
VERTEX
  8
0
  5
D06
 10
109.828
 20
58.6205
 30
0.000000
  70
    32
  0
VERTEX
  8
0
  5
D07
 10
110.124
 20
58.7488
 30
0.000000
  70
    32
  0
VERTEX
  8
0
  5
D08
 10
110.416
 20
58.8824
 30
0.000000
  70
    32
  0
VERTEX
  8
0
  5
D09
 10
110.704
 20
59.0213
 30
0.000000
  70
    32
  0
VERTEX
  8
0
  5
D0A
 10
110.986
 20
59.1655
 30
0.000000
  70
    32
  0
VERTEX
  8
0
  5
D0B
 10
111.264
 20
59.3147
 30
0.000000
  70
    32
  0
VERTEX
  8
0
  5
D0C
 10
111.537
 20
59.4690
 30
0.000000
  70
    32
  0
VERTEX
  8
0
  5
D0D
 10
111.804
 20
59.6281
 30
0.000000
  70
    32
  0
VERTEX
  8
0
  5
D0E
 10
112.067
 20
59.7922
 30
0.000000
  70
    32
  0
VERTEX
  8
0
  5
D0F
 10
112.323
 20
59.9609
 30
0.000000
  70
    32
  0
VERTEX
  8
0
  5
D10
 10
112.574
 20
60.1343
 30
0.000000
  70
    32
  0
VERTEX
  8
0
  5
D11
 10
112.820
 20
60.3122
 30
0.000000
  70
    32
  0
VERTEX
  8
0
  5
D12
 10
113.059
 20
60.4946
 30
0.000000
  70
    32
  0
VERTEX
  8
0
  5
D13
 10
113.292
 20
60.6812
 30
0.000000
  70
    32
  0
VERTEX
  8
0
  5
D14
 10
113.520
 20
60.8721
 30
0.000000
  70
    32
  0
VERTEX
  8
0
  5
D15
 10
113.740
 20
61.0670
 30
0.000000
  70
    32
  0
VERTEX
  8
0
  5
D16
 10
113.954
 20
61.2659
 30
0.000000
  70
    32
  0
VERTEX
  8
0
  5
D17
 10
114.162
 20
61.4686
 30
0.000000
  70
    32
  0
VERTEX
  8
0
  5
D18
 10
114.363
 20
61.6751
 30
0.000000
  70
    32
  0
VERTEX
  8
0
  5
D19
 10
114.557
 20
61.8852
 30
0.000000
  70
    32
  0
VERTEX
  8
0
  5
D1A
 10
114.744
 20
62.0987
 30
0.000000
  70
    32
  0
VERTEX
  8
0
  5
D1B
 10
114.923
 20
62.3156
 30
0.000000
  70
    32
  0
VERTEX
  8
0
  5
D1C
 10
115.096
 20
62.5357
 30
0.000000
  70
    32
  0
VERTEX
  8
0
  5
D1D
 10
115.261
 20
62.7589
 30
0.000000
  70
    32
  0
VERTEX
  8
0
  5
D1E
 10
115.419
 20
62.9850
 30
0.000000
  70
    32
  0
VERTEX
  8
0
  5
D1F
 10
115.569
 20
63.2139
 30
0.000000
  70
    32
  0
VERTEX
  8
0
  5
D20
 10
115.712
 20
63.4456
 30
0.000000
  70
    32
  0
VERTEX
  8
0
  5
D21
 10
115.847
 20
63.6797
 30
0.000000
  70
    32
  0
VERTEX
  8
0
  5
D22
 10
115.974
 20
63.9162
 30
0.000000
  70
    32
  0
VERTEX
  8
0
  5
D23
 10
116.094
 20
64.1550
 30
0.000000
  70
    32
  0
VERTEX
  8
0
  5
D24
 10
116.205
 20
64.3959
 30
0.000000
  70
    32
  0
VERTEX
  8
0
  5
D25
 10
116.309
 20
64.6388
 30
0.000000
  70
    32
  0
VERTEX
  8
0
  5
D26
 10
116.404
 20
64.8835
 30
0.000000
  70
    32
  0
VERTEX
  8
0
  5
D27
 10
116.492
 20
65.1298
 30
0.000000
  70
    32
  0
VERTEX
  8
0
  5
D28
 10
116.571
 20
65.3777
 30
0.000000
  70
    32
  0
VERTEX
  8
0
  5
D29
 10
116.642
 20
65.6269
 30
0.000000
  70
    32
  0
VERTEX
  8
0
  5
D2A
 10
116.705
 20
65.8774
 30
0.000000
  70
    32
  0
VERTEX
  8
0
  5
D2B
 10
116.759
 20
66.1289
 30
0.000000
  70
    32
  0
VERTEX
  8
0
  5
D2C
 10
116.805
 20
66.3813
 30
0.000000
  70
    32
  0
VERTEX
  8
0
  5
D2D
 10
116.843
 20
66.6345
 30
0.000000
  70
    32
  0
VERTEX
  8
0
  5
D2E
 10
116.872
 20
66.8883
 30
0.000000
  70
    32
  0
VERTEX
  8
0
  5
D2F
 10
116.893
 20
67.1426
 30
0.000000
  70
    32
  0
VERTEX
  8
0
  5
D30
 10
116.906
 20
67.3972
 30
0.000000
  70
    32
  0
VERTEX
  8
0
  5
D31
 10
116.910
 20
67.6519
 30
0.000000
  70
    32
  0
VERTEX
  8
0
  5
D32
 10
116.906
 20
67.9067
 30
0.000000
  70
    32
  0
VERTEX
  8
0
  5
D33
 10
116.893
 20
68.1612
 30
0.000000
  70
    32
  0
VERTEX
  8
0
  5
D34
 10
116.872
 20
68.4155
 30
0.000000
  70
    32
  0
VERTEX
  8
0
  5
D35
 10
116.843
 20
68.6693
 30
0.000000
  70
    32
  0
VERTEX
  8
0
  5
D36
 10
116.805
 20
68.9225
 30
0.000000
  70
    32
  0
VERTEX
  8
0
  5
D37
 10
116.759
 20
69.1750
 30
0.000000
  70
    32
  0
VERTEX
  8
0
  5
D38
 10
116.705
 20
69.4265
 30
0.000000
  70
    32
  0
VERTEX
  8
0
  5
D39
 10
116.642
 20
69.6769
 30
0.000000
  70
    32
  0
VERTEX
  8
0
  5
D3A
 10
116.571
 20
69.9262
 30
0.000000
  70
    32
  0
VERTEX
  8
0
  5
D3B
 10
116.492
 20
70.1740
 30
0.000000
  70
    32
  0
VERTEX
  8
0
  5
D3C
 10
116.404
 20
70.4204
 30
0.000000
  70
    32
  0
VERTEX
  8
0
  5
D3D
 10
116.309
 20
70.6650
 30
0.000000
  70
    32
  0
VERTEX
  8
0
  5
D3E
 10
116.205
 20
70.9079
 30
0.000000
  70
    32
  0
VERTEX
  8
0
  5
D3F
 10
116.094
 20
71.1488
 30
0.000000
  70
    32
  0
VERTEX
  8
0
  5
D40
 10
115.974
 20
71.3876
 30
0.000000
  70
    32
  0
VERTEX
  8
0
  5
D41
 10
115.847
 20
71.6241
 30
0.000000
  70
    32
  0
VERTEX
  8
0
  5
D42
 10
115.712
 20
71.8583
 30
0.000000
  70
    32
  0
VERTEX
  8
0
  5
D43
 10
115.569
 20
72.0899
 30
0.000000
  70
    32
  0
VERTEX
  8
0
  5
D44
 10
115.419
 20
72.3188
 30
0.000000
  70
    32
  0
VERTEX
  8
0
  5
D45
 10
115.261
 20
72.5450
 30
0.000000
  70
    32
  0
VERTEX
  8
0
  5
D46
 10
115.096
 20
72.7682
 30
0.000000
  70
    32
  0
VERTEX
  8
0
  5
D47
 10
114.923
 20
72.9883
 30
0.000000
  70
    32
  0
VERTEX
  8
0
  5
D48
 10
114.744
 20
73.2051
 30
0.000000
  70
    32
  0
VERTEX
  8
0
  5
D49
 10
114.557
 20
73.4187
 30
0.000000
  70
    32
  0
VERTEX
  8
0
  5
D4A
 10
114.363
 20
73.6288
 30
0.000000
  70
    32
  0
VERTEX
  8
0
  5
D4B
 10
114.162
 20
73.8352
 30
0.000000
  70
    32
  0
VERTEX
  8
0
  5
D4C
 10
113.954
 20
74.0380
 30
0.000000
  70
    32
  0
VERTEX
  8
0
  5
D4D
 10
113.740
 20
74.2369
 30
0.000000
  70
    32
  0
VERTEX
  8
0
  5
D4E
 10
113.520
 20
74.4318
 30
0.000000
  70
    32
  0
VERTEX
  8
0
  5
D4F
 10
113.292
 20
74.6226
 30
0.000000
  70
    32
  0
VERTEX
  8
0
  5
D50
 10
113.059
 20
74.8093
 30
0.000000
  70
    32
  0
VERTEX
  8
0
  5
D51
 10
112.820
 20
74.9916
 30
0.000000
  70
    32
  0
VERTEX
  8
0
  5
D52
 10
112.574
 20
75.1695
 30
0.000000
  70
    32
  0
VERTEX
  8
0
  5
D53
 10
112.323
 20
75.3429
 30
0.000000
  70
    32
  0
VERTEX
  8
0
  5
D54
 10
112.067
 20
75.5117
 30
0.000000
  70
    32
  0
VERTEX
  8
0
  5
D55
 10
111.804
 20
75.6757
 30
0.000000
  70
    32
  0
VERTEX
  8
0
  5
D56
 10
111.537
 20
75.8349
 30
0.000000
  70
    32
  0
VERTEX
  8
0
  5
D57
 10
111.264
 20
75.9891
 30
0.000000
  70
    32
  0
VERTEX
  8
0
  5
D58
 10
110.986
 20
76.1384
 30
0.000000
  70
    32
  0
VERTEX
  8
0
  5
D59
 10
110.704
 20
76.2825
 30
0.000000
  70
    32
  0
VERTEX
  8
0
  5
D5A
 10
110.416
 20
76.4214
 30
0.000000
  70
    32
  0
VERTEX
  8
0
  5
D5B
 10
110.124
 20
76.5551
 30
0.000000
  70
    32
  0
VERTEX
  8
0
  5
D5C
 10
109.828
 20
76.6833
 30
0.000000
  70
    32
  0
VERTEX
  8
0
  5
D5D
 10
109.528
 20
76.8062
 30
0.000000
  70
    32
  0
VERTEX
  8
0
  5
D5E
 10
109.224
 20
76.9235
 30
0.000000
  70
    32
  0
VERTEX
  8
0
  5
D5F
 10
108.916
 20
77.0352
 30
0.000000
  70
    32
  0
VERTEX
  8
0
  5
D60
 10
108.604
 20
77.1413
 30
0.000000
  70
    32
  0
VERTEX
  8
0
  5
D61
 10
108.289
 20
77.2417
 30
0.000000
  70
    32
  0
VERTEX
  8
0
  5
D62
 10
107.971
 20
77.3363
 30
0.000000
  70
    32
  0
VERTEX
  8
0
  5
D63
 10
107.650
 20
77.4251
 30
0.000000
  70
    32
  0
VERTEX
  8
0
  5
D64
 10
107.325
 20
77.5079
 30
0.000000
  70
    32
  0
VERTEX
  8
0
  5
D65
 10
106.999
 20
77.5849
 30
0.000000
  70
    32
  0
VERTEX
  8
0
  5
D66
 10
106.669
 20
77.6558
 30
0.000000
  70
    32
  0
VERTEX
  8
0
  5
D67
 10
106.338
 20
77.7208
 30
0.000000
  70
    32
  0
VERTEX
  8
0
  5
D68
 10
106.005
 20
77.7796
 30
0.000000
  70
    32
  0
VERTEX
  8
0
  5
D69
 10
105.669
 20
77.8324
 30
0.000000
  70
    32
  0
VERTEX
  8
0
  5
D6A
 10
105.332
 20
77.8790
 30
0.000000
  70
    32
  0
VERTEX
  8
0
  5
D6B
 10
104.994
 20
77.9195
 30
0.000000
  70
    32
  0
VERTEX
  8
0
  5
D6C
 10
104.654
 20
77.9538
 30
0.000000
  70
    32
  0
VERTEX
  8
0
  5
D6D
 10
104.313
 20
77.9818
 30
0.000000
  70
    32
  0
VERTEX
  8
0
  5
D6E
 10
103.972
 20
78.0037
 30
0.000000
  70
    32
  0
VERTEX
  8
0
  5
D6F
 10
103.630
 20
78.0193
 30
0.000000
  70
    32
  0
VERTEX
  8
0
  5
D70
 10
103.287
 20
78.0287
 30
0.000000
  70
    32
  0
VERTEX
  8
0
  5
D71
 10
102.945
 20
78.0318
 30
0.000000
  70
    32
  0
SEQEND
  8
0
  5
D72
  0
LINE
  5
3AF
  8
3
 10
126.4740535330167
 20
81.024266798540623
 30
0.0
 11
79.415203663911711
 21
81.024266798540097
 31
0.0
  0
ARC
  5
3B1
  8
0
 10
66.556131930777255
 20
67.651922454101737
 30
0.0
 40
15.68847178319916
 50
318.57598094009347
 51
41.424019059906414
  0
POLYLINE
  5
3B2
  8
0
 10
102.94462859846338
 20
57.272017503437553
 30
0.0
 66
     1
 70
     8
  0
VERTEX
  8
0
  5
D73
 10
102.945
 20
57.2720
 30
0.000000
  70
    32
  0
VERTEX
  8
0
  5
D74
 10
102.602
 20
57.2751
 30
0.000000
  70
    32
  0
VERTEX
  8
0
  5
D75
 10
102.259
 20
57.2845
 30
0.000000
  70
    32
  0
VERTEX
  8
0
  5
D76
 10
101.917
 20
57.3001
 30
0.000000
  70
    32
  0
VERTEX
  8
0
  5
D77
 10
101.576
 20
57.3220
 30
0.000000
  70
    32
  0
VERTEX
  8
0
  5
D78
 10
101.235
 20
57.3501
 30
0.000000
  70
    32
  0
VERTEX
  8
0
  5
D79
 10
100.895
 20
57.3844
 30
0.000000
  70
    32
  0
VERTEX
  8
0
  5
D7A
 10
100.557
 20
57.4248
 30
0.000000
  70
    32
  0
VERTEX
  8
0
  5
D7B
 10
100.220
 20
57.4715
 30
0.000000
  70
    32
  0
VERTEX
  8
0
  5
D7C
 10
99.8847
 20
57.5242
 30
0.000000
  70
    32
  0
VERTEX
  8
0
  5
D7D
 10
99.5513
 20
57.5831
 30
0.000000
  70
    32
  0
VERTEX
  8
0
  5
D7E
 10
99.2198
 20
57.6480
 30
0.000000
  70
    32
  0
VERTEX
  8
0
  5
D7F
 10
98.8906
 20
57.7190
 30
0.000000
  70
    32
  0
VERTEX
  8
0
  5
D80
 10
98.5639
 20
57.7959
 30
0.000000
  70
    32
  0
VERTEX
  8
0
  5
D81
 10
98.2397
 20
57.8788
 30
0.000000
  70
    32
  0
VERTEX
  8
0
  5
D82
 10
97.9185
 20
57.9675
 30
0.000000
  70
    32
  0
VERTEX
  8
0
  5
D83
 10
97.6002
 20
58.0621
 30
0.000000
  70
    32
  0
VERTEX
  8
0
  5
D84
 10
97.2852
 20
58.1625
 30
0.000000
  70
    32
  0
VERTEX
  8
0
  5
D85
 10
96.9736
 20
58.2686
 30
0.000000
  70
    32
  0
VERTEX
  8
0
  5
D86
 10
96.6655
 20
58.3803
 30
0.000000
  70
    32
  0
VERTEX
  8
0
  5
D87
 10
96.3613
 20
58.4977
 30
0.000000
  70
    32
  0
VERTEX
  8
0
  5
D88
 10
96.0610
 20
58.6205
 30
0.000000
  70
    32
  0
VERTEX
  8
0
  5
D89
 10
95.7649
 20
58.7488
 30
0.000000
  70
    32
  0
VERTEX
  8
0
  5
D8A
 10
95.4730
 20
58.8824
 30
0.000000
  70
    32
  0
VERTEX
  8
0
  5
D8B
 10
95.1857
 20
59.0213
 30
0.000000
  70
    32
  0
VERTEX
  8
0
  5
D8C
 10
94.9031
 20
59.1655
 30
0.000000
  70
    32
  0
VERTEX
  8
0
  5
D8D
 10
94.6253
 20
59.3147
 30
0.000000
  70
    32
  0
VERTEX
  8
0
  5
D8E
 10
94.3525
 20
59.4690
 30
0.000000
  70
    32
  0
VERTEX
  8
0
  5
D8F
 10
94.0849
 20
59.6281
 30
0.000000
  70
    32
  0
VERTEX
  8
0
  5
D90
 10
93.8227
 20
59.7922
 30
0.000000
  70
    32
  0
VERTEX
  8
0
  5
D91
 10
93.5659
 20
59.9609
 30
0.000000
  70
    32
  0
VERTEX
  8
0
  5
D92
 10
93.3148
 20
60.1343
 30
0.000000
  70
    32
  0
VERTEX
  8
0
  5
D93
 10
93.0694
 20
60.3122
 30
0.000000
  70
    32
  0
VERTEX
  8
0
  5
D94
 10
92.8301
 20
60.4946
 30
0.000000
  70
    32
  0
VERTEX
  8
0
  5
D95
 10
92.5968
 20
60.6812
 30
0.000000
  70
    32
  0
VERTEX
  8
0
  5
D96
 10
92.3697
 20
60.8721
 30
0.000000
  70
    32
  0
VERTEX
  8
0
  5
D97
 10
92.1491
 20
61.0670
 30
0.000000
  70
    32
  0
VERTEX
  8
0
  5
D98
 10
91.9349
 20
61.2659
 30
0.000000
  70
    32
  0
VERTEX
  8
0
  5
D99
 10
91.7273
 20
61.4686
 30
0.000000
  70
    32
  0
VERTEX
  8
0
  5
D9A
 10
91.5265
 20
61.6751
 30
0.000000
  70
    32
  0
VERTEX
  8
0
  5
D9B
 10
91.3326
 20
61.8852
 30
0.000000
  70
    32
  0
VERTEX
  8
0
  5
D9C
 10
91.1457
 20
62.0987
 30
0.000000
  70
    32
  0
VERTEX
  8
0
  5
D9D
 10
90.9659
 20
62.3156
 30
0.000000
  70
    32
  0
VERTEX
  8
0
  5
D9E
 10
90.7933
 20
62.5357
 30
0.000000
  70
    32
  0
VERTEX
  8
0
  5
D9F
 10
90.6280
 20
62.7589
 30
0.000000
  70
    32
  0
VERTEX
  8
0
  5
DA0
 10
90.4702
 20
62.9850
 30
0.000000
  70
    32
  0
VERTEX
  8
0
  5
DA1
 10
90.3198
 20
63.2139
 30
0.000000
  70
    32
  0
VERTEX
  8
0
  5
DA2
 10
90.1771
 20
63.4456
 30
0.000000
  70
    32
  0
VERTEX
  8
0
  5
DA3
 10
90.0421
 20
63.6797
 30
0.000000
  70
    32
  0
VERTEX
  8
0
  5
DA4
 10
89.9148
 20
63.9162
 30
0.000000
  70
    32
  0
VERTEX
  8
0
  5
DA5
 10
89.7954
 20
64.1550
 30
0.000000
  70
    32
  0
VERTEX
  8
0
  5
DA6
 10
89.6839
 20
64.3959
 30
0.000000
  70
    32
  0
VERTEX
  8
0
  5
DA7
 10
89.5804
 20
64.6388
 30
0.000000
  70
    32
  0
VERTEX
  8
0
  5
DA8
 10
89.4849
 20
64.8835
 30
0.000000
  70
    32
  0
VERTEX
  8
0
  5
DA9
 10
89.3975
 20
65.1298
 30
0.000000
  70
    32
  0
VERTEX
  8
0
  5
DAA
 10
89.3183
 20
65.3777
 30
0.000000
  70
    32
  0
VERTEX
  8
0
  5
DAB
 10
89.2473
 20
65.6269
 30
0.000000
  70
    32
  0
VERTEX
  8
0
  5
DAC
 10
89.1846
 20
65.8774
 30
0.000000
  70
    32
  0
VERTEX
  8
0
  5
DAD
 10
89.1302
 20
66.1289
 30
0.000000
  70
    32
  0
VERTEX
  8
0
  5
DAE
 10
89.0840
 20
66.3813
 30
0.000000
  70
    32
  0
VERTEX
  8
0
  5
DAF
 10
89.0462
 20
66.6345
 30
0.000000
  70
    32
  0
VERTEX
  8
0
  5
DB0
 10
89.0168
 20
66.8883
 30
0.000000
  70
    32
  0
VERTEX
  8
0
  5
DB1
 10
88.9958
 20
67.1426
 30
0.000000
  70
    32
  0
VERTEX
  8
0
  5
DB2
 10
88.9832
 20
67.3972
 30
0.000000
  70
    32
  0
VERTEX
  8
0
  5
DB3
 10
88.9790
 20
67.6519
 30
0.000000
  70
    32
  0
VERTEX
  8
0
  5
DB4
 10
88.9832
 20
67.9067
 30
0.000000
  70
    32
  0
VERTEX
  8
0
  5
DB5
 10
88.9958
 20
68.1612
 30
0.000000
  70
    32
  0
VERTEX
  8
0
  5
DB6
 10
89.0168
 20
68.4155
 30
0.000000
  70
    32
  0
VERTEX
  8
0
  5
DB7
 10
89.0462
 20
68.6693
 30
0.000000
  70
    32
  0
VERTEX
  8
0
  5
DB8
 10
89.0840
 20
68.9225
 30
0.000000
  70
    32
  0
VERTEX
  8
0
  5
DB9
 10
89.1302
 20
69.1750
 30
0.000000
  70
    32
  0
VERTEX
  8
0
  5
DBA
 10
89.1846
 20
69.4265
 30
0.000000
  70
    32
  0
VERTEX
  8
0
  5
DBB
 10
89.2473
 20
69.6769
 30
0.000000
  70
    32
  0
VERTEX
  8
0
  5
DBC
 10
89.3183
 20
69.9262
 30
0.000000
  70
    32
  0
VERTEX
  8
0
  5
DBD
 10
89.3975
 20
70.1740
 30
0.000000
  70
    32
  0
VERTEX
  8
0
  5
DBE
 10
89.4849
 20
70.4204
 30
0.000000
  70
    32
  0
VERTEX
  8
0
  5
DBF
 10
89.5804
 20
70.6650
 30
0.000000
  70
    32
  0
VERTEX
  8
0
  5
DC0
 10
89.6839
 20
70.9079
 30
0.000000
  70
    32
  0
VERTEX
  8
0
  5
DC1
 10
89.7954
 20
71.1488
 30
0.000000
  70
    32
  0
VERTEX
  8
0
  5
DC2
 10
89.9148
 20
71.3876
 30
0.000000
  70
    32
  0
VERTEX
  8
0
  5
DC3
 10
90.0421
 20
71.6241
 30
0.000000
  70
    32
  0
VERTEX
  8
0
  5
DC4
 10
90.1771
 20
71.8583
 30
0.000000
  70
    32
  0
VERTEX
  8
0
  5
DC5
 10
90.3198
 20
72.0899
 30
0.000000
  70
    32
  0
VERTEX
  8
0
  5
DC6
 10
90.4702
 20
72.3188
 30
0.000000
  70
    32
  0
VERTEX
  8
0
  5
DC7
 10
90.6280
 20
72.5450
 30
0.000000
  70
    32
  0
VERTEX
  8
0
  5
DC8
 10
90.7933
 20
72.7682
 30
0.000000
  70
    32
  0
VERTEX
  8
0
  5
DC9
 10
90.9659
 20
72.9883
 30
0.000000
  70
    32
  0
VERTEX
  8
0
  5
DCA
 10
91.1457
 20
73.2051
 30
0.000000
  70
    32
  0
VERTEX
  8
0
  5
DCB
 10
91.3326
 20
73.4187
 30
0.000000
  70
    32
  0
VERTEX
  8
0
  5
DCC
 10
91.5265
 20
73.6288
 30
0.000000
  70
    32
  0
VERTEX
  8
0
  5
DCD
 10
91.7273
 20
73.8352
 30
0.000000
  70
    32
  0
VERTEX
  8
0
  5
DCE
 10
91.9349
 20
74.0380
 30
0.000000
  70
    32
  0
VERTEX
  8
0
  5
DCF
 10
92.1491
 20
74.2369
 30
0.000000
  70
    32
  0
VERTEX
  8
0
  5
DD0
 10
92.3697
 20
74.4318
 30
0.000000
  70
    32
  0
VERTEX
  8
0
  5
DD1
 10
92.5968
 20
74.6226
 30
0.000000
  70
    32
  0
VERTEX
  8
0
  5
DD2
 10
92.8301
 20
74.8093
 30
0.000000
  70
    32
  0
VERTEX
  8
0
  5
DD3
 10
93.0694
 20
74.9916
 30
0.000000
  70
    32
  0
VERTEX
  8
0
  5
DD4
 10
93.3148
 20
75.1695
 30
0.000000
  70
    32
  0
VERTEX
  8
0
  5
DD5
 10
93.5659
 20
75.3429
 30
0.000000
  70
    32
  0
VERTEX
  8
0
  5
DD6
 10
93.8227
 20
75.5117
 30
0.000000
  70
    32
  0
VERTEX
  8
0
  5
DD7
 10
94.0849
 20
75.6757
 30
0.000000
  70
    32
  0
VERTEX
  8
0
  5
DD8
 10
94.3525
 20
75.8349
 30
0.000000
  70
    32
  0
VERTEX
  8
0
  5
DD9
 10
94.6253
 20
75.9891
 30
0.000000
  70
    32
  0
VERTEX
  8
0
  5
DDA
 10
94.9031
 20
76.1384
 30
0.000000
  70
    32
  0
VERTEX
  8
0
  5
DDB
 10
95.1857
 20
76.2825
 30
0.000000
  70
    32
  0
VERTEX
  8
0
  5
DDC
 10
95.4730
 20
76.4214
 30
0.000000
  70
    32
  0
VERTEX
  8
0
  5
DDD
 10
95.7649
 20
76.5551
 30
0.000000
  70
    32
  0
VERTEX
  8
0
  5
DDE
 10
96.0610
 20
76.6833
 30
0.000000
  70
    32
  0
VERTEX
  8
0
  5
DDF
 10
96.3613
 20
76.8062
 30
0.000000
  70
    32
  0
VERTEX
  8
0
  5
DE0
 10
96.6655
 20
76.9235
 30
0.000000
  70
    32
  0
VERTEX
  8
0
  5
DE1
 10
96.9736
 20
77.0352
 30
0.000000
  70
    32
  0
VERTEX
  8
0
  5
DE2
 10
97.2852
 20
77.1413
 30
0.000000
  70
    32
  0
VERTEX
  8
0
  5
DE3
 10
97.6002
 20
77.2417
 30
0.000000
  70
    32
  0
VERTEX
  8
0
  5
DE4
 10
97.9185
 20
77.3363
 30
0.000000
  70
    32
  0
VERTEX
  8
0
  5
DE5
 10
98.2397
 20
77.4251
 30
0.000000
  70
    32
  0
VERTEX
  8
0
  5
DE6
 10
98.5639
 20
77.5079
 30
0.000000
  70
    32
  0
VERTEX
  8
0
  5
DE7
 10
98.8906
 20
77.5849
 30
0.000000
  70
    32
  0
VERTEX
  8
0
  5
DE8
 10
99.2198
 20
77.6558
 30
0.000000
  70
    32
  0
VERTEX
  8
0
  5
DE9
 10
99.5513
 20
77.7208
 30
0.000000
  70
    32
  0
VERTEX
  8
0
  5
DEA
 10
99.8847
 20
77.7796
 30
0.000000
  70
    32
  0
VERTEX
  8
0
  5
DEB
 10
100.220
 20
77.8324
 30
0.000000
  70
    32
  0
VERTEX
  8
0
  5
DEC
 10
100.557
 20
77.8790
 30
0.000000
  70
    32
  0
VERTEX
  8
0
  5
DED
 10
100.895
 20
77.9195
 30
0.000000
  70
    32
  0
VERTEX
  8
0
  5
DEE
 10
101.235
 20
77.9538
 30
0.000000
  70
    32
  0
VERTEX
  8
0
  5
DEF
 10
101.576
 20
77.9818
 30
0.000000
  70
    32
  0
VERTEX
  8
0
  5
DF0
 10
101.917
 20
78.0037
 30
0.000000
  70
    32
  0
VERTEX
  8
0
  5
DF1
 10
102.259
 20
78.0193
 30
0.000000
  70
    32
  0
VERTEX
  8
0
  5
DF2
 10
102.602
 20
78.0287
 30
0.000000
  70
    32
  0
VERTEX
  8
0
  5
DF3
 10
102.945
 20
78.0318
 30
0.000000
  70
    32
  0
SEQEND
  8
0
  5
DF4
  0
LINE
  5
3B5
  8
0
 10
81.444628598464178
 20
51.344266798540623
 30
0.0
 11
124.44462859846421
 21
51.344266798540957
 31
0.0
  0
LINE
  5
3B6
  8
1
 10
124.9798834027082
 20
62.024266798540388
 30
0.0
 11
116.15138238297691
 21
62.024266798540388
 31
0.0
  0
ARC
  5
3B7
  8
0
 10
81.444628598463737
 20
54.844266798540211
 30
0.0
 40
3.5
 50
180.0
 51
270.0
1001
GENIUS_GENODEF_13
1002
{
1000
HIER
1070
     0
1002
}
1002
{
1000
MANEDIT
1070
     0
1002
}
1002
{
1000
NOSEL
1070
     0
1002
}
1002
{
1000
BEHIND
1070
     0
1002
}
1002
{
1000
REACTOR
1002
}
1001
GENIUS_GENOBJ-N-FIL_13
1002
{
1000
OWNER
1000
GEN
1002
}
  0
ARC
  5
3B8
  8
0
 10
81.444628598463282
 20
54.844266798540609
 30
0.0
 40
3.5
 50
180.0
 51
270.0
1001
GENIUS_GENODEF_13
1002
{
1000
HIER
1070
     0
1002
}
1002
{
1000
MANEDIT
1070
     0
1002
}
1002
{
1000
NOSEL
1070
     0
1002
}
1002
{
1000
BEHIND
1070
     0
1002
}
1002
{
1000
REACTOR
1002
}
1001
GENIUS_GENOBJ-N-FIL_13
1002
{
1000
OWNER
1000
GEN
1002
}
  0
LINE
  5
3B9
  8
0
 10
81.444628598464746
 20
51.344266798540218
 30
0.0
 11
81.444628598464746
 21
48.324266798540229
 31
0.0
  0
LINE
  5
3BA
  8
0
 10
81.444628598464178
 20
51.344266798540623
 30
0.0
 11
81.444628598464078
 21
48.324266798540627
 31
0.0
  0
ARC
  5
3BB
  8
0
 10
79.444628598463282
 20
56.279578109649833
 30
0.0
 40
1.5
 50
138.57598094009359
 51
179.99999999999019
1001
GENIUS_GENODEF_13
1002
{
1000
HIER
1070
     0
1002
}
1002
{
1000
MANEDIT
1070
     0
1002
}
1002
{
1000
NOSEL
1070
     0
1002
}
1002
{
1000
BEHIND
1070
     0
1002
}
1002
{
1000
REACTOR
1002
}
1001
GENIUS_GENOBJ-N-FIL_13
1002
{
1000
OWNER
1000
GEN
1002
}
  0
LINE
  5
3BC
  8
0
 10
77.944628598463737
 20
56.279578109649783
 30
0.0
 11
77.944628598463282
 21
54.844266798540559
 31
0.0
  0
LINE
  5
3BD
  8
0
 10
81.444628598464078
 20
48.32426679854035
 30
0.0
 11
124.44462859846421
 21
48.324266798540577
 31
0.0
  0
LINE
  5
3BE
  8
0
 10
91.944628598465101
 20
48.02426679854068
 30
0.0
 11
113.94462859846659
 21
48.024266798540737
 31
0.0
  0
LINE
  5
3BF
  8
0
 10
91.944628598465101
 20
48.02426679854068
 30
0.0
 11
91.944628598463851
 21
48.324266798540407
 31
0.0
  0
LINE
  5
3C0
  8
0
 10
91.944628598465101
 20
48.324266798540577
 30
0.0
 11
91.944628598465101
 21
48.324266798540577
 31
0.0
  0
LINE
  5
3C1
  8
0
 10
82.944628598464988
 20
86.024266798540282
 30
0.0
 11
122.944628598465
 21
86.024266798540964
 31
0.0
  0
ARC
  5
3C8
  8
0
 10
79.444628598463282
 20
79.02426679855364
 30
0.0
 40
1.5
 50
180.0
 51
221.4240190599057
1001
GENIUS_GENODEF_13
1002
{
1000
HIER
1070
     0
1002
}
1002
{
1000
MANEDIT
1070
     0
1002
}
1002
{
1000
NOSEL
1070
     0
1002
}
1002
{
1000
BEHIND
1070
     0
1002
}
1002
{
1000
REACTOR
1002
}
1001
GENIUS_GENOBJ-N-FIL_13
1002
{
1000
OWNER
1000
GEN
1002
}
  0
LINE
  5
3C9
  8
0
 10
77.944628598463282
 20
81.024266798540623
 30
0.0
 11
77.944628598463737
 21
79.024266798553583
 31
0.0
  0
ARC
  5
3CF
  8
0
 10
139.33312526615131
 20
67.651922454102362
 30
0.0
 40
15.68847178319916
 50
138.57598094009359
 51
221.4240190599057
  0
LINE
  5
3D0
  8
0
 10
113.94462859846659
 20
48.02426679854171
 30
0.0
 11
113.94462859846659
 21
48.324266798540577
 31
0.0
  0
ARC
  5
3D1
  8
0
 10
124.4446285984655
 20
54.84426679854095
 30
0.0
 40
3.5
 50
270.0
 51
0.0
1001
GENIUS_GENODEF_13
1002
{
1000
HIER
1070
     0
1002
}
1002
{
1000
MANEDIT
1070
     0
1002
}
1002
{
1000
NOSEL
1070
     0
1002
}
1002
{
1000
BEHIND
1070
     0
1002
}
1002
{
1000
REACTOR
1002
}
1001
GENIUS_GENOBJ-N-FIL_13
1002
{
1000
OWNER
1000
GEN
1002
}
  0
ARC
  5
3D2
  8
0
 10
124.4446285984651
 20
54.844266798540559
 30
0.0
 40
3.5
 50
270.0
 51
0.0
1001
GENIUS_GENODEF_13
1002
{
1000
HIER
1070
     0
1002
}
1002
{
1000
MANEDIT
1070
     0
1002
}
1002
{
1000
NOSEL
1070
     0
1002
}
1002
{
1000
BEHIND
1070
     0
1002
}
1002
{
1000
REACTOR
1002
}
1001
GENIUS_GENOBJ-N-FIL_13
1002
{
1000
OWNER
1000
GEN
1002
}
  0
LINE
  5
3D3
  8
0
 10
124.4446285984647
 20
51.344266798540957
 30
0.0
 11
124.4446285984649
 21
48.324266798540982
 31
0.0
  0
LINE
  5
3D4
  8
0
 10
124.44462859846421
 20
51.344266798540559
 30
0.0
 11
124.44462859846421
 21
48.324266798540577
 31
0.0
  0
LINE
  5
3D5
  8
0
 10
127.9446285984651
 20
56.279578109650231
 30
0.0
 11
127.9446285984655
 21
54.844266798541007
 31
0.0
  0
ARC
  5
3D6
  8
0
 10
126.4446285984655
 20
56.279578109650231
 30
0.0
 40
1.5
 50
0.0000000000097707
 51
41.424019059906414
1001
GENIUS_GENODEF_13
1002
{
1000
HIER
1070
     0
1002
}
1002
{
1000
MANEDIT
1070
     0
1002
}
1002
{
1000
NOSEL
1070
     0
1002
}
1002
{
1000
BEHIND
1070
     0
1002
}
1002
{
1000
REACTOR
1002
}
1001
GENIUS_GENOBJ-N-FIL_13
1002
{
1000
OWNER
1000
GEN
1002
}
  0
LINE
  5
3DC
  8
0
 10
127.9446285984651
 20
81.024266798541078
 30
0.0
 11
127.9446285984646
 21
79.024266798554038
 31
0.0
  0
ARC
  5
3DD
  8
0
 10
126.4446285984651
 20
79.024266798554038
 30
0.0
 40
1.5
 50
318.57598094009347
 51
0.0
1001
GENIUS_GENODEF_13
1002
{
1000
HIER
1070
     0
1002
}
1002
{
1000
MANEDIT
1070
     0
1002
}
1002
{
1000
NOSEL
1070
     0
1002
}
1002
{
1000
BEHIND
1070
     0
1002
}
1002
{
1000
REACTOR
1002
}
1001
GENIUS_GENOBJ-N-FIL_13
1002
{
1000
OWNER
1000
GEN
1002
}
  0
LINE
  5
621
  8
1
 10
109.4512303162639
 20
171.63084351633859
 30
0.0
 11
117.65123031626391
 21
171.63084351633859
 31
0.0
  0
LINE
  5
622
  8
1
 10
113.5512303162639
 20
167.53084351633859
 30
0.0
 11
113.5512303162639
 21
175.73084351633861
 31
0.0
  0
CIRCLE
  5
623
  8
2
 10
113.5512303162639
 20
171.63084351633859
 30
0.0
 40
2.0999999999999992
  0
LINE
  5
665
  8
1
 10
113.551230316264
 20
57.624266798540411
 30
0.0
 11
113.551230316264
 21
45.024266798540737
 31
0.0
  0
POLYLINE
  5
68D
  8
0
 66
     1
 10
0.0
 20
0.0
 30
0.0
  0
VERTEX
  5
9D9
  8
0
 10
120.6222981281296
 20
64.024266798540339
 30
0.0
  0
VERTEX
  5
9DA
  8
0
 10
120.6420746442061
 20
64.024071014583626
 30
0.0
  0
VERTEX
  5
9DB
  8
0
 10
120.6818248282063
 20
64.022488302558372
 30
0.0
  0
VERTEX
  5
9DC
  8
0
 10
120.7217788367484
 20
64.019284343049776
 30
0.0
  0
VERTEX
  5
9DD
  8
0
 10
120.7418100903151
 20
64.017063578593707
 30
0.0
  0
VERTEX
  5
9DE
  8
0
 10
120.7618657151577
 20
64.014425365717045
 30
0.0
  0
VERTEX
  5
9DF
  8
0
 10
120.80201500585009
 20
64.007884326505234
 30
0.0
  0
VERTEX
  5
9E0
  8
0
 10
120.8421574099839
 20
63.999640774783067
 30
0.0
  0
VERTEX
  5
9E1
  8
0
 10
120.88222543173799
 20
63.989680588236297
 30
0.0
  0
VERTEX
  5
9E2
  8
0
 10
120.9221539543684
 20
63.977995588060253
 30
0.0
  0
VERTEX
  5
9E3
  8
0
 10
120.96187967278919
 20
63.964583433045497
 30
0.0
  0
VERTEX
  5
9E4
  8
0
 10
120.98164683432989
 20
63.957230634020902
 30
0.0
  0
VERTEX
  5
9E5
  8
0
 10
121.0013398009857
 20
63.949447982580459
 30
0.0
  0
VERTEX
  5
9E6
  8
0
 10
121.0404723912597
 20
63.932599319830608
 30
0.0
  0
VERTEX
  5
9E7
  8
0
 10
121.0792169394613
 20
63.914053584815242
 30
0.0
  0
VERTEX
  5
9E8
  8
0
 10
121.1175149522184
 20
63.893832692862311
 30
0.0
  0
VERTEX
  5
9E9
  8
0
 10
121.15531047918761
 20
63.871963937643329
 30
0.0
  0
VERTEX
  5
9EA
  8
0
 10
121.192559243633
 20
63.848473803849508
 30
0.0
  0
VERTEX
  5
9EB
  8
0
 10
121.21096574073999
 20
63.83612963590997
 30
0.0
  0
VERTEX
  5
9EC
  8
0
 10
121.2292184568764
 20
63.823392565520969
 30
0.0
  0
VERTEX
  5
9ED
  8
0
 10
121.26523747324261
 20
63.796761449729608
 30
0.0
  0
VERTEX
  5
9EE
  8
0
 10
121.30056726733299
 20
63.76862753138181
 30
0.0
  0
VERTEX
  5
9EF
  8
0
 10
121.3179589640159
 20
63.754013259680498
 30
0.0
  0
VERTEX
  5
9F0
  8
0
 10
121.3351609800864
 20
63.739043434006241
 30
0.0
  0
VERTEX
  5
9F1
  8
0
 10
121.36897441684749
 20
63.70806692602968
 30
0.0
  0
VERTEX
  5
9F2
  8
0
 10
121.4019665010444
 20
63.675760411321392
 30
0.0
  0
VERTEX
  5
9F3
  8
0
 10
121.4181426232943
 20
63.659129052753883
 30
0.0
  0
VERTEX
  5
9F4
  8
0
 10
121.4340994300491
 20
63.64219058734119
 30
0.0
  0
VERTEX
  5
9F5
  8
0
 10
121.4653375856503
 20
63.607429480745623
 30
0.0
  0
VERTEX
  5
9F6
  8
0
 10
121.4956471758212
 20
63.571555069449801
 30
0.0
  0
VERTEX
  5
9F7
  8
0
 10
121.5249967716091
 20
63.534650962774087
 30
0.0
  0
VERTEX
  5
9F8
  8
0
 10
121.55335781970351
 20
63.496805943235579
 30
0.0
  0
VERTEX
  5
9F9
  8
0
 10
121.5807050925209
 20
63.45811341181814
 30
0.0
  0
VERTEX
  5
9FA
  8
0
 10
121.5939916867615
 20
63.438479620970952
 30
0.0
  0
VERTEX
  5
9FB
  8
0
 10
121.6070827736157
 20
63.418569380114491
 30
0.0
  0
VERTEX
  5
9FC
  8
0
 10
121.6328494419575
 20
63.377641940539149
 30
0.0
  0
VERTEX
  5
9FD
  8
0
 10
121.6580105362259
 20
63.335272344675211
 30
0.0
  0
VERTEX
  5
9FE
  8
0
 10
121.6825068337934
 20
63.291505914741947
 30
0.0
  0
VERTEX
  5
9FF
  8
0
 10
121.7062824933427
 20
63.246392832112633
 30
0.0
  0
VERTEX
  5
A00
  8
0
 10
121.72928537279169
 20
63.199987395727533
 30
0.0
  0
VERTEX
  5
A01
  8
0
 10
121.740481800174
 20
63.176317937270248
 30
0.0
  0
VERTEX
  5
A02
  8
0
 10
121.75146728014261
 20
63.152347194026447
 30
0.0
  0
VERTEX
  5
A03
  8
0
 10
121.7727841310911
 20
63.103532249215618
 30
0.0
  0
VERTEX
  5
A04
  8
0
 10
121.7931954858975
 20
63.053605491564213
 30
0.0
  0
VERTEX
  5
A05
  8
0
 10
121.8126638193223
 20
63.002634303624973
 30
0.0
  0
VERTEX
  5
A06
  8
0
 10
121.83115470205161
 20
62.95069021524705
 30
0.0
  0
VERTEX
  5
A07
  8
0
 10
121.84863709196421
 20
62.897848165450682
 30
0.0
  0
VERTEX
  5
A08
  8
0
 10
121.8569913835961
 20
62.871114561600727
 30
0.0
  0
VERTEX
  5
A09
  8
0
 10
121.8650835558787
 20
62.844185709048872
 30
0.0
  0
VERTEX
  5
A0A
  8
0
 10
121.8804704238114
 20
62.789782164531402
 30
0.0
  0
VERTEX
  5
A0B
  8
0
 10
121.8947810887539
 20
62.734704774342219
 30
0.0
  0
VERTEX
  5
A0C
  8
0
 10
121.90800127416691
 20
62.679022393793502
 30
0.0
  0
VERTEX
  5
A0D
  8
0
 10
121.9201160076254
 20
62.622820211351723
 30
0.0
  0
VERTEX
  5
A0E
  8
0
 10
121.9311136470518
 20
62.566186345505621
 30
0.0
  0
VERTEX
  5
A0F
  8
0
 10
121.9361908880531
 20
62.537735668995708
 30
0.0
  0
VERTEX
  5
A10
  8
0
 10
121.9409861146363
 20
62.509211026993739
 30
0.0
  0
VERTEX
  5
A11
  8
0
 10
121.9497290584294
 20
62.451985744580099
 30
0.0
  0
VERTEX
  5
A12
  8
0
 10
121.9573419428968
 20
62.394602351100097
 30
0.0
  0
VERTEX
  5
A13
  8
0
 10
121.96382801987519
 20
62.337152594760539
 30
0.0
  0
VERTEX
  5
A14
  8
0
 10
121.9691940829842
 20
62.279729963465059
 30
0.0
  0
VERTEX
  5
A15
  8
0
 10
121.9734505321405
 20
62.222430473110478
 30
0.0
  0
VERTEX
  5
A16
  8
0
 10
121.975166950567
 20
62.193857396119363
 30
0.0
  0
VERTEX
  5
A17
  8
0
 10
121.9766116236858
 20
62.165351822126517
 30
0.0
  0
VERTEX
  5
A18
  8
0
 10
121.9786956467062
 20
62.108592464666962
 30
0.0
  0
VERTEX
  5
A19
  8
0
 10
121.9797250176769
 20
62.052250675780037
 30
0.0
  0
VERTEX
  5
A1A
  8
0
 10
121.97985234754501
 20
62.024266798540388
 30
0.0
  0
VERTEX
  5
A1B
  8
0
 10
121.9797250176769
 20
61.996282921300804
 30
0.0
  0
VERTEX
  5
A1C
  8
0
 10
121.9786956467062
 20
61.939941132413871
 30
0.0
  0
VERTEX
  5
A1D
  8
0
 10
121.9766116236858
 20
61.883181774954267
 30
0.0
  0
VERTEX
  5
A1E
  8
0
 10
121.975166950567
 20
61.854676200961421
 30
0.0
  0
VERTEX
  5
A1F
  8
0
 10
121.9734505321405
 20
61.826103123970313
 30
0.0
  0
VERTEX
  5
A20
  8
0
 10
121.9691940829842
 20
61.768803633615732
 30
0.0
  0
VERTEX
  5
A21
  8
0
 10
121.96382801987519
 20
61.711381002320252
 30
0.0
  0
VERTEX
  5
A22
  8
0
 10
121.9573419428968
 20
61.653931245980743
 30
0.0
  0
VERTEX
  5
A23
  8
0
 10
121.9497290584294
 20
61.596547852500692
 30
0.0
  0
VERTEX
  5
A24
  8
0
 10
121.9409861146363
 20
61.539322570087052
 30
0.0
  0
VERTEX
  5
A25
  8
0
 10
121.9361908880531
 20
61.51079792808514
 30
0.0
  0
VERTEX
  5
A26
  8
0
 10
121.9311136470517
 20
61.48234725157522
 30
0.0
  0
VERTEX
  5
A27
  8
0
 10
121.9201160076254
 20
61.425713385729061
 30
0.0
  0
VERTEX
  5
A28
  8
0
 10
121.90800127416691
 20
61.369511203287288
 30
0.0
  0
VERTEX
  5
A29
  8
0
 10
121.8947810887539
 20
61.313828822738571
 30
0.0
  0
VERTEX
  5
A2A
  8
0
 10
121.8804704238114
 20
61.258751432549388
 30
0.0
  0
VERTEX
  5
A2B
  8
0
 10
121.8650835558787
 20
61.204347888031982
 30
0.0
  0
VERTEX
  5
A2C
  8
0
 10
121.8569913835961
 20
61.17741903548005
 30
0.0
  0
VERTEX
  5
A2D
  8
0
 10
121.84863709196421
 20
61.150685431630158
 30
0.0
  0
VERTEX
  5
A2E
  8
0
 10
121.83115470205161
 20
61.097843381833741
 30
0.0
  0
VERTEX
  5
A2F
  8
0
 10
121.8126638193223
 20
61.045899293455818
 30
0.0
  0
VERTEX
  5
A30
  8
0
 10
121.7931954858975
 20
60.994928105516578
 30
0.0
  0
VERTEX
  5
A31
  8
0
 10
121.7727841310911
 20
60.945001347865173
 30
0.0
  0
VERTEX
  5
A32
  8
0
 10
121.75146728014261
 20
60.896186403054351
 30
0.0
  0
VERTEX
  5
A33
  8
0
 10
121.740481800174
 20
60.872215659810593
 30
0.0
  0
VERTEX
  5
A34
  8
0
 10
121.72928537279169
 20
60.848546201353308
 30
0.0
  0
VERTEX
  5
A35
  8
0
 10
121.7062824933427
 20
60.802140764968208
 30
0.0
  0
VERTEX
  5
A36
  8
0
 10
121.6825068337934
 20
60.757027682338901
 30
0.0
  0
VERTEX
  5
A37
  8
0
 10
121.6580105362259
 20
60.713261252405573
 30
0.0
  0
VERTEX
  5
A38
  8
0
 10
121.6328494419575
 20
60.670891656541698
 30
0.0
  0
VERTEX
  5
A39
  8
0
 10
121.6070827736157
 20
60.6299642169663
 30
0.0
  0
VERTEX
  5
A3A
  8
0
 10
121.5939916867615
 20
60.610053976109832
 30
0.0
  0
VERTEX
  5
A3B
  8
0
 10
121.5807050925209
 20
60.590420185262637
 30
0.0
  0
VERTEX
  5
A3C
  8
0
 10
121.55335781970351
 20
60.551727653845198
 30
0.0
  0
VERTEX
  5
A3D
  8
0
 10
121.5249967716091
 20
60.513882634306697
 30
0.0
  0
VERTEX
  5
A3E
  8
0
 10
121.4956471758212
 20
60.47697852763099
 30
0.0
  0
VERTEX
  5
A3F
  8
0
 10
121.4653375856503
 20
60.441104116335168
 30
0.0
  0
VERTEX
  5
A40
  8
0
 10
121.4340994300491
 20
60.406343009739601
 30
0.0
  0
VERTEX
  5
A41
  8
0
 10
121.4181426232943
 20
60.389404544326972
 30
0.0
  0
VERTEX
  5
A42
  8
0
 10
121.4019665010444
 20
60.372773185759449
 30
0.0
  0
VERTEX
  5
A43
  8
0
 10
121.36897441684749
 20
60.340466671051097
 30
0.0
  0
VERTEX
  5
A44
  8
0
 10
121.3351609800864
 20
60.309490163074543
 30
0.0
  0
VERTEX
  5
A45
  8
0
 10
121.3179589640159
 20
60.294520337400279
 30
0.0
  0
VERTEX
  5
A46
  8
0
 10
121.30056726733299
 20
60.279906065698981
 30
0.0
  0
VERTEX
  5
A47
  8
0
 10
121.26523747324261
 20
60.251772147351232
 30
0.0
  0
VERTEX
  5
A48
  8
0
 10
121.2292184568764
 20
60.225141031559872
 30
0.0
  0
VERTEX
  5
A49
  8
0
 10
121.21096574073999
 20
60.212403961170878
 30
0.0
  0
VERTEX
  5
A4A
  8
0
 10
121.192559243633
 20
60.200059793231333
 30
0.0
  0
VERTEX
  5
A4B
  8
0
 10
121.15531047918761
 20
60.176569659437519
 30
0.0
  0
VERTEX
  5
A4C
  8
0
 10
121.1175149522184
 20
60.154700904218487
 30
0.0
  0
VERTEX
  5
A4D
  8
0
 10
121.0792169394613
 20
60.134480012265612
 30
0.0
  0
VERTEX
  5
A4E
  8
0
 10
121.0404723912597
 20
60.115934277250233
 30
0.0
  0
VERTEX
  5
A4F
  8
0
 10
121.0013398009857
 20
60.099085614500382
 30
0.0
  0
VERTEX
  5
A50
  8
0
 10
120.98164683432989
 20
60.091302963059888
 30
0.0
  0
VERTEX
  5
A51
  8
0
 10
120.96187967278919
 20
60.083950164035343
 30
0.0
  0
VERTEX
  5
A52
  8
0
 10
120.9221539543684
 20
60.070538009020531
 30
0.0
  0
VERTEX
  5
A53
  8
0
 10
120.88222543173799
 20
60.058853008844487
 30
0.0
  0
VERTEX
  5
A54
  8
0
 10
120.8421574099839
 20
60.048892822297717
 30
0.0
  0
VERTEX
  5
A55
  8
0
 10
120.80201500585009
 20
60.040649270575607
 30
0.0
  0
VERTEX
  5
A56
  8
0
 10
120.7618657151577
 20
60.034108231363803
 30
0.0
  0
VERTEX
  5
A57
  8
0
 10
120.7418100903151
 20
60.031470018487141
 30
0.0
  0
VERTEX
  5
A58
  8
0
 10
120.7217788367484
 20
60.029249254031072
 30
0.0
  0
VERTEX
  5
A59
  8
0
 10
120.6818248282063
 20
60.026045294522412
 30
0.0
  0
VERTEX
  5
A5A
  8
0
 10
120.6420746442061
 20
60.024462582497158
 30
0.0
  0
VERTEX
  5
A5B
  8
0
 10
120.6222981281296
 20
60.024266798540452
 30
0.0
  0
SEQEND
  5
A5C
  8
0
  0
POLYLINE
  5
68E
  8
0
 66
     1
 10
0.0
 20
0.0
 30
0.0
  0
VERTEX
  5
A5D
  8
0
 10
120.6222981281296
 20
60.024266798540452
 30
0.0
  0
VERTEX
  5
A5E
  8
0
 10
120.6024994627041
 20
60.024462582497158
 30
0.0
  0
VERTEX
  5
A5F
  8
0
 10
120.56257030309411
 20
60.026045294522412
 30
0.0
  0
VERTEX
  5
A60
  8
0
 10
120.5222544166909
 20
60.029249254031072
 30
0.0
  0
VERTEX
  5
A61
  8
0
 10
120.50197267284619
 20
60.031470018487141
 30
0.0
  0
VERTEX
  5
A62
  8
0
 10
120.481619832072
 20
60.034108231363803
 30
0.0
  0
VERTEX
  5
A63
  8
0
 10
120.4407353281749
 20
60.040649270575607
 30
0.0
  0
VERTEX
  5
A64
  8
0
 10
120.39966977403689
 20
60.048892822297717
 30
0.0
  0
VERTEX
  5
A65
  8
0
 10
120.3584914624886
 20
60.058853008844487
 30
0.0
  0
VERTEX
  5
A66
  8
0
 10
120.31726749064001
 20
60.070538009020531
 30
0.0
  0
VERTEX
  5
A67
  8
0
 10
120.2760643071657
 20
60.083950164035343
 30
0.0
  0
VERTEX
  5
A68
  8
0
 10
120.2554914642826
 20
60.091302963059888
 30
0.0
  0
VERTEX
  5
A69
  8
0
 10
120.2349490277926
 20
60.099085614500382
 30
0.0
  0
VERTEX
  5
A6A
  8
0
 10
120.1939890917364
 20
60.115934277250233
 30
0.0
  0
VERTEX
  5
A6B
  8
0
 10
120.15325160272251
 20
60.134480012265612
 30
0.0
  0
VERTEX
  5
A6C
  8
0
 10
120.1128026881467
 20
60.154700904218487
 30
0.0
  0
VERTEX
  5
A6D
  8
0
 10
120.0727068747685
 20
60.176569659437519
 30
0.0
  0
VERTEX
  5
A6E
  8
0
 10
120.03301726355561
 20
60.200059793231333
 30
0.0
  0
VERTEX
  5
A6F
  8
0
 10
120.01334054180749
 20
60.212403961170878
 30
0.0
  0
VERTEX
  5
A70
  8
0
 10
119.99378616444881
 20
60.225141031559872
 30
0.0
  0
VERTEX
  5
A71
  8
0
 10
119.9550751081096
 20
60.251772147351232
 30
0.0
  0
VERTEX
  5
A72
  8
0
 10
119.9169447510947
 20
60.279906065698981
 30
0.0
  0
VERTEX
  5
A73
  8
0
 10
119.8981158880578
 20
60.294520337400279
 30
0.0
  0
VERTEX
  5
A74
  8
0
 10
119.87945421671679
 20
60.309490163074543
 30
0.0
  0
VERTEX
  5
A75
  8
0
 10
119.84266047098519
 20
60.340466671051097
 30
0.0
  0
VERTEX
  5
A76
  8
0
 10
119.80661773231481
 20
60.372773185759449
 30
0.0
  0
VERTEX
  5
A77
  8
0
 10
119.78889407887389
 20
60.389404544326972
 30
0.0
  0
VERTEX
  5
A78
  8
0
 10
119.7713771961014
 20
60.406343009739601
 30
0.0
  0
VERTEX
  5
A79
  8
0
 10
119.73698812927719
 20
60.441104116335168
 30
0.0
  0
VERTEX
  5
A7A
  8
0
 10
119.70349818273731
 20
60.47697852763099
 30
0.0
  0
VERTEX
  5
A7B
  8
0
 10
119.67095271796219
 20
60.513882634306697
 30
0.0
  0
VERTEX
  5
A7C
  8
0
 10
119.63939414850159
 20
60.551727653845198
 30
0.0
  0
VERTEX
  5
A7D
  8
0
 10
119.6088613413116
 20
60.590420185262637
 30
0.0
  0
VERTEX
  5
A7E
  8
0
 10
119.5939906403255
 20
60.610053976109832
 30
0.0
  0
VERTEX
  5
A7F
  8
0
 10
119.57931537521139
 20
60.6299642169663
 30
0.0
  0
VERTEX
  5
A80
  8
0
 10
119.55036259925259
 20
60.670891656541698
 30
0.0
  0
VERTEX
  5
A81
  8
0
 10
119.52200283118189
 20
60.713261252405573
 30
0.0
  0
VERTEX
  5
A82
  8
0
 10
119.4943089348964
 20
60.757027682338901
 30
0.0
  0
VERTEX
  5
A83
  8
0
 10
119.46735062387241
 20
60.802140764968208
 30
0.0
  0
VERTEX
  5
A84
  8
0
 10
119.4411939946559
 20
60.848546201353308
 30
0.0
  0
VERTEX
  5
A85
  8
0
 10
119.4284358777274
 20
60.872215659810593
 30
0.0
  0
VERTEX
  5
A86
  8
0
 10
119.41590112979721
 20
60.896186403054351
 30
0.0
  0
VERTEX
  5
A87
  8
0
 10
119.39152980323
 20
60.945001347865173
 30
0.0
  0
VERTEX
  5
A88
  8
0
 10
119.3681338969708
 20
60.994928105516578
 30
0.0
  0
VERTEX
  5
A89
  8
0
 10
119.345764135511
 20
61.045899293455818
 30
0.0
  0
VERTEX
  5
A8A
  8
0
 10
119.3244677838356
 20
61.097843381833741
 30
0.0
  0
VERTEX
  5
A8B
  8
0
 10
119.3042882183279
 20
61.150685431630158
 30
0.0
  0
VERTEX
  5
A8C
  8
0
 10
119.2946296346623
 20
61.17741903548005
 30
0.0
  0
VERTEX
  5
A8D
  8
0
 10
119.28526457765931
 20
61.204347888031982
 30
0.0
  0
VERTEX
  5
A8E
  8
0
 10
119.26743149397061
 20
61.258751432549388
 30
0.0
  0
VERTEX
  5
A8F
  8
0
 10
119.2508151727336
 20
61.313828822738571
 30
0.0
  0
VERTEX
  5
A90
  8
0
 10
119.23543879202199
 20
61.369511203287288
 30
0.0
  0
VERTEX
  5
A91
  8
0
 10
119.2213259779967
 20
61.425713385729132
 30
0.0
  0
VERTEX
  5
A92
  8
0
 10
119.20849608131959
 20
61.48234725157522
 30
0.0
  0
VERTEX
  5
A93
  8
0
 10
119.20256702253209
 20
61.51079792808514
 30
0.0
  0
VERTEX
  5
A94
  8
0
 10
119.19696384967931
 20
61.539322570087052
 30
0.0
  0
VERTEX
  5
A95
  8
0
 10
119.1867391912028
 20
61.596547852500692
 30
0.0
  0
VERTEX
  5
A96
  8
0
 10
119.17782702892001
 20
61.653931245980743
 30
0.0
  0
VERTEX
  5
A97
  8
0
 10
119.1702273044817
 20
61.711381002320252
 30
0.0
  0
VERTEX
  5
A98
  8
0
 10
119.1639352459547
 20
61.768803633615732
 30
0.0
  0
VERTEX
  5
A99
  8
0
 10
119.1589412825269
 20
61.826103123970313
 30
0.0
  0
VERTEX
  5
A9A
  8
0
 10
119.15692670913521
 20
61.854676200961421
 30
0.0
  0
VERTEX
  5
A9B
  8
0
 10
119.155230750383
 20
61.883181774954267
 30
0.0
  0
VERTEX
  5
A9C
  8
0
 10
119.15278369406791
 20
61.939941132413871
 30
0.0
  0
VERTEX
  5
A9D
  8
0
 10
119.1515747732187
 20
61.996282921300804
 30
0.0
  0
VERTEX
  5
A9E
  8
0
 10
119.15142522279891
 20
62.024266798540388
 30
0.0
  0
VERTEX
  5
A9F
  8
0
 10
119.1515747732187
 20
62.052250675780037
 30
0.0
  0
VERTEX
  5
AA0
  8
0
 10
119.15278369406791
 20
62.108592464666962
 30
0.0
  0
VERTEX
  5
AA1
  8
0
 10
119.155230750383
 20
62.165351822126517
 30
0.0
  0
VERTEX
  5
AA2
  8
0
 10
119.15692670913521
 20
62.193857396119363
 30
0.0
  0
VERTEX
  5
AA3
  8
0
 10
119.1589412825269
 20
62.222430473110478
 30
0.0
  0
VERTEX
  5
AA4
  8
0
 10
119.1639352459547
 20
62.279729963465059
 30
0.0
  0
VERTEX
  5
AA5
  8
0
 10
119.1702273044817
 20
62.337152594760539
 30
0.0
  0
VERTEX
  5
AA6
  8
0
 10
119.17782702892001
 20
62.394602351100097
 30
0.0
  0
VERTEX
  5
AA7
  8
0
 10
119.1867391912028
 20
62.451985744580099
 30
0.0
  0
VERTEX
  5
AA8
  8
0
 10
119.19696384967931
 20
62.509211026993739
 30
0.0
  0
VERTEX
  5
AA9
  8
0
 10
119.20256702253209
 20
62.537735668995708
 30
0.0
  0
VERTEX
  5
AAA
  8
0
 10
119.20849608131959
 20
62.566186345505621
 30
0.0
  0
VERTEX
  5
AAB
  8
0
 10
119.2213259779967
 20
62.622820211351723
 30
0.0
  0
VERTEX
  5
AAC
  8
0
 10
119.23543879202199
 20
62.679022393793502
 30
0.0
  0
VERTEX
  5
AAD
  8
0
 10
119.2508151727336
 20
62.734704774342219
 30
0.0
  0
VERTEX
  5
AAE
  8
0
 10
119.26743149397061
 20
62.789782164531402
 30
0.0
  0
VERTEX
  5
AAF
  8
0
 10
119.28526457765931
 20
62.844185709048872
 30
0.0
  0
VERTEX
  5
AB0
  8
0
 10
119.2946296346623
 20
62.871114561600727
 30
0.0
  0
VERTEX
  5
AB1
  8
0
 10
119.3042882183279
 20
62.897848165450682
 30
0.0
  0
VERTEX
  5
AB2
  8
0
 10
119.3244677838356
 20
62.95069021524705
 30
0.0
  0
VERTEX
  5
AB3
  8
0
 10
119.345764135511
 20
63.00263430362503
 30
0.0
  0
VERTEX
  5
AB4
  8
0
 10
119.3681338969708
 20
63.053605491564213
 30
0.0
  0
VERTEX
  5
AB5
  8
0
 10
119.39152980323
 20
63.103532249215618
 30
0.0
  0
VERTEX
  5
AB6
  8
0
 10
119.41590112979721
 20
63.152347194026447
 30
0.0
  0
VERTEX
  5
AB7
  8
0
 10
119.4284358777274
 20
63.176317937270248
 30
0.0
  0
VERTEX
  5
AB8
  8
0
 10
119.4411939946559
 20
63.199987395727533
 30
0.0
  0
VERTEX
  5
AB9
  8
0
 10
119.46735062387241
 20
63.246392832112633
 30
0.0
  0
VERTEX
  5
ABA
  8
0
 10
119.4943089348964
 20
63.291505914741947
 30
0.0
  0
VERTEX
  5
ABB
  8
0
 10
119.52200283118189
 20
63.335272344675211
 30
0.0
  0
VERTEX
  5
ABC
  8
0
 10
119.55036259925259
 20
63.377641940539149
 30
0.0
  0
VERTEX
  5
ABD
  8
0
 10
119.57931537521139
 20
63.418569380114491
 30
0.0
  0
VERTEX
  5
ABE
  8
0
 10
119.5939906403255
 20
63.438479620970952
 30
0.0
  0
VERTEX
  5
ABF
  8
0
 10
119.6088613413116
 20
63.45811341181814
 30
0.0
  0
VERTEX
  5
AC0
  8
0
 10
119.63939414850159
 20
63.496805943235579
 30
0.0
  0
VERTEX
  5
AC1
  8
0
 10
119.67095271796219
 20
63.534650962774087
 30
0.0
  0
VERTEX
  5
AC2
  8
0
 10
119.70349818273731
 20
63.571555069449801
 30
0.0
  0
VERTEX
  5
AC3
  8
0
 10
119.73698812927719
 20
63.607429480745623
 30
0.0
  0
VERTEX
  5
AC4
  8
0
 10
119.7713771961014
 20
63.64219058734119
 30
0.0
  0
VERTEX
  5
AC5
  8
0
 10
119.78889407887389
 20
63.659129052753883
 30
0.0
  0
VERTEX
  5
AC6
  8
0
 10
119.80661773231481
 20
63.675760411321392
 30
0.0
  0
VERTEX
  5
AC7
  8
0
 10
119.84266047098519
 20
63.70806692602968
 30
0.0
  0
VERTEX
  5
AC8
  8
0
 10
119.87945421671679
 20
63.739043434006241
 30
0.0
  0
VERTEX
  5
AC9
  8
0
 10
119.8981158880578
 20
63.754013259680498
 30
0.0
  0
VERTEX
  5
ACA
  8
0
 10
119.9169447510949
 20
63.76862753138181
 30
0.0
  0
VERTEX
  5
ACB
  8
0
 10
119.9550751081096
 20
63.796761449729608
 30
0.0
  0
VERTEX
  5
ACC
  8
0
 10
119.99378616444881
 20
63.823392565520969
 30
0.0
  0
VERTEX
  5
ACD
  8
0
 10
120.01334054180749
 20
63.83612963590997
 30
0.0
  0
VERTEX
  5
ACE
  8
0
 10
120.03301726355561
 20
63.848473803849508
 30
0.0
  0
VERTEX
  5
ACF
  8
0
 10
120.0727068747685
 20
63.871963937643329
 30
0.0
  0
VERTEX
  5
AD0
  8
0
 10
120.1128026881467
 20
63.893832692862311
 30
0.0
  0
VERTEX
  5
AD1
  8
0
 10
120.15325160272251
 20
63.914053584815242
 30
0.0
  0
VERTEX
  5
AD2
  8
0
 10
120.1939890917364
 20
63.932599319830608
 30
0.0
  0
VERTEX
  5
AD3
  8
0
 10
120.2349490277926
 20
63.949447982580459
 30
0.0
  0
VERTEX
  5
AD4
  8
0
 10
120.2554914642826
 20
63.957230634020902
 30
0.0
  0
VERTEX
  5
AD5
  8
0
 10
120.2760643071657
 20
63.964583433045497
 30
0.0
  0
VERTEX
  5
AD6
  8
0
 10
120.31726749064001
 20
63.977995588060253
 30
0.0
  0
VERTEX
  5
AD7
  8
0
 10
120.3584914624886
 20
63.989680588236297
 30
0.0
  0
VERTEX
  5
AD8
  8
0
 10
120.39966977403689
 20
63.999640774783067
 30
0.0
  0
VERTEX
  5
AD9
  8
0
 10
120.4407353281749
 20
64.007884326505234
 30
0.0
  0
VERTEX
  5
ADA
  8
0
 10
120.481619832072
 20
64.014425365717045
 30
0.0
  0
VERTEX
  5
ADB
  8
0
 10
120.50197267284619
 20
64.017063578593707
 30
0.0
  0
VERTEX
  5
ADC
  8
0
 10
120.5222544166909
 20
64.019284343049776
 30
0.0
  0
VERTEX
  5
ADD
  8
0
 10
120.56257030309411
 20
64.022488302558372
 30
0.0
  0
VERTEX
  5
ADE
  8
0
 10
120.6024994627041
 20
64.024071014583626
 30
0.0
  0
VERTEX
  5
ADF
  8
0
 10
120.6222981281296
 20
64.024266798540339
 30
0.0
  0
SEQEND
  5
AE0
  8
0
  0
LINE
  5
68F
  8
1
 10
120.6222981281304
 20
67.024266798540353
 30
0.0
 11
120.6222981281304
 21
57.024266798540452
 31
0.0
  0
POLYLINE
  5
6F5
  8
0
 66
     1
 10
0.0
 20
0.0
 30
0.0
  0
VERTEX
  5
AE1
  8
0
 10
199.9446035984661
 20
143.34657226887691
 30
0.0
  0
VERTEX
  5
AE2
  8
0
 10
199.94479938242279
 20
143.36637093430241
 30
0.0
  0
VERTEX
  5
AE3
  8
0
 10
199.9463820944481
 20
143.40630009391231
 30
0.0
  0
VERTEX
  5
AE4
  8
0
 10
199.94958605395669
 20
143.44661598031561
 30
0.0
  0
VERTEX
  5
AE5
  8
0
 10
199.95180681841279
 20
143.4668977241603
 30
0.0
  0
VERTEX
  5
AE6
  8
0
 10
199.95444503128951
 20
143.48725056493441
 30
0.0
  0
VERTEX
  5
AE7
  8
0
 10
199.96098607050129
 20
143.5281350688316
 30
0.0
  0
VERTEX
  5
AE8
  8
0
 10
199.96922962222339
 20
143.5692006229695
 30
0.0
  0
VERTEX
  5
AE9
  8
0
 10
199.9791898087702
 20
143.61037893451791
 30
0.0
  0
VERTEX
  5
AEA
  8
0
 10
199.99087480894619
 20
143.65160290636649
 30
0.0
  0
VERTEX
  5
AEB
  8
0
 10
200.00428696396099
 20
143.69280608984079
 30
0.0
  0
VERTEX
  5
AEC
  8
0
 10
200.01163976298551
 20
143.71337893272391
 30
0.0
  0
VERTEX
  5
AED
  8
0
 10
200.019422414426
 20
143.7339213692139
 30
0.0
  0
VERTEX
  5
AEE
  8
0
 10
200.03627107717591
 20
143.7748813052701
 30
0.0
  0
VERTEX
  5
AEF
  8
0
 10
200.05481681219129
 20
143.81561879428389
 30
0.0
  0
VERTEX
  5
AF0
  8
0
 10
200.07503770414419
 20
143.85606770885971
 30
0.0
  0
VERTEX
  5
AF1
  8
0
 10
200.0969064593632
 20
143.896163522238
 30
0.0
  0
VERTEX
  5
AF2
  8
0
 10
200.12039659315701
 20
143.93585313345091
 30
0.0
  0
VERTEX
  5
AF3
  8
0
 10
200.13274076109661
 20
143.9555298551989
 30
0.0
  0
VERTEX
  5
AF4
  8
0
 10
200.14547783148549
 20
143.97508423255769
 30
0.0
  0
VERTEX
  5
AF5
  8
0
 10
200.17210894727691
 20
144.0137952888968
 30
0.0
  0
VERTEX
  5
AF6
  8
0
 10
200.20024286562469
 20
144.05192564591169
 30
0.0
  0
VERTEX
  5
AF7
  8
0
 10
200.21485713732599
 20
144.0707545089486
 30
0.0
  0
VERTEX
  5
AF8
  8
0
 10
200.22982696300019
 20
144.0894161802897
 30
0.0
  0
VERTEX
  5
AF9
  8
0
 10
200.26080347097681
 20
144.1262099260212
 30
0.0
  0
VERTEX
  5
AFA
  8
0
 10
200.29310998568511
 20
144.16225266469161
 30
0.0
  0
VERTEX
  5
AFB
  8
0
 10
200.30974134425259
 20
144.17997631813259
 30
0.0
  0
VERTEX
  5
AFC
  8
0
 10
200.32667980966531
 20
144.19749320090509
 30
0.0
  0
VERTEX
  5
AFD
  8
0
 10
200.3614409162609
 20
144.2318822677293
 30
0.0
  0
VERTEX
  5
AFE
  8
0
 10
200.3973153275567
 20
144.26537221426921
 30
0.0
  0
VERTEX
  5
AFF
  8
0
 10
200.4342194342324
 20
144.2979176790443
 30
0.0
  0
VERTEX
  5
B00
  8
0
 10
200.47206445377091
 20
144.32947624850479
 30
0.0
  0
VERTEX
  5
B01
  8
0
 10
200.51075698518829
 20
144.36000905569489
 30
0.0
  0
VERTEX
  5
B02
  8
0
 10
200.53039077603549
 20
144.374879756681
 30
0.0
  0
VERTEX
  5
B03
  8
0
 10
200.55030101689201
 20
144.3895550217951
 30
0.0
  0
VERTEX
  5
B04
  8
0
 10
200.59122845646741
 20
144.4185077977539
 30
0.0
  0
VERTEX
  5
B05
  8
0
 10
200.63359805233131
 20
144.44686756582459
 30
0.0
  0
VERTEX
  5
B06
  8
0
 10
200.67736448226461
 20
144.47456146210999
 30
0.0
  0
VERTEX
  5
B07
  8
0
 10
200.72247756489389
 20
144.50151977313411
 30
0.0
  0
VERTEX
  5
B08
  8
0
 10
200.76888300127899
 20
144.52767640235061
 30
0.0
  0
VERTEX
  5
B09
  8
0
 10
200.7925524597363
 20
144.54043451927899
 30
0.0
  0
VERTEX
  5
B0A
  8
0
 10
200.81652320297999
 20
144.55296926720931
 30
0.0
  0
VERTEX
  5
B0B
  8
0
 10
200.86533814779091
 20
144.57734059377651
 30
0.0
  0
VERTEX
  5
B0C
  8
0
 10
200.9152649054422
 20
144.60073650003571
 30
0.0
  0
VERTEX
  5
B0D
  8
0
 10
200.9662360933815
 20
144.62310626149551
 30
0.0
  0
VERTEX
  5
B0E
  8
0
 10
201.0181801817595
 20
144.64440261317091
 30
0.0
  0
VERTEX
  5
B0F
  8
0
 10
201.07102223155579
 20
144.66458217867859
 30
0.0
  0
VERTEX
  5
B10
  8
0
 10
201.09775583540571
 20
144.6742407623442
 30
0.0
  0
VERTEX
  5
B11
  8
0
 10
201.1246846879576
 20
144.68360581934721
 30
0.0
  0
VERTEX
  5
B12
  8
0
 10
201.1790882324751
 20
144.70143890303581
 30
0.0
  0
VERTEX
  5
B13
  8
0
 10
201.23416562266419
 20
144.71805522427289
 30
0.0
  0
VERTEX
  5
B14
  8
0
 10
201.289848003213
 20
144.7334316049845
 30
0.0
  0
VERTEX
  5
B15
  8
0
 10
201.3460501856548
 20
144.74754441900981
 30
0.0
  0
VERTEX
  5
B16
  8
0
 10
201.4026840515009
 20
144.7603743156869
 30
0.0
  0
VERTEX
  5
B17
  8
0
 10
201.4311347280107
 20
144.7663033744744
 30
0.0
  0
VERTEX
  5
B18
  8
0
 10
201.4596593700127
 20
144.77190654732709
 30
0.0
  0
VERTEX
  5
B19
  8
0
 10
201.5168846524264
 20
144.78213120580369
 30
0.0
  0
VERTEX
  5
B1A
  8
0
 10
201.57426804590639
 20
144.79104336808649
 30
0.0
  0
VERTEX
  5
B1B
  8
0
 10
201.6317178022459
 20
144.7986430925248
 30
0.0
  0
VERTEX
  5
B1C
  8
0
 10
201.68914043354141
 20
144.80493515105181
 30
0.0
  0
VERTEX
  5
B1D
  8
0
 10
201.74643992389599
 20
144.80992911447959
 30
0.0
  0
VERTEX
  5
B1E
  8
0
 10
201.77501300088721
 20
144.81194368787129
 30
0.0
  0
VERTEX
  5
B1F
  8
0
 10
201.80351857488
 20
144.8136396466235
 30
0.0
  0
VERTEX
  5
B20
  8
0
 10
201.86027793233961
 20
144.81608670293861
 30
0.0
  0
VERTEX
  5
B21
  8
0
 10
201.91661972122651
 20
144.8172956237878
 30
0.0
  0
VERTEX
  5
B22
  8
0
 10
201.9446035984661
 20
144.81744517420759
 30
0.0
  0
VERTEX
  5
B23
  8
0
 10
201.97258747570569
 20
144.8172956237878
 30
0.0
  0
VERTEX
  5
B24
  8
0
 10
202.0289292645927
 20
144.81608670293861
 30
0.0
  0
VERTEX
  5
B25
  8
0
 10
202.0856886220522
 20
144.8136396466235
 30
0.0
  0
VERTEX
  5
B26
  8
0
 10
202.1141941960451
 20
144.81194368787129
 30
0.0
  0
VERTEX
  5
B27
  8
0
 10
202.14276727303621
 20
144.80992911447959
 30
0.0
  0
VERTEX
  5
B28
  8
0
 10
202.20006676339071
 20
144.80493515105181
 30
0.0
  0
VERTEX
  5
B29
  8
0
 10
202.25748939468619
 20
144.7986430925248
 30
0.0
  0
VERTEX
  5
B2A
  8
0
 10
202.31493915102581
 20
144.79104336808649
 30
0.0
  0
VERTEX
  5
B2B
  8
0
 10
202.37232254450581
 20
144.78213120580369
 30
0.0
  0
VERTEX
  5
B2C
  8
0
 10
202.42954782691939
 20
144.77190654732709
 30
0.0
  0
VERTEX
  5
B2D
  8
0
 10
202.45807246892139
 20
144.7663033744744
 30
0.0
  0
VERTEX
  5
B2E
  8
0
 10
202.48652314543131
 20
144.7603743156869
 30
0.0
  0
VERTEX
  5
B2F
  8
0
 10
202.5431570112774
 20
144.74754441900981
 30
0.0
  0
VERTEX
  5
B30
  8
0
 10
202.59935919371921
 20
144.7334316049845
 30
0.0
  0
VERTEX
  5
B31
  8
0
 10
202.6550415742679
 20
144.71805522427289
 30
0.0
  0
VERTEX
  5
B32
  8
0
 10
202.71011896445711
 20
144.70143890303581
 30
0.0
  0
VERTEX
  5
B33
  8
0
 10
202.76452250897461
 20
144.68360581934709
 30
0.0
  0
VERTEX
  5
B34
  8
0
 10
202.79145136152641
 20
144.6742407623442
 30
0.0
  0
VERTEX
  5
B35
  8
0
 10
202.81818496537639
 20
144.66458217867859
 30
0.0
  0
VERTEX
  5
B36
  8
0
 10
202.8710270151727
 20
144.64440261317091
 30
0.0
  0
VERTEX
  5
B37
  8
0
 10
202.92297110355071
 20
144.62310626149551
 30
0.0
  0
VERTEX
  5
B38
  8
0
 10
202.97394229148989
 20
144.60073650003571
 30
0.0
  0
VERTEX
  5
B39
  8
0
 10
203.02386904914141
 20
144.57734059377651
 30
0.0
  0
VERTEX
  5
B3A
  8
0
 10
203.07268399395221
 20
144.55296926720931
 30
0.0
  0
VERTEX
  5
B3B
  8
0
 10
203.09665473719599
 20
144.54043451927899
 30
0.0
  0
VERTEX
  5
B3C
  8
0
 10
203.12032419565321
 20
144.52767640235061
 30
0.0
  0
VERTEX
  5
B3D
  8
0
 10
203.16672963203831
 20
144.50151977313411
 30
0.0
  0
VERTEX
  5
B3E
  8
0
 10
203.2118427146676
 20
144.47456146210999
 30
0.0
  0
VERTEX
  5
B3F
  8
0
 10
203.2556091446009
 20
144.44686756582459
 30
0.0
  0
VERTEX
  5
B40
  8
0
 10
203.2979787404648
 20
144.4185077977539
 30
0.0
  0
VERTEX
  5
B41
  8
0
 10
203.3389061800402
 20
144.3895550217951
 30
0.0
  0
VERTEX
  5
B42
  8
0
 10
203.3588164208966
 20
144.374879756681
 30
0.0
  0
VERTEX
  5
B43
  8
0
 10
203.3784502117438
 20
144.36000905569489
 30
0.0
  0
VERTEX
  5
B44
  8
0
 10
203.41714274316129
 20
144.32947624850479
 30
0.0
  0
VERTEX
  5
B45
  8
0
 10
203.4549877626998
 20
144.2979176790443
 30
0.0
  0
VERTEX
  5
B46
  8
0
 10
203.49189186937551
 20
144.26537221426921
 30
0.0
  0
VERTEX
  5
B47
  8
0
 10
203.5277662806713
 20
144.2318822677293
 30
0.0
  0
VERTEX
  5
B48
  8
0
 10
203.5625273872669
 20
144.19749320090509
 30
0.0
  0
VERTEX
  5
B49
  8
0
 10
203.5794658526795
 20
144.17997631813259
 30
0.0
  0
VERTEX
  5
B4A
  8
0
 10
203.5960972112471
 20
144.16225266469161
 30
0.0
  0
VERTEX
  5
B4B
  8
0
 10
203.62840372595539
 20
144.1262099260212
 30
0.0
  0
VERTEX
  5
B4C
  8
0
 10
203.6593802339319
 20
144.0894161802897
 30
0.0
  0
VERTEX
  5
B4D
  8
0
 10
203.67435005960621
 20
144.0707545089486
 30
0.0
  0
VERTEX
  5
B4E
  8
0
 10
203.68896433130749
 20
144.05192564591169
 30
0.0
  0
VERTEX
  5
B4F
  8
0
 10
203.71709824965529
 20
144.0137952888968
 30
0.0
  0
VERTEX
  5
B50
  8
0
 10
203.7437293654466
 20
143.97508423255769
 30
0.0
  0
VERTEX
  5
B51
  8
0
 10
203.75646643583559
 20
143.9555298551989
 30
0.0
  0
VERTEX
  5
B52
  8
0
 10
203.76881060377519
 20
143.93585313345091
 30
0.0
  0
VERTEX
  5
B53
  8
0
 10
203.79230073756901
 20
143.896163522238
 30
0.0
  0
VERTEX
  5
B54
  8
0
 10
203.81416949278801
 20
143.85606770885971
 30
0.0
  0
VERTEX
  5
B55
  8
0
 10
203.83439038474091
 20
143.81561879428389
 30
0.0
  0
VERTEX
  5
B56
  8
0
 10
203.85293611975629
 20
143.7748813052701
 30
0.0
  0
VERTEX
  5
B57
  8
0
 10
203.8697847825062
 20
143.7339213692139
 30
0.0
  0
VERTEX
  5
B58
  8
0
 10
203.87756743394661
 20
143.71337893272391
 30
0.0
  0
VERTEX
  5
B59
  8
0
 10
203.88492023297121
 20
143.69280608984079
 30
0.0
  0
VERTEX
  5
B5A
  8
0
 10
203.8983323879859
 20
143.65160290636649
 30
0.0
  0
VERTEX
  5
B5B
  8
0
 10
203.91001738816209
 20
143.61037893451791
 30
0.0
  0
VERTEX
  5
B5C
  8
0
 10
203.9199775747087
 20
143.5692006229695
 30
0.0
  0
VERTEX
  5
B5D
  8
0
 10
203.92822112643091
 20
143.5281350688316
 30
0.0
  0
VERTEX
  5
B5E
  8
0
 10
203.9347621656427
 20
143.48725056493441
 30
0.0
  0
VERTEX
  5
B5F
  8
0
 10
203.9374003785193
 20
143.4668977241603
 30
0.0
  0
VERTEX
  5
B60
  8
0
 10
203.93962114297551
 20
143.44661598031561
 30
0.0
  0
VERTEX
  5
B61
  8
0
 10
203.94282510248399
 20
143.40630009391231
 30
0.0
  0
VERTEX
  5
B62
  8
0
 10
203.9444078145093
 20
143.36637093430241
 30
0.0
  0
VERTEX
  5
B63
  8
0
 10
203.94460359846599
 20
143.34657226887691
 30
0.0
  0
SEQEND
  5
B64
  8
0
  0
POLYLINE
  5
6F6
  8
0
 66
     1
 10
0.0
 20
0.0
 30
0.0
  0
VERTEX
  5
B65
  8
0
 10
203.94460359846599
 20
143.34657226887691
 30
0.0
  0
VERTEX
  5
B66
  8
0
 10
203.9444078145093
 20
143.32679575280039
 30
0.0
  0
VERTEX
  5
B67
  8
0
 10
203.94282510248399
 20
143.2870455688001
 30
0.0
  0
VERTEX
  5
B68
  8
0
 10
203.93962114297551
 20
143.2470915602581
 30
0.0
  0
VERTEX
  5
B69
  8
0
 10
203.9374003785193
 20
143.22706030669141
 30
0.0
  0
VERTEX
  5
B6A
  8
0
 10
203.9347621656427
 20
143.20700468184879
 30
0.0
  0
VERTEX
  5
B6B
  8
0
 10
203.92822112643091
 20
143.16685539115639
 30
0.0
  0
VERTEX
  5
B6C
  8
0
 10
203.9199775747087
 20
143.12671298702259
 30
0.0
  0
VERTEX
  5
B6D
  8
0
 10
203.91001738816209
 20
143.08664496526859
 30
0.0
  0
VERTEX
  5
B6E
  8
0
 10
203.8983323879859
 20
143.046716442638
 30
0.0
  0
VERTEX
  5
B6F
  8
0
 10
203.88492023297121
 20
143.0069907242173
 30
0.0
  0
VERTEX
  5
B70
  8
0
 10
203.87756743394661
 20
142.9872235626766
 30
0.0
  0
VERTEX
  5
B71
  8
0
 10
203.8697847825062
 20
142.96753059602071
 30
0.0
  0
VERTEX
  5
B72
  8
0
 10
203.85293611975629
 20
142.92839800574669
 30
0.0
  0
VERTEX
  5
B73
  8
0
 10
203.83439038474091
 20
142.88965345754519
 30
0.0
  0
VERTEX
  5
B74
  8
0
 10
203.81416949278801
 20
142.851355444788
 30
0.0
  0
VERTEX
  5
B75
  8
0
 10
203.79230073756901
 20
142.81355991781879
 30
0.0
  0
VERTEX
  5
B76
  8
0
 10
203.76881060377519
 20
142.7763111533734
 30
0.0
  0
VERTEX
  5
B77
  8
0
 10
203.75646643583559
 20
142.7579046562665
 30
0.0
  0
VERTEX
  5
B78
  8
0
 10
203.7437293654466
 20
142.7396519401301
 30
0.0
  0
VERTEX
  5
B79
  8
0
 10
203.71709824965529
 20
142.70363292376379
 30
0.0
  0
VERTEX
  5
B7A
  8
0
 10
203.68896433130749
 20
142.66830312967349
 30
0.0
  0
VERTEX
  5
B7B
  8
0
 10
203.67435005960621
 20
142.6509114329906
 30
0.0
  0
VERTEX
  5
B7C
  8
0
 10
203.6593802339319
 20
142.63370941692
 30
0.0
  0
VERTEX
  5
B7D
  8
0
 10
203.62840372595539
 20
142.599895980159
 30
0.0
  0
VERTEX
  5
B7E
  8
0
 10
203.5960972112471
 20
142.5669038959621
 30
0.0
  0
VERTEX
  5
B7F
  8
0
 10
203.5794658526795
 20
142.5507277737122
 30
0.0
  0
VERTEX
  5
B80
  8
0
 10
203.5625273872669
 20
142.5347709669573
 30
0.0
  0
VERTEX
  5
B81
  8
0
 10
203.5277662806713
 20
142.50353281135619
 30
0.0
  0
VERTEX
  5
B82
  8
0
 10
203.49189186937551
 20
142.47322322118521
 30
0.0
  0
VERTEX
  5
B83
  8
0
 10
203.4549877626998
 20
142.44387362539729
 30
0.0
  0
VERTEX
  5
B84
  8
0
 10
203.41714274316129
 20
142.4155125773031
 30
0.0
  0
VERTEX
  5
B85
  8
0
 10
203.3784502117438
 20
142.3881653044856
 30
0.0
  0
VERTEX
  5
B86
  8
0
 10
203.3588164208966
 20
142.3748787102449
 30
0.0
  0
VERTEX
  5
B87
  8
0
 10
203.3389061800402
 20
142.3617876233908
 30
0.0
  0
VERTEX
  5
B88
  8
0
 10
203.2979787404648
 20
142.33602095504901
 30
0.0
  0
VERTEX
  5
B89
  8
0
 10
203.2556091446009
 20
142.31085986078071
 30
0.0
  0
VERTEX
  5
B8A
  8
0
 10
203.2118427146676
 20
142.286363563213
 30
0.0
  0
VERTEX
  5
B8B
  8
0
 10
203.16672963203831
 20
142.26258790366381
 30
0.0
  0
VERTEX
  5
B8C
  8
0
 10
203.12032419565321
 20
142.2395850242147
 30
0.0
  0
VERTEX
  5
B8D
  8
0
 10
203.09665473719599
 20
142.22838859683239
 30
0.0
  0
VERTEX
  5
B8E
  8
0
 10
203.07268399395221
 20
142.21740311686389
 30
0.0
  0
VERTEX
  5
B8F
  8
0
 10
203.02386904914141
 20
142.1960862659154
 30
0.0
  0
VERTEX
  5
B90
  8
0
 10
202.97394229148989
 20
142.17567491110901
 30
0.0
  0
VERTEX
  5
B91
  8
0
 10
202.92297110355071
 20
142.1562065776842
 30
0.0
  0
VERTEX
  5
B92
  8
0
 10
202.8710270151727
 20
142.13771569495489
 30
0.0
  0
VERTEX
  5
B93
  8
0
 10
202.81818496537639
 20
142.12023330504229
 30
0.0
  0
VERTEX
  5
B94
  8
0
 10
202.79145136152641
 20
142.11187901341049
 30
0.0
  0
VERTEX
  5
B95
  8
0
 10
202.76452250897461
 20
142.10378684112769
 30
0.0
  0
VERTEX
  5
B96
  8
0
 10
202.71011896445711
 20
142.08839997319521
 30
0.0
  0
VERTEX
  5
B97
  8
0
 10
202.6550415742679
 20
142.07408930825261
 30
0.0
  0
VERTEX
  5
B98
  8
0
 10
202.59935919371921
 20
142.06086912283951
 30
0.0
  0
VERTEX
  5
B99
  8
0
 10
202.5431570112774
 20
142.048754389381
 30
0.0
  0
VERTEX
  5
B9A
  8
0
 10
202.48652314543131
 20
142.03775674995481
 30
0.0
  0
VERTEX
  5
B9B
  8
0
 10
202.45807246892139
 20
142.03267950895329
 30
0.0
  0
VERTEX
  5
B9C
  8
0
 10
202.42954782691939
 20
142.0278842823702
 30
0.0
  0
VERTEX
  5
B9D
  8
0
 10
202.37232254450581
 20
142.0191413385771
 30
0.0
  0
VERTEX
  5
B9E
  8
0
 10
202.31493915102581
 20
142.01152845410971
 30
0.0
  0
VERTEX
  5
B9F
  8
0
 10
202.25748939468619
 20
142.0050423771313
 30
0.0
  0
VERTEX
  5
BA0
  8
0
 10
202.20006676339071
 20
141.99967631402231
 30
0.0
  0
VERTEX
  5
BA1
  8
0
 10
202.14276727303621
 20
141.99541986486591
 30
0.0
  0
VERTEX
  5
BA2
  8
0
 10
202.1141941960451
 20
141.99370344643961
 30
0.0
  0
VERTEX
  5
BA3
  8
0
 10
202.0856886220522
 20
141.99225877332071
 30
0.0
  0
VERTEX
  5
BA4
  8
0
 10
202.0289292645927
 20
141.9901747503003
 30
0.0
  0
VERTEX
  5
BA5
  8
0
 10
201.97258747570569
 20
141.9891453793295
 30
0.0
  0
VERTEX
  5
BA6
  8
0
 10
201.9446035984661
 20
141.98901804946149
 30
0.0
  0
VERTEX
  5
BA7
  8
0
 10
201.91661972122651
 20
141.9891453793295
 30
0.0
  0
VERTEX
  5
BA8
  8
0
 10
201.86027793233961
 20
141.9901747503003
 30
0.0
  0
VERTEX
  5
BA9
  8
0
 10
201.80351857488
 20
141.99225877332071
 30
0.0
  0
VERTEX
  5
BAA
  8
0
 10
201.77501300088721
 20
141.99370344643961
 30
0.0
  0
VERTEX
  5
BAB
  8
0
 10
201.74643992389599
 20
141.99541986486591
 30
0.0
  0
VERTEX
  5
BAC
  8
0
 10
201.68914043354141
 20
141.99967631402231
 30
0.0
  0
VERTEX
  5
BAD
  8
0
 10
201.6317178022459
 20
142.0050423771313
 30
0.0
  0
VERTEX
  5
BAE
  8
0
 10
201.57426804590639
 20
142.01152845410971
 30
0.0
  0
VERTEX
  5
BAF
  8
0
 10
201.5168846524264
 20
142.0191413385771
 30
0.0
  0
VERTEX
  5
BB0
  8
0
 10
201.4596593700127
 20
142.0278842823702
 30
0.0
  0
VERTEX
  5
BB1
  8
0
 10
201.4311347280107
 20
142.03267950895329
 30
0.0
  0
VERTEX
  5
BB2
  8
0
 10
201.4026840515009
 20
142.03775674995481
 30
0.0
  0
VERTEX
  5
BB3
  8
0
 10
201.3460501856548
 20
142.048754389381
 30
0.0
  0
VERTEX
  5
BB4
  8
0
 10
201.289848003213
 20
142.06086912283951
 30
0.0
  0
VERTEX
  5
BB5
  8
0
 10
201.23416562266419
 20
142.07408930825261
 30
0.0
  0
VERTEX
  5
BB6
  8
0
 10
201.1790882324751
 20
142.08839997319521
 30
0.0
  0
VERTEX
  5
BB7
  8
0
 10
201.1246846879576
 20
142.10378684112769
 30
0.0
  0
VERTEX
  5
BB8
  8
0
 10
201.09775583540571
 20
142.11187901341049
 30
0.0
  0
VERTEX
  5
BB9
  8
0
 10
201.07102223155579
 20
142.12023330504229
 30
0.0
  0
VERTEX
  5
BBA
  8
0
 10
201.0181801817595
 20
142.13771569495489
 30
0.0
  0
VERTEX
  5
BBB
  8
0
 10
200.9662360933815
 20
142.1562065776842
 30
0.0
  0
VERTEX
  5
BBC
  8
0
 10
200.9152649054422
 20
142.17567491110901
 30
0.0
  0
VERTEX
  5
BBD
  8
0
 10
200.86533814779091
 20
142.1960862659154
 30
0.0
  0
VERTEX
  5
BBE
  8
0
 10
200.81652320297999
 20
142.21740311686389
 30
0.0
  0
VERTEX
  5
BBF
  8
0
 10
200.7925524597363
 20
142.22838859683239
 30
0.0
  0
VERTEX
  5
BC0
  8
0
 10
200.76888300127899
 20
142.2395850242147
 30
0.0
  0
VERTEX
  5
BC1
  8
0
 10
200.72247756489389
 20
142.26258790366381
 30
0.0
  0
VERTEX
  5
BC2
  8
0
 10
200.67736448226461
 20
142.286363563213
 30
0.0
  0
VERTEX
  5
BC3
  8
0
 10
200.63359805233131
 20
142.31085986078071
 30
0.0
  0
VERTEX
  5
BC4
  8
0
 10
200.59122845646741
 20
142.33602095504901
 30
0.0
  0
VERTEX
  5
BC5
  8
0
 10
200.55030101689201
 20
142.3617876233908
 30
0.0
  0
VERTEX
  5
BC6
  8
0
 10
200.5303907760356
 20
142.3748787102449
 30
0.0
  0
VERTEX
  5
BC7
  8
0
 10
200.51075698518829
 20
142.3881653044856
 30
0.0
  0
VERTEX
  5
BC8
  8
0
 10
200.47206445377091
 20
142.4155125773031
 30
0.0
  0
VERTEX
  5
BC9
  8
0
 10
200.4342194342324
 20
142.44387362539729
 30
0.0
  0
VERTEX
  5
BCA
  8
0
 10
200.3973153275567
 20
142.47322322118521
 30
0.0
  0
VERTEX
  5
BCB
  8
0
 10
200.3614409162609
 20
142.50353281135619
 30
0.0
  0
VERTEX
  5
BCC
  8
0
 10
200.32667980966531
 20
142.5347709669573
 30
0.0
  0
VERTEX
  5
BCD
  8
0
 10
200.30974134425259
 20
142.5507277737122
 30
0.0
  0
VERTEX
  5
BCE
  8
0
 10
200.29310998568511
 20
142.56690389596221
 30
0.0
  0
VERTEX
  5
BCF
  8
0
 10
200.26080347097681
 20
142.599895980159
 30
0.0
  0
VERTEX
  5
BD0
  8
0
 10
200.22982696300019
 20
142.63370941692
 30
0.0
  0
VERTEX
  5
BD1
  8
0
 10
200.21485713732599
 20
142.6509114329906
 30
0.0
  0
VERTEX
  5
BD2
  8
0
 10
200.20024286562469
 20
142.66830312967349
 30
0.0
  0
VERTEX
  5
BD3
  8
0
 10
200.17210894727691
 20
142.70363292376379
 30
0.0
  0
VERTEX
  5
BD4
  8
0
 10
200.14547783148549
 20
142.7396519401301
 30
0.0
  0
VERTEX
  5
BD5
  8
0
 10
200.13274076109661
 20
142.7579046562665
 30
0.0
  0
VERTEX
  5
BD6
  8
0
 10
200.12039659315701
 20
142.7763111533734
 30
0.0
  0
VERTEX
  5
BD7
  8
0
 10
200.0969064593632
 20
142.81355991781879
 30
0.0
  0
VERTEX
  5
BD8
  8
0
 10
200.07503770414419
 20
142.851355444788
 30
0.0
  0
VERTEX
  5
BD9
  8
0
 10
200.05481681219129
 20
142.88965345754519
 30
0.0
  0
VERTEX
  5
BDA
  8
0
 10
200.03627107717591
 20
142.92839800574669
 30
0.0
  0
VERTEX
  5
BDB
  8
0
 10
200.019422414426
 20
142.96753059602071
 30
0.0
  0
VERTEX
  5
BDC
  8
0
 10
200.01163976298551
 20
142.9872235626766
 30
0.0
  0
VERTEX
  5
BDD
  8
0
 10
200.00428696396099
 20
143.0069907242173
 30
0.0
  0
VERTEX
  5
BDE
  8
0
 10
199.99087480894619
 20
143.046716442638
 30
0.0
  0
VERTEX
  5
BDF
  8
0
 10
199.9791898087702
 20
143.0866449652685
 30
0.0
  0
VERTEX
  5
BE0
  8
0
 10
199.96922962222339
 20
143.12671298702259
 30
0.0
  0
VERTEX
  5
BE1
  8
0
 10
199.96098607050129
 20
143.16685539115639
 30
0.0
  0
VERTEX
  5
BE2
  8
0
 10
199.95444503128951
 20
143.20700468184879
 30
0.0
  0
VERTEX
  5
BE3
  8
0
 10
199.95180681841279
 20
143.22706030669141
 30
0.0
  0
VERTEX
  5
BE4
  8
0
 10
199.94958605395669
 20
143.2470915602581
 30
0.0
  0
VERTEX
  5
BE5
  8
0
 10
199.9463820944481
 20
143.2870455688001
 30
0.0
  0
VERTEX
  5
BE6
  8
0
 10
199.94479938242279
 20
143.32679575280039
 30
0.0
  0
VERTEX
  5
BE7
  8
0
 10
199.9446035984661
 20
143.34657226887691
 30
0.0
  0
SEQEND
  5
BE8
  8
0
  0
LINE
  5
6F7
  8
1
 10
196.9446035984661
 20
143.34657226887691
 30
0.0
 11
206.9446035984661
 21
143.34657226887691
 31
0.0
  0
LINE
  5
6FE
  8
1
 10
206.34460359846611
 20
171.63084351633859
 30
0.0
 11
218.9446035984667
 21
171.63084351633859
 31
0.0
  0
TEXT
  5
97B
  8
0
 62
     3
 10
0.0
 20
0.0
 30
0.0
 40
10.0
  1
EGK50-BR
  7
STANDARD1
  0
ENDSEC
  0
EOF
