  0
SECTION
  2
HEADER
  9
$ACADVER
  1
AC1009
  9
$INSBASE
 10
0.0
 20
0.0
 30
0.0
  9
$EXTMIN
 10
0.0
 20
-2.960436562073669
 30
0.0
  9
$EXTMAX
 10
304.75662041314092
 20
218.3017851961763
 30
0.0
  9
$LIMMIN
 10
0.0
 20
0.0
  9
$LIMMAX
 10
375.0
 20
278.0
  9
$ORTHOMODE
 70
     1
  9
$REGENMODE
 70
     1
  9
$FILLMODE
 70
     1
  9
$QTEXTMODE
 70
     0
  9
$MIRRTEXT
 70
     0
  9
$DRAGMODE
 70
     2
  9
$LTSCALE
 40
10.0
  9
$OSMODE
 70
  3071
  9
$ATTMODE
 70
     1
  9
$TEXTSIZE
 40
0.2
  9
$TRACEWID
 40
0.05
  9
$TEXTSTYLE
  7
STANDARD
  9
$CLAYER
  8
0
  9
$CELTYPE
  6
BYLAYER
  9
$CECOLOR
 62
   256
  9
$DIMSCALE
 40
1.0
  9
$DIMASZ
 40
3.0
  9
$DIMEXO
 40
1.0
  9
$DIMDLI
 40
6.0
  9
$DIMRND
 40
0.0
  9
$DIMDLE
 40
0.0
  9
$DIMEXE
 40
1.0
  9
$DIMTP
 40
495.0
  9
$DIMTM
 40
0.0
  9
$DIMTXT
 40
3.0
  9
$DIMCEN
 40
0.0
  9
$DIMTSZ
 40
0.0
  9
$DIMTOL
 70
     0
  9
$DIMLIM
 70
     0
  9
$DIMTIH
 70
     0
  9
$DIMTOH
 70
     0
  9
$DIMSE1
 70
     0
  9
$DIMSE2
 70
     0
  9
$DIMTAD
 70
     1
  9
$DIMZIN
 70
     0
  9
$DIMBLK
  1

  9
$DIMASO
 70
     1
  9
$DIMSHO
 70
     0
  9
$DIMPOST
  1

  9
$DIMAPOST
  1

  9
$DIMALT
 70
     0
  9
$DIMALTD
 70
     2
  9
$DIMALTF
 40
25.399999999999999
  9
$DIMLFAC
 40
1.0
  9
$DIMTOFL
 70
     1
  9
$DIMTVP
 40
0.0
  9
$DIMTIX
 70
     1
  9
$DIMSOXD
 70
     0
  9
$DIMSAH
 70
     0
  9
$DIMBLK1
  1

  9
$DIMBLK2
  1

  9
$DIMSTYLE
  2
STANDARD
  9
$DIMCLRD
 70
     0
  9
$DIMCLRE
 70
     0
  9
$DIMCLRT
 70
     4
  9
$DIMTFAC
 40
1.0
  9
$DIMGAP
 40
1.0
  9
$LUNITS
 70
     2
  9
$LUPREC
 70
     4
  9
$SKETCHINC
 40
0.1
  9
$FILLETRAD
 40
0.0
  9
$AUNITS
 70
     0
  9
$AUPREC
 70
     0
  9
$MENU
  1
C:\R13\WIN\SUPPORT\ACAD-I
  9
$ELEVATION
 40
0.0
  9
$PELEVATION
 40
0.0
  9
$THICKNESS
 40
0.0
  9
$LIMCHECK
 70
     0
  9
$BLIPMODE
 70
     0
  9
$CHAMFERA
 40
0.0
  9
$CHAMFERB
 40
0.0
  9
$SKPOLY
 70
     0
  9
$TDCREATE
 40
2450834.4199027782
  9
$TDUPDATE
 40
2456598.6571452082
  9
$TDINDWG
 40
0.144393287
  9
$TDUSRTIMER
 40
0.144393287
  9
$USRTIMER
 70
     1
  9
$ANGBASE
 50
0.0
  9
$ANGDIR
 70
     0
  9
$PDMODE
 70
     0
  9
$PDSIZE
 40
0.0
  9
$PLINEWID
 40
0.0
  9
$COORDS
 70
     1
  9
$SPLFRAME
 70
     0
  9
$SPLINETYPE
 70
     6
  9
$SPLINESEGS
 70
     8
  9
$ATTDIA
 70
     0
  9
$ATTREQ
 70
     1
  9
$HANDLING
 70
     1
  9
$HANDSEED
  5
109DC
  9
$SURFTAB1
 70
     6
  9
$SURFTAB2
 70
     6
  9
$SURFTYPE
 70
     6
  9
$SURFU
 70
     6
  9
$SURFV
 70
     6
  9
$UCSNAME
  2

  9
$UCSORG
 10
0.0
 20
0.0
 30
0.0
  9
$UCSXDIR
 10
1.0
 20
0.0
 30
0.0
  9
$UCSYDIR
 10
0.0
 20
1.0
 30
0.0
  9
$PUCSNAME
  2

  9
$PUCSORG
 10
0.0
 20
0.0
 30
0.0
  9
$PUCSXDIR
 10
1.0
 20
0.0
 30
0.0
  9
$PUCSYDIR
 10
0.0
 20
1.0
 30
0.0
  9
$USERI1
 70
     4
  9
$USERI2
 70
     1
  9
$USERI3
 70
     1
  9
$USERI4
 70
     0
  9
$USERI5
 70
     0
  9
$USERR1
 40
1.0
  9
$USERR2
 40
3.0
  9
$USERR3
 40
3.0
  9
$USERR4
 40
3.0
  9
$USERR5
 40
10.0
  9
$WORLDVIEW
 70
     1
  9
$SHADEDGE
 70
     3
  9
$SHADEDIF
 70
    70
  9
$TILEMODE
 70
     1
  9
$MAXACTVP
 70
    16
  9
$PLIMCHECK
 70
     0
  9
$PEXTMIN
 10
1.0000000000000000E+020
 20
1.0000000000000000E+020
 30
1.0000000000000000E+020
  9
$PEXTMAX
 10
-1.0000000000000000E+020
 20
-1.0000000000000000E+020
 30
-1.0000000000000000E+020
  9
$PLIMMIN
 10
0.0
 20
0.0
  9
$PLIMMAX
 10
12.0
 20
9.0
  9
$UNITMODE
 70
     0
  9
$VISRETAIN
 70
     0
  9
$PLINEGEN
 70
     0
  9
$PSLTSCALE
 70
     0
  0
ENDSEC
  0
SECTION
  2
TABLES
  0
TABLE
  2
VPORT
 70
     1
  0
VPORT
  2
*ACTIVE
 70
     0
 10
0.0
 20
0.0
 11
1.0
 21
1.0
 12
187.49427839065231
 22
174.97168974450321
 13
0.0
 23
0.0
 14
10.0
 24
10.0
 15
10.0
 25
10.0
 16
0.0
 26
0.0
 36
1.0
 17
0.0
 27
0.0
 37
0.0
 40
359.12869706410731
 41
1.831871345029239
 42
50.0
 43
0.0
 44
0.0
 50
0.0
 51
0.0
 71
     0
 72
   100
 73
     1
 74
     0
 75
     0
 76
     0
 77
     0
 78
     0
  0
ENDTAB
  0
TABLE
  2
LTYPE
 70
     4
  0
LTYPE
  2
CONTINUOUS
 70
     0
  3
Solid Line
 72
    65
 73
     0
 40
0.0
  0
LTYPE
  2
CENTER
 70
     0
  3
____ _ ____ _ ____ _ ____ _ ____ _ ____ _ ____
 72
    65
 73
     4
 40
2.0
 49
1.25
 49
-0.25
 49
0.25
 49
-0.25
  0
LTYPE
  2
HIDDEN
 70
     0
  3
__ __ __ __ __ __ __ __ __ __ __ __ __ __ __ __
 72
    65
 73
     2
 40
0.375
 49
0.25
 49
-0.125
  0
LTYPE
  2
PHANTOM2
 70
     0
  3
___ _ _ ___ _ _ ___ _ _ ___ _ _
 72
    65
 73
     6
 40
1.25
 49
0.625
 49
-0.125
 49
0.125
 49
-0.125
 49
0.125
 49
-0.125
  0
ENDTAB
  0
TABLE
  2
LAYER
 70
     5
  0
LAYER
  2
0
 70
     0
 62
     7
  6
CONTINUOUS
  0
LAYER
  2
1
 70
     0
 62
     1
  6
CENTER
  0
LAYER
  2
3
 70
     0
 62
     3
  6
CONTINUOUS
  0
LAYER
  2
2
 70
     0
 62
     2
  6
HIDDEN
  0
LAYER
  2
DEFPOINTS
 70
     0
 62
     7
  6
CONTINUOUS
  0
ENDTAB
  0
TABLE
  2
STYLE
 70
     2
  0
STYLE
  2
STANDARD
 70
     0
 40
0.0
 41
1.0
 50
0.0
 71
     0
 42
0.2
  3
SIMPLEX
  4
BIGFONT
  0
STYLE
  2
STANDARD1
 70
     0
 40
0.0
 41
1.0
 50
0.0
 71
     0
 42
3.0
  3
txt
  4

  0
ENDTAB
  0
TABLE
  2
VIEW
 70
     0
  0
ENDTAB
  0
TABLE
  2
UCS
 70
     0
  0
ENDTAB
  0
TABLE
  2
APPID
 70
    38
  0
APPID
  2
ACAD
 70
     0
  0
APPID
  2
GENIUS_GENOBJ_13
 70
     0
  0
APPID
  2
GENIUS_GENODEF_13
 70
     0
  0
APPID
  2
GENIUS_GENOENT_13
 70
     0
  0
APPID
  2
GENIUS_GENOLIS_13
 70
     0
  0
APPID
  2
GENIUS_GENOREF_13
 70
     0
  0
APPID
  2
GENIUS_GENOBJ-N-TIT_13
 70
     0
  0
APPID
  2
GENIUS_GENTITLE_13
 70
     0
  0
APPID
  2
GENIUS_GENZVEED_13
 70
     0
  0
APPID
  2
GENIUS_GENOBJ-N-FIL_13
 70
     0
  0
APPID
  2
GENIUS_GENOBJ-N-CRS_13
 70
     0
  0
APPID
  2
GENIUS_GEFINERT_13
 70
     0
  0
APPID
  2
GENIUS_GENOBJ-F-INER_13
 70
     0
  0
APPID
  2
GENIUS_GENOBJ-N-ZOO_13
 70
     0
  0
APPID
  2
GENIUS_GENZOO_13
 70
     0
  0
APPID
  2
GENIUS_GENOBJ-F-TOL_13
 70
     0
  0
APPID
  2
GENIUS_GENOBJ-N-RSSYM_13
 70
     0
  0
APPID
  2
GENIUS_GENSYMENT_13
 70
     0
  0
APPID
  2
GENIUS_GENBH_13
 70
     0
  0
APPID
  2
GENIUS_GENOBJ-NBEHI-BHF_13
 70
     0
  0
APPID
  2
GENIUS_GENOBJ-NBEHI-BHB_13
 70
     0
  0
APPID
  2
GENIUS_GENOBJ-F-PART_13
 70
     0
  0
APPID
  2
GENIUS_GEFSTDP_13
 70
     0
  0
APPID
  2
GENIUS_GENOBJ-N-LEADER_13
 70
     0
  0
APPID
  2
GENIUS_GENOBJ-N-REV_13
 70
     0
  0
APPID
  2
GENIUS_GENCFG_13
 70
     0
  0
APPID
  2
GENIUS_GENCFG0_13
 70
     0
  0
APPID
  2
GENIUS_GENCFG1_13
 70
     0
  0
APPID
  2
GENIUS_GENCFG2_13
 70
     0
  0
APPID
  2
GENIUS_GENCFG3_13
 70
     0
  0
APPID
  2
GENIUS_GEVCFG0_13
 70
     0
  0
APPID
  2
GENIUS_GENCFG4_13
 70
     0
  0
APPID
  2
GENIUS_GENOBJ-N-REC_13
 70
     0
  0
APPID
  2
GENIUS_GENFIL_13
 70
     0
  0
APPID
  2
GENIUS_GENOBJ-N-CHA_13
 70
     0
  0
APPID
  2
GENIUS_GENREC_13
 70
     0
  0
APPID
  2
ACAD_MLEADERVER
 70
     0
  0
APPID
  2
ACAD_NAV_VCDISPLAY
 70
     0
  0
ENDTAB
  0
TABLE
  2
DIMSTYLE
 70
     1
  0
DIMSTYLE
  2
STANDARD
 70
     0
  3

  4

  5

  6

  7

 40
1.0
 41
0.18
 42
0.0625
 43
0.38
 44
0.18
 45
0.0
 46
0.0
 47
0.0
 48
0.0
140
0.18
141
0.09
142
0.0
143
25.399999999999999
144
1.0
145
0.0
146
1.0
147
0.09
 71
     0
 72
     0
 73
     1
 74
     1
 75
     0
 76
     0
 77
     0
 78
     0
170
     0
171
     2
172
     0
173
     0
174
     0
175
     0
176
     0
177
     0
178
     0
  0
ENDTAB
  0
ENDSEC
  0
SECTION
  2
BLOCKS
  0
BLOCK
  8
0
  2
$MODEL_SPACE
 70
     0
 10
0.0
 20
0.0
 30
0.0
  3
$MODEL_SPACE
  1

  0
ENDBLK
  5
DA19
  8
0
  0
BLOCK
 67
     1
  8
0
  2
$PAPER_SPACE
 70
     0
 10
0.0
 20
0.0
 30
0.0
  3
$PAPER_SPACE
  1

  0
ENDBLK
  5
DA17
 67
     1
  8
0
  0
ENDSEC
  0
SECTION
  2
ENTITIES
  0
LINE
  5
D09E
  8
2
 10
158.70661891314279
 20
101.03574964706741
 30
0.0
 11
163.70661891314279
 21
101.0357496470684
 31
0.0
  0
LINE
  5
D09F
  8
2
 10
156.20661891314231
 20
103.53574964706679
 30
0.0
 11
166.20661891314219
 21
103.5357496470689
 31
0.0
  0
LINE
  5
D0A0
  8
0
 10
154.0566194131423
 20
100.0357496470638
 30
0.0
 11
183.05661941314241
 21
100.03574964706981
 31
0.0
  0
LINE
  5
D0A1
  8
0
 10
154.05661941314159
 20
103.0357496470638
 30
0.0
 11
170.5566204631057
 21
103.03574964706731
 31
0.0
  0
LINE
  5
D0A2
  8
0
 10
155.70661891314211
 20
104.03574964706669
 30
0.0
 11
166.70661891314211
 21
104.035749647069
 31
0.0
  0
LINE
  5
D0BB
  8
2
 10
259.1566194131409
 20
111.5357496470681
 30
0.0
 11
249.1566194131409
 21
111.5357496470681
 31
0.0
  0
LINE
  5
D0BC
  8
2
 10
256.6566194131409
 20
109.0357496470681
 30
0.0
 11
251.6566194131409
 21
109.0357496470681
 31
0.0
  0
LINE
  5
D0BD
  8
0
 10
301.15662041314101
 20
108.0357496470681
 30
0.0
 11
246.1566204131409
 21
108.0357496470681
 31
0.0
  0
LINE
  5
D0BE
  8
0
 10
246.1566204131409
 20
111.0357496470681
 30
0.0
 11
260.12671541314103
 21
111.0357496470681
 31
0.0
  0
LINE
  5
D0BF
  8
0
 10
259.65661941314102
 20
112.0357496470681
 30
0.0
 11
248.6566194131409
 21
112.0357496470681
 31
0.0
  0
LINE
  5
D0C0
  8
0
 10
263.988621413141
 20
114.03574964706969
 30
0.0
 11
255.8226204131409
 21
114.03574964706969
 31
0.0
  0
LINE
  5
D0C1
  8
0
 10
263.988621413141
 20
100.03574964706959
 30
0.0
 11
255.8226204131409
 21
100.03574964706959
 31
0.0
  0
LINE
  5
D0C2
  8
0
 10
301.15662041314101
 20
111.0357496470681
 30
0.0
 11
246.1566204131409
 21
111.0357496470681
 31
0.0
  0
LINE
  5
D0C3
  8
0
 10
242.55662041314091
 20
112.03574964706969
 30
0.0
 11
242.55662041314091
 21
102.03574964706959
 31
0.0
  0
LINE
  5
D0C4
  8
0
 10
246.1566204131409
 20
100.53574964706959
 30
0.0
 11
246.1566204131409
 21
113.53574964706959
 31
0.0
  0
LINE
  5
D0C5
  8
0
 10
246.1566204131409
 20
113.53574964706959
 30
0.0
 11
246.1566204131409
 21
100.53574964706959
 31
0.0
  0
LINE
  5
D0C6
  8
0
 10
255.3226204131409
 20
108.035749647068
 30
0.0
 11
255.3226204131409
 21
100.53574964706959
 31
0.0
  0
LINE
  5
D0C7
  8
0
 10
254.8226204131409
 20
100.03574964706959
 30
0.0
 11
246.1566204131409
 21
100.03574964706959
 31
0.0
  0
ARC
  5
D0C8
  8
0
 10
244.55662041314091
 20
102.03574964706959
 30
0.0
 40
2.0
 50
180.0
 51
270.0
  0
LINE
  5
D0C9
  8
0
 10
246.1566204131409
 20
100.03574964706959
 30
0.0
 11
244.55662041314091
 21
100.03574964706959
 31
0.0
  0
ARC
  5
D0CA
  8
0
 10
246.65662041314101
 20
100.53574964706959
 30
0.0
 40
0.5
 50
180.0
 51
270.0
  0
ARC
  5
D0CB
  8
0
 10
255.8226204131409
 20
100.53574964706959
 30
0.0
 40
0.5
 50
180.0
 51
270.0
  0
ARC
  5
D0CC
  8
0
 10
254.8226204131409
 20
100.53574964706959
 30
0.0
 40
0.5
 50
270.0
 51
0.0
  0
LINE
  5
D0CD
  8
0
 10
254.8226204131409
 20
114.03574964706969
 30
0.0
 11
246.1566204131409
 21
114.03574964706969
 31
0.0
  0
ARC
  5
D0CE
  8
0
 10
244.55662041314091
 20
112.03574964706969
 30
0.0
 40
2.0
 50
89.999999999999986
 51
180.0
  0
ARC
  5
D0CF
  8
0
 10
246.65662041314101
 20
113.53574964706959
 30
0.0
 40
0.5
 50
89.999999999999986
 51
180.0
  0
LINE
  5
D0D0
  8
0
 10
246.1566204131409
 20
114.03574964706969
 30
0.0
 11
244.55662041314091
 21
114.03574964706969
 31
0.0
  0
LINE
  5
D0D1
  8
2
 10
249.1566194131409
 20
111.5357496470681
 30
0.0
 11
251.6566194131409
 21
109.0357496470681
 31
0.0
  0
LINE
  5
D0D2
  8
2
 10
249.1566194131409
 20
111.5357496470681
 30
0.0
 11
249.1566194131409
 21
112.0357496470681
 31
0.0
  0
LINE
  5
D0D3
  8
2
 10
251.6566194131409
 20
108.0357496470681
 30
0.0
 11
251.6566194131409
 21
109.0357496470681
 31
0.0
  0
ARC
  5
D0D4
  8
0
 10
248.6566194131409
 20
111.5357496470681
 30
0.0
 40
0.5
 50
90.000000000000028
 51
180.0
  0
LINE
  5
D0D5
  8
0
 10
248.1566194131409
 20
111.0357496470681
 30
0.0
 11
248.1566194131409
 21
111.5357496470681
 31
0.0
  0
LINE
  5
D0D6
  8
1
 10
254.1566194131409
 20
106.475890647068
 30
0.0
 11
254.1566194131409
 21
113.43648764706811
 31
0.0
  0
ARC
  5
D0D7
  8
0
 10
254.8226204131409
 20
113.53574964706959
 30
0.0
 40
0.5
 50
0.0
 51
89.999999999999986
  0
ARC
  5
D0D8
  8
0
 10
255.8226204131409
 20
113.53574964706959
 30
0.0
 40
0.5
 50
89.999999999999986
 51
180.0
  0
LINE
  5
D0D9
  8
0
 10
255.3226204131409
 20
113.53574964706959
 30
0.0
 11
255.3226204131409
 21
112.0357496470681
 31
0.0
  0
LINE
  5
D1D1
  8
0
 10
280.125756413141
 20
111.035749647068
 30
0.0
 11
301.1566204131409
 21
111.0357496470681
 31
0.0
  0
LINE
  5
D1D2
  8
0
 10
283.320621413141
 20
114.03574964706969
 30
0.0
 11
291.48662241314088
 21
114.03574964706969
 31
0.0
  0
LINE
  5
D1D3
  8
0
 10
283.320621413141
 20
100.03574964706959
 30
0.0
 11
291.48662241314088
 21
100.03574964706959
 31
0.0
  0
LINE
  5
D1D4
  8
0
 10
260.12671541314103
 20
111.0357496470681
 30
0.0
 11
280.125756413141
 21
111.0357496470681
 31
0.0
  0
ARC
  5
D1D5
  8
0
 10
273.15462141314089
 20
113.53574964706959
 30
0.0
 40
0.5
 50
0.0
 51
89.999999999999986
  0
ARC
  5
D1D6
  8
0
 10
274.15462141314089
 20
113.53574964706959
 30
0.0
 40
0.5
 50
89.999999999999986
 51
180.0
  0
ARC
  5
D1D7
  8
0
 10
274.15462141314089
 20
100.53574964706959
 30
0.0
 40
0.5
 50
180.0
 51
270.0
  0
ARC
  5
D1D8
  8
0
 10
273.15462141314089
 20
100.53574964706959
 30
0.0
 40
0.5
 50
270.0
 51
0.0
  0
LINE
  5
D1D9
  8
0
 10
264.488621413141
 20
108.035749647068
 30
0.0
 11
264.488621413141
 21
100.53574964706959
 31
0.0
  0
ARC
  5
D1DA
  8
0
 10
264.98862141314089
 20
100.53574964706959
 30
0.0
 40
0.5
 50
180.0
 51
270.0
  0
ARC
  5
D1DB
  8
0
 10
263.988621413141
 20
100.53574964706959
 30
0.0
 40
0.5
 50
270.0
 51
0.0
  0
LINE
  5
D1DC
  8
0
 10
264.98862141314089
 20
100.03574964706959
 30
0.0
 11
273.15462141314089
 21
100.03574964706959
 31
0.0
  0
ARC
  5
D1DD
  8
0
 10
264.98862141314089
 20
113.53574964706959
 30
0.0
 40
0.5
 50
89.999999999999986
 51
180.0
  0
LINE
  5
D1DE
  8
2
 10
256.6566194131409
 20
108.0357496470681
 30
0.0
 11
256.6566194131409
 21
109.0357496470681
 31
0.0
  0
LINE
  5
D1DF
  8
2
 10
259.1566194131409
 20
111.5357496470681
 30
0.0
 11
256.6566194131409
 21
109.0357496470681
 31
0.0
  0
LINE
  5
D1E0
  8
2
 10
259.1566194131409
 20
111.5357496470681
 30
0.0
 11
259.1566194131409
 21
112.0357496470681
 31
0.0
  0
ARC
  5
D1E1
  8
0
 10
259.65661941314102
 20
111.5357496470681
 30
0.0
 40
0.5
 50
0.000000000000007
 51
90.000000000000028
  0
LINE
  5
D1E2
  8
0
 10
260.15661941314102
 20
111.0357496470681
 30
0.0
 11
260.15661941314102
 21
111.5357496470681
 31
0.0
  0
LINE
  5
D1E3
  8
0
 10
264.488621413141
 20
113.53574964706959
 30
0.0
 11
264.488621413141
 21
111.0357496470681
 31
0.0
  0
ARC
  5
D1E4
  8
0
 10
263.988621413141
 20
113.53574964706959
 30
0.0
 40
0.5
 50
0.0
 51
89.999999999999986
  0
LINE
  5
D1E5
  8
0
 10
264.98862141314089
 20
114.03574964706969
 30
0.0
 11
273.15462141314089
 21
114.03574964706969
 31
0.0
  0
LINE
  5
D1E6
  8
1
 10
273.65861941314091
 20
100.4726464300679
 30
0.0
 11
273.65861941314091
 21
108.035749647068
 31
0.0
  0
LINE
  5
D1E7
  8
1
 10
273.65662041314101
 20
96.769340424132793
 30
0.0
 11
273.65662041314101
 21
119.2287060806985
 31
0.0
  0
LINE
  5
D1E8
  8
0
 10
282.82461941314091
 20
100.4726464300679
 30
0.0
 11
282.82461941314091
 21
108.035749647068
 31
0.0
  0
ARC
  5
D1E9
  8
0
 10
282.32062141314088
 20
100.53574964706959
 30
0.0
 40
0.5
 50
270.0
 51
0.0
  0
LINE
  5
D1EA
  8
0
 10
274.15462141314089
 20
100.03574964706959
 30
0.0
 11
282.32062141314088
 21
100.03574964706959
 31
0.0
  0
ARC
  5
D1EB
  8
0
 10
283.320621413141
 20
100.53574964706959
 30
0.0
 40
0.5
 50
180.0
 51
270.0
  0
LINE
  5
D1EC
  8
2
 10
282.75662141314081
 20
109.035749647068
 30
0.0
 11
277.75662141314081
 21
109.035749647068
 31
0.0
  0
LINE
  5
D1ED
  8
2
 10
285.25662141314081
 20
111.535749647068
 30
0.0
 11
275.25662141314081
 21
111.535749647068
 31
0.0
  0
ARC
  5
D1EE
  8
0
 10
282.32062141314088
 20
113.53574964706959
 30
0.0
 40
0.5
 50
0.0
 51
89.999999999999986
  0
LINE
  5
D1EF
  8
0
 10
285.75662141314081
 20
112.035749647068
 30
0.0
 11
274.75662141314081
 21
112.035749647068
 31
0.0
  0
LINE
  5
D1F0
  8
0
 10
274.15462141314089
 20
114.03574964706969
 30
0.0
 11
282.32062141314088
 21
114.03574964706969
 31
0.0
  0
LINE
  5
D1F1
  8
2
 10
275.25662141314081
 20
111.535749647068
 30
0.0
 11
275.25662141314081
 21
112.035749647068
 31
0.0
  0
LINE
  5
D1F2
  8
2
 10
275.25662141314081
 20
111.535749647068
 30
0.0
 11
277.75662141314081
 21
109.035749647068
 31
0.0
  0
LINE
  5
D1F3
  8
2
 10
277.75662141314081
 20
108.035749647068
 30
0.0
 11
277.75662141314081
 21
109.035749647068
 31
0.0
  0
ARC
  5
D1F4
  8
0
 10
274.75662141314081
 20
111.535749647068
 30
0.0
 40
0.5
 50
90.000000000000028
 51
180.0
  0
LINE
  5
D1F5
  8
0
 10
274.25662141314081
 20
111.035749647068
 30
0.0
 11
274.25662141314081
 21
111.535749647068
 31
0.0
  0
LINE
  5
D1F6
  8
0
 10
273.65861941314091
 20
111.0357496470681
 30
0.0
 11
273.65861941314091
 21
113.53574964706959
 31
0.0
  0
LINE
  5
D1F7
  8
1
 10
280.25662141314081
 20
113.2112872689595
 30
0.0
 11
280.25662141314081
 21
106.5442189419222
 31
0.0
  0
LINE
  5
D1F8
  8
2
 10
282.75662141314081
 20
108.035749647068
 30
0.0
 11
282.75662141314081
 21
109.035749647068
 31
0.0
  0
LINE
  5
D1F9
  8
2
 10
285.25662141314081
 20
111.535749647068
 30
0.0
 11
282.75662141314081
 21
109.035749647068
 31
0.0
  0
LINE
  5
D1FA
  8
2
 10
285.25662141314081
 20
111.535749647068
 30
0.0
 11
285.25662141314081
 21
112.035749647068
 31
0.0
  0
ARC
  5
D1FB
  8
0
 10
285.75662141314081
 20
111.535749647068
 30
0.0
 40
0.5
 50
0.000000000000007
 51
90.000000000000028
  0
LINE
  5
D1FC
  8
0
 10
286.25662141314081
 20
111.035749647068
 30
0.0
 11
286.25662141314081
 21
111.535749647068
 31
0.0
  0
ARC
  5
D1FD
  8
0
 10
283.320621413141
 20
113.53574964706959
 30
0.0
 40
0.5
 50
89.999999999999986
 51
180.0
  0
LINE
  5
D1FE
  8
0
 10
282.82461941314091
 20
112.0357496470681
 30
0.0
 11
282.82461941314091
 21
113.53574964706959
 31
0.0
  0
LINE
  5
D200
  8
0
 10
291.9906204131409
 20
100.53574964706959
 30
0.0
 11
291.9906204131409
 21
108.035749647068
 31
0.0
  0
LINE
  5
D201
  8
0
 10
304.75662041314092
 20
112.03574964706959
 30
0.0
 11
304.75662041314092
 21
102.03574964706959
 31
0.0
  0
LINE
  5
D202
  8
0
 10
301.15662041314101
 20
100.03574964706959
 30
0.0
 11
301.15662041314101
 21
113.53574964706959
 31
0.0
  0
LINE
  5
D203
  8
0
 10
300.65662041314101
 20
100.03574964706959
 30
0.0
 11
292.4906204131409
 21
100.03574964706959
 31
0.0
  0
ARC
  5
D204
  8
0
 10
291.48662241314088
 20
100.53574964706959
 30
0.0
 40
0.5
 50
270.0
 51
0.0
  0
ARC
  5
D205
  8
0
 10
292.4906204131409
 20
100.53574964706959
 30
0.0
 40
0.5
 50
180.0
 51
270.0
  0
ARC
  5
D206
  8
0
 10
302.75662041314092
 20
102.03574964706959
 30
0.0
 40
2.0
 50
270.0
 51
0.0
  0
ARC
  5
D207
  8
0
 10
300.65662041314101
 20
100.53574964706959
 30
0.0
 40
0.5
 50
270.0
 51
0.0
  0
LINE
  5
D208
  8
0
 10
301.15662041314101
 20
100.03574964706959
 30
0.0
 11
302.75662041314092
 21
100.03574964706959
 31
0.0
  0
LINE
  5
D209
  8
0
 10
300.65662041314101
 20
114.03574964706969
 30
0.0
 11
292.4906204131409
 21
114.03574964706969
 31
0.0
  0
ARC
  5
D20A
  8
0
 10
292.4906204131409
 20
113.53574964706959
 30
0.0
 40
0.5
 50
89.999999999999986
 51
180.0
  0
ARC
  5
D20B
  8
0
 10
291.48662241314088
 20
113.53574964706959
 30
0.0
 40
0.5
 50
0.0
 51
89.999999999999986
  0
LINE
  5
D20C
  8
0
 10
291.9906204131409
 20
111.0357496470681
 30
0.0
 11
291.9906204131409
 21
113.53574964706959
 31
0.0
  0
ARC
  5
D20D
  8
0
 10
302.75662041314092
 20
112.03574964706969
 30
0.0
 40
2.0
 50
0.0
 51
89.999999999999986
  0
LINE
  5
D20E
  8
0
 10
301.15662041314101
 20
114.03574964706969
 30
0.0
 11
302.75662041314092
 21
114.03574964706969
 31
0.0
  0
ARC
  5
D20F
  8
0
 10
300.65662041314101
 20
113.53574964706959
 30
0.0
 40
0.5
 50
0.0
 51
89.999999999999986
  0
LINE
  5
D210
  8
2
 10
156.20661891314231
 20
103.53574964706679
 30
0.0
 11
156.20661891314211
 21
104.03574964706679
 31
0.0
  0
ARC
  5
D211
  8
0
 10
155.70661891314231
 20
103.53574964706669
 30
0.0
 40
0.5
 50
90.000000000011994
 51
180.00000000001199
  0
ARC
  5
D212
  8
0
 10
154.05661941314179
 20
102.5357496470638
 30
0.0
 40
0.5
 50
90.000000000011994
 51
180.00000000001199
  0
LINE
  5
D213
  8
0
 10
153.55661941314219
 20
100.5357496470637
 30
0.0
 11
153.5566194131417
 21
102.5357496470637
 31
0.0
  0
ARC
  5
D214
  8
0
 10
154.05661941314219
 20
100.5357496470638
 30
0.0
 40
0.5
 50
180.00000000001199
 51
270.00000000001199
  0
LINE
  5
D215
  8
0
 10
155.20661891314239
 20
103.0357496470666
 30
0.0
 11
155.20661891314231
 21
103.5357496470666
 31
0.0
  0
LINE
  5
D216
  8
2
 10
158.70661891314299
 20
100.03574964706741
 30
0.0
 11
158.70661891314279
 21
101.03574964706741
 31
0.0
  0
LINE
  5
D217
  8
2
 10
156.20661891314231
 20
103.53574964706679
 30
0.0
 11
158.70661891314279
 21
101.03574964706741
 31
0.0
  0
LINE
  5
D509
  8
0
 10
212.0566204131411
 20
108.0357496470636
 30
0.0
 11
191.74928923849799
 21
108.0357496470678
 31
0.0
  0
LINE
  5
D50A
  8
0
 10
211.05661941314349
 20
111.0357496470637
 30
0.0
 11
190.2373232213142
 21
111.0357496470681
 31
0.0
  0
LINE
  5
D529
  8
1
 10
175.0066194131409
 20
107.035749647068
 30
0.0
 11
191.10662041314089
 21
107.0357496470714
 31
0.0
  0
CIRCLE
  5
D52A
  8
0
 10
183.05661941314091
 20
107.03574964706969
 30
0.0
 40
7.0
  0
LINE
  5
D52B
  8
2
 10
166.20661891314219
 20
103.5357496470689
 30
0.0
 11
166.20661891314211
 21
104.0357496470689
 31
0.0
  0
LINE
  5
D52C
  8
1
 10
161.20661891314339
 20
98.213691926721296
 30
0.0
 11
161.20661891314171
 21
106.2295729267213
 31
0.0
  0
ARC
  5
D52D
  8
0
 10
172.0566194131423
 20
107.03575509406809
 30
0.0
 40
4.0
 50
270.00020805924203
 51
359.99997162817999
1001
GENIUS_GENODEF_13
1002
{
1000
HIER
1070
     0
1002
}
1002
{
1000
MANEDIT
1070
     0
1002
}
1002
{
1000
NOSEL
1070
     0
1002
}
1002
{
1000
BEHIND
1070
     0
1002
}
1002
{
1000
REACTOR
1002
}
1001
GENIUS_GENOBJ-N-FIL_13
1002
{
1000
OWNER
1000
GEN
1002
}
  0
ARC
  5
D52E
  8
0
 10
166.70661891314231
 20
103.535749647069
 30
0.0
 40
0.5
 50
0.000000000012003
 51
90.000000000011994
  0
LINE
  5
D52F
  8
2
 10
166.20661891314219
 20
103.5357496470689
 30
0.0
 11
163.70661891314279
 21
101.0357496470684
 31
0.0
  0
LINE
  5
D530
  8
2
 10
163.70661891314299
 20
100.0357496470684
 30
0.0
 11
163.70661891314279
 21
101.0357496470684
 31
0.0
  0
LINE
  5
D531
  8
0
 10
167.20661891314239
 20
103.0357496470691
 30
0.0
 11
167.20661891314231
 21
103.5357496470691
 31
0.0
  0
ARC
  5
D532
  8
0
 10
173.0566194131419
 20
101.8482386470678
 30
0.0
 40
0.5
 50
0.000000000012003
 51
75.000000000012022
  0
ARC
  5
D533
  8
0
 10
173.05661941314219
 20
100.5357496470678
 30
0.0
 40
0.5
 50
270.00000000001199
 51
0.000000000012003
  0
LINE
  5
D534
  8
0
 10
170.5566204631059
 20
103.03574964706731
 30
0.0
 11
173.1860294131418
 21
102.3312016470679
 31
0.0
  0
ARC
  5
D535
  8
0
 10
170.4907934131418
 20
102.53574964706731
 30
0.0
 40
0.5
 50
75.000000000012022
 51
90.000000000011994
  0
LINE
  5
D536
  8
0
 10
172.30663443841809
 20
103.035756001926
 30
0.0
 11
170.5566204631057
 21
103.03574964706731
 31
0.0
  0
LINE
  5
D537
  8
0
 10
173.55661941314219
 20
100.5357496470679
 30
0.0
 11
173.5566194131419
 21
101.8482386470679
 31
0.0
  0
LINE
  5
D538
  8
1
 10
183.05661941314261
 20
98.985749647069696
 30
0.0
 11
183.0566194131392
 21
115.0857496470697
 31
0.0
  0
CIRCLE
  5
D539
  8
0
 10
183.05661991314091
 20
107.03574964706969
 30
0.0
 40
4.4999995000074327
  0
ARC
  5
D53B
  8
0
 10
192.00089132313991
 20
106.0357496470678
 30
0.0
 40
2.0
 50
89.999999999988177
 51
173.6206297915455
1001
GENIUS_GENODEF_13
1002
{
1000
HIER
1070
     0
1002
}
1002
{
1000
MANEDIT
1070
     0
1002
}
1002
{
1000
NOSEL
1070
     0
1002
}
1002
{
1000
BEHIND
1070
     0
1002
}
1002
{
1000
REACTOR
1002
}
1001
GENIUS_GENOBJ-N-FIL_13
1002
{
1000
OWNER
1000
GEN
1002
}
  0
ARC
  5
D53C
  8
0
 10
190.60645384841339
 20
115.0357496470681
 30
0.0
 40
4.0
 50
226.65824177276559
 51
269.99999999998778
1001
GENIUS_GENODEF_13
1002
{
1000
HIER
1070
     0
1002
}
1002
{
1000
MANEDIT
1070
     0
1002
}
1002
{
1000
NOSEL
1070
     0
1002
}
1002
{
1000
BEHIND
1070
     0
1002
}
1002
{
1000
REACTOR
1002
}
1001
GENIUS_GENOBJ-N-FIL_13
1002
{
1000
OWNER
1000
GEN
1002
}
  0
LINE
  5
D91D
  8
2
 10
199.90661991314099
 20
111.5357496470666
 30
0.0
 11
209.90661991314099
 21
111.5357496470686
 31
0.0
  0
LINE
  5
D91E
  8
2
 10
202.40661991314161
 20
109.03574964706711
 30
0.0
 11
207.4066199131415
 21
109.0357496470681
 31
0.0
  0
LINE
  5
D91F
  8
0
 10
199.4066199131409
 20
112.0357496470664
 30
0.0
 11
210.4066199131409
 21
112.0357496470687
 31
0.0
  0
ARC
  5
D920
  8
0
 10
199.40661991314099
 20
111.5357496470664
 30
0.0
 40
0.5
 50
90.000000000011994
 51
180.00000000001199
  0
LINE
  5
D921
  8
0
 10
198.9066199131411
 20
111.0357496470663
 30
0.0
 11
198.90661991314099
 21
111.5357496470663
 31
0.0
  0
LINE
  5
D922
  8
2
 10
199.90661991314099
 20
111.5357496470666
 30
0.0
 11
202.40661991314161
 21
109.03574964706711
 31
0.0
  0
LINE
  5
D923
  8
2
 10
199.90661991314099
 20
111.5357496470666
 30
0.0
 11
199.9066199131409
 21
112.0357496470665
 31
0.0
  0
LINE
  5
D924
  8
2
 10
202.4066199131417
 20
108.03574964706711
 30
0.0
 11
202.40661991314161
 21
109.03574964706711
 31
0.0
  0
LINE
  5
D925
  8
2
 10
209.90661991314099
 20
111.5357496470686
 30
0.0
 11
207.4066199131415
 21
109.0357496470681
 31
0.0
  0
LINE
  5
D926
  8
2
 10
207.40661991314181
 20
108.0357496470681
 30
0.0
 11
207.4066199131415
 21
109.0357496470681
 31
0.0
  0
LINE
  5
D927
  8
1
 10
204.90661991314201
 20
106.4758896470676
 30
0.0
 11
204.90661991314059
 21
113.43648764706759
 31
0.0
  0
LINE
  5
D928
  8
2
 10
209.90661991314099
 20
111.5357496470686
 30
0.0
 11
209.9066199131409
 21
112.0357496470686
 31
0.0
  0
ARC
  5
D929
  8
0
 10
210.40661991314099
 20
111.5357496470688
 30
0.0
 40
0.5
 50
0.000000000012003
 51
90.000000000011994
  0
LINE
  5
D92A
  8
0
 10
210.9066199131411
 20
111.0357496470689
 30
0.0
 11
210.90661991314099
 21
111.5357496470689
 31
0.0
  0
LINE
  5
D92B
  8
0
 10
212.05662041314179
 20
111.0357496470636
 30
0.0
 11
211.05661941314349
 21
111.0357496470638
 31
0.0
  0
ARC
  5
D92C
  8
0
 10
212.0566204131417
 20
110.5357496470636
 30
0.0
 40
0.5
 50
359.99999999998801
 51
89.999999999988006
  0
LINE
  5
D92D
  8
0
 10
212.5566204131413
 20
108.5357496470635
 30
0.0
 11
212.5566204131417
 21
110.5357496470635
 31
0.0
  0
ARC
  5
D92E
  8
0
 10
212.0566204131413
 20
108.5357496470636
 30
0.0
 40
0.5
 50
269.99999999998812
 51
359.99999999998801
  0
LINE
  5
D92F
  8
2
 10
94.056619913140878
 20
103.53574964706969
 30
0.0
 11
96.556619913140878
 21
101.03574964706959
 31
0.0
  0
LINE
  5
D930
  8
2
 10
104.05661991314091
 20
103.53574964706969
 30
0.0
 11
94.056619913140878
 21
103.53574964706969
 31
0.0
  0
LINE
  5
D931
  8
0
 10
121.55662041314091
 20
100.03574964706959
 30
0.0
 11
63.356620413140938
 21
100.03574964706959
 31
0.0
  0
LINE
  5
D932
  8
0
 10
92.954621413140956
 20
114.03574964706969
 30
0.0
 11
101.1206214131409
 21
114.03574964706969
 31
0.0
  0
LINE
  5
D933
  8
0
 10
78.926715413140954
 20
103.03574964706959
 30
0.0
 11
98.925756413140945
 21
103.03574964706959
 31
0.0
  0
LINE
  5
D934
  8
0
 10
104.55661991314081
 20
104.03574964706959
 30
0.0
 11
93.556619913140878
 21
104.03574964706959
 31
0.0
  0
LINE
  5
D935
  8
0
 10
82.788621413140959
 20
114.03574964706969
 30
0.0
 11
74.622620413140893
 21
114.03574964706969
 31
0.0
  0
LINE
  5
D936
  8
0
 10
78.456619913140912
 20
104.03574964706959
 30
0.0
 11
67.456619913140884
 21
104.03574964706959
 31
0.0
  0
LINE
  5
D937
  8
0
 10
64.956620413140968
 20
103.03574964706969
 30
0.0
 11
78.926715413140954
 21
103.03574964706959
 31
0.0
  0
LINE
  5
D938
  8
1
 10
72.956619913140884
 20
98.475890647069662
 30
0.0
 11
72.956619913140884
 21
105.4364876470696
 31
0.0
  0
LINE
  5
D939
  8
2
 10
77.956619913140912
 20
103.53574964706969
 30
0.0
 11
77.956619913140912
 21
104.03574964706959
 31
0.0
  0
LINE
  5
D93A
  8
2
 10
67.956619913140884
 20
103.53574964706969
 30
0.0
 11
67.956619913140884
 21
104.03574964706959
 31
0.0
  0
LINE
  5
D93B
  8
0
 10
64.956620413140968
 20
113.53574964706959
 30
0.0
 11
64.956620413140968
 21
100.03574964706959
 31
0.0
  0
LINE
  5
D93C
  8
0
 10
64.956620413140968
 20
100.03574964706959
 30
0.0
 11
64.956620413140968
 21
113.53574964706959
 31
0.0
  0
LINE
  5
D93D
  8
0
 10
61.356620413140952
 20
112.03574964706969
 30
0.0
 11
61.356620413140952
 21
102.03574964706959
 31
0.0
  0
ARC
  5
D93E
  8
0
 10
67.456619913140884
 20
103.53574964706969
 30
0.0
 40
0.5
 50
90.000000000000028
 51
180.0
  0
LINE
  5
D93F
  8
2
 10
77.956619913140912
 20
103.53574964706969
 30
0.0
 11
67.956619913140884
 21
103.53574964706969
 31
0.0
  0
LINE
  5
D940
  8
2
 10
67.956619913140884
 20
103.53574964706969
 30
0.0
 11
70.456619913140884
 21
101.03574964706959
 31
0.0
  0
ARC
  5
D941
  8
0
 10
63.356620413140938
 20
102.03574964706959
 30
0.0
 40
2.0
 50
180.0
 51
270.0
  0
LINE
  5
D942
  8
0
 10
66.956619913140884
 20
103.03574964706959
 30
0.0
 11
66.956619913140884
 21
103.53574964706969
 31
0.0
  0
LINE
  5
D943
  8
2
 10
75.456619913140884
 20
101.03574964706959
 30
0.0
 11
70.456619913140884
 21
101.03574964706959
 31
0.0
  0
LINE
  5
D944
  8
2
 10
70.456619913140884
 20
100.03574964706959
 30
0.0
 11
70.456619913140884
 21
101.03574964706959
 31
0.0
  0
LINE
  5
D945
  8
2
 10
75.456619913140884
 20
100.03574964706959
 30
0.0
 11
75.456619913140884
 21
101.03574964706959
 31
0.0
  0
LINE
  5
D946
  8
2
 10
77.956619913140912
 20
103.53574964706969
 30
0.0
 11
75.456619913140884
 21
101.03574964706959
 31
0.0
  0
LINE
  5
D947
  8
0
 10
73.622620413140908
 20
114.03574964706969
 30
0.0
 11
64.956620413140968
 21
114.03574964706969
 31
0.0
  0
LINE
  5
D948
  8
0
 10
64.956620413140968
 20
114.03574964706969
 30
0.0
 11
63.356620413140938
 21
114.03574964706969
 31
0.0
  0
ARC
  5
D949
  8
0
 10
65.456620413140968
 20
113.53574964706959
 30
0.0
 40
0.5
 50
89.999999999999986
 51
180.0
  0
ARC
  5
D94A
  8
0
 10
63.356620413140938
 20
112.03574964706969
 30
0.0
 40
2.0
 50
89.999999999999986
 51
180.0
  0
ARC
  5
D94B
  8
0
 10
73.622620413140908
 20
113.53574964706959
 30
0.0
 40
0.5
 50
0.0
 51
89.999999999999986
  0
LINE
  5
D94C
  8
0
 10
74.122620413140893
 20
113.53574964706959
 30
0.0
 11
74.122620413140893
 21
104.03574964706959
 31
0.0
  0
ARC
  5
D94D
  8
0
 10
74.622620413140893
 20
113.53574964706959
 30
0.0
 40
0.5
 50
89.999999999999986
 51
180.0
  0
LINE
  5
D94E
  8
1
 10
92.456620413140953
 20
96.769340424132793
 30
0.0
 11
92.456620413140953
 21
119.2287060806985
 31
0.0
  0
LINE
  5
D94F
  8
2
 10
94.056619913140878
 20
103.53574964706969
 30
0.0
 11
94.056619913140878
 21
104.03574964706959
 31
0.0
  0
LINE
  5
D950
  8
0
 10
92.458619413140923
 20
103.03574964706959
 30
0.0
 11
92.458619413140923
 21
113.53574964706959
 31
0.0
  0
LINE
  5
D951
  8
0
 10
83.288621413140945
 20
113.53574964706959
 30
0.0
 11
83.288621413140945
 21
103.03574964706959
 31
0.0
  0
ARC
  5
D952
  8
0
 10
93.556619913140878
 20
103.53574964706969
 30
0.0
 40
0.5
 50
90.000000000000028
 51
180.0
  0
ARC
  5
D953
  8
0
 10
78.456619913140912
 20
103.53574964706969
 30
0.0
 40
0.5
 50
0.000000000000007
 51
90.000000000000028
  0
LINE
  5
D954
  8
0
 10
78.956619913140912
 20
103.03574964706959
 30
0.0
 11
78.956619913140912
 21
103.53574964706969
 31
0.0
  0
LINE
  5
D955
  8
0
 10
93.056619913140864
 20
103.03574964706959
 30
0.0
 11
93.056619913140864
 21
103.53574964706969
 31
0.0
  0
LINE
  5
D956
  8
0
 10
83.788621413140959
 20
114.03574964706969
 30
0.0
 11
91.954621413140956
 21
114.03574964706969
 31
0.0
  0
ARC
  5
D957
  8
0
 10
82.788621413140959
 20
113.53574964706959
 30
0.0
 40
0.5
 50
0.0
 51
89.999999999999986
  0
ARC
  5
D958
  8
0
 10
83.788621413140959
 20
113.53574964706959
 30
0.0
 40
0.5
 50
89.999999999999986
 51
180.0
  0
ARC
  5
D959
  8
0
 10
92.954621413140956
 20
113.53574964706959
 30
0.0
 40
0.5
 50
89.999999999999986
 51
180.0
  0
ARC
  5
D95A
  8
0
 10
91.954621413140956
 20
113.53574964706959
 30
0.0
 40
0.5
 50
0.0
 51
89.999999999999986
  0
LINE
  5
D95B
  8
0
 10
98.925756413140945
 20
103.03574964706959
 30
0.0
 11
119.9566204131409
 21
103.03574964706959
 31
0.0
  0
LINE
  5
D95C
  8
0
 10
119.456620413141
 20
114.03574964706969
 30
0.0
 11
111.2906204131409
 21
114.03574964706969
 31
0.0
  0
LINE
  5
D95D
  8
1
 10
99.056619913140878
 20
105.2112872689612
 30
0.0
 11
99.056619913140878
 21
98.54421894192393
 31
0.0
  0
LINE
  5
D95E
  8
2
 10
104.05661991314091
 20
103.53574964706969
 30
0.0
 11
104.05661991314091
 21
104.03574964706959
 31
0.0
  0
ARC
  5
D95F
  8
0
 10
104.55661991314081
 20
103.53574964706969
 30
0.0
 40
0.5
 50
0.000000000000007
 51
90.000000000000028
  0
LINE
  5
D960
  8
0
 10
110.7906204131409
 20
103.03574964706959
 30
0.0
 11
110.7906204131409
 21
113.53574964706959
 31
0.0
  0
LINE
  5
D961
  8
2
 10
101.55661991314091
 20
101.03574964706959
 30
0.0
 11
96.556619913140878
 21
101.03574964706959
 31
0.0
  0
LINE
  5
D962
  8
2
 10
96.556619913140878
 20
100.03574964706959
 30
0.0
 11
96.556619913140878
 21
101.03574964706959
 31
0.0
  0
LINE
  5
D963
  8
2
 10
104.05661991314091
 20
103.53574964706969
 30
0.0
 11
101.55661991314091
 21
101.03574964706959
 31
0.0
  0
LINE
  5
D964
  8
2
 10
101.55661991314091
 20
100.03574964706959
 30
0.0
 11
101.55661991314091
 21
101.03574964706959
 31
0.0
  0
LINE
  5
D965
  8
0
 10
105.05661991314091
 20
103.03574964706959
 30
0.0
 11
105.05661991314091
 21
103.53574964706969
 31
0.0
  0
LINE
  5
D966
  8
0
 10
102.1206214131409
 20
114.03574964706969
 30
0.0
 11
110.2866224131409
 21
114.03574964706969
 31
0.0
  0
LINE
  5
D967
  8
0
 10
101.62461941314091
 20
104.03574964706959
 30
0.0
 11
101.62461941314091
 21
113.53574964706959
 31
0.0
  0
ARC
  5
D968
  8
0
 10
101.1206214131409
 20
113.53574964706959
 30
0.0
 40
0.5
 50
0.0
 51
89.999999999999986
  0
ARC
  5
D969
  8
0
 10
102.1206214131409
 20
113.53574964706959
 30
0.0
 40
0.5
 50
89.999999999999986
 51
180.0
  0
ARC
  5
D96A
  8
0
 10
110.2866224131409
 20
113.53574964706959
 30
0.0
 40
0.5
 50
0.0
 51
89.999999999999986
  0
ARC
  5
D96B
  8
0
 10
111.2906204131409
 20
113.53574964706959
 30
0.0
 40
0.5
 50
89.999999999999986
 51
180.0
  0
LINE
  5
D96C
  8
0
 10
119.9566204131409
 20
100.03574964706959
 30
0.0
 11
119.9566204131409
 21
113.53574964706959
 31
0.0
  0
ARC
  5
D96D
  8
0
 10
121.55662041314091
 20
102.03574964706959
 30
0.0
 40
2.0
 50
270.0
 51
0.0
  0
ARC
  5
D96E
  8
0
 10
121.55662041314091
 20
112.03574964706969
 30
0.0
 40
2.0
 50
0.0
 51
89.999999999999986
  0
LINE
  5
D96F
  8
0
 10
119.9566204131409
 20
114.03574964706969
 30
0.0
 11
121.55662041314091
 21
114.03574964706969
 31
0.0
  0
ARC
  5
D970
  8
0
 10
119.456620413141
 20
113.53574964706959
 30
0.0
 40
0.5
 50
0.0
 51
89.999999999999986
  0
LINE
  5
D971
  8
0
 10
123.55662041314091
 20
112.03574964706959
 30
0.0
 11
123.55662041314091
 21
102.03574964706959
 31
0.0
  0
LINE
  5
EE88
  8
3
 10
204.01310429741861
 20
208.41334733125939
 30
0.0
 11
204.06767013654661
 21
208.47246032364819
 31
0.0
  0
LINE
  5
EE89
  8
3
 10
206.1866435560205
 20
208.99993010188629
 30
0.0
 11
206.1866435560205
 21
208.35423433887061
 31
0.0
  0
LINE
  5
EE8A
  8
3
 10
204.4268952441399
 20
205.03481245857901
 30
0.0
 11
204.43144239740059
 21
204.95751085314751
 31
0.0
  0
LINE
  5
EE8B
  8
3
 10
205.44545757453079
 20
204.9711523129296
 30
0.0
 11
205.44545757453079
 21
205.05300107162171
 31
0.0
  0
LINE
  5
EE8C
  8
3
 10
206.03204034515761
 20
204.99843523249359
 30
0.0
 11
206.10024764406771
 21
204.9620580064082
 31
0.0
  0
LINE
  5
EE8D
  8
3
 10
204.43144239740059
 20
204.88475640097681
 30
0.0
 11
204.43144239740059
 21
204.80745479554531
 31
0.0
  0
LINE
  5
EE8E
  8
3
 10
204.4268952441399
 20
204.7301531901139
 30
0.0
 11
204.4268952441399
 21
204.6528515846824
 31
0.0
  0
LINE
  5
EE8F
  8
3
 10
204.43144239740059
 20
204.80745479554531
 30
0.0
 11
204.4268952441399
 21
204.7301531901139
 31
0.0
  0
LINE
  5
EE90
  8
3
 10
204.4268952441399
 20
204.6528515846824
 30
0.0
 11
204.4268952441399
 21
204.57554997925101
 31
0.0
  0
LINE
  5
EE91
  8
3
 10
204.4268952441399
 20
204.5027955270802
 30
0.0
 11
204.4268952441399
 21
204.43004107490941
 31
0.0
  0
LINE
  5
EE92
  8
3
 10
204.4268952441399
 20
204.57554997925101
 30
0.0
 11
204.4268952441399
 21
204.5027955270802
 31
0.0
  0
LINE
  5
EE93
  8
3
 10
205.45000472779139
 20
204.80745479554531
 30
0.0
 11
205.45000472779139
 21
204.88930355423739
 31
0.0
  0
LINE
  5
EE94
  8
3
 10
205.44545757453079
 20
204.6437572781611
 30
0.0
 11
205.44545757453079
 21
204.72560603685321
 31
0.0
  0
LINE
  5
EE95
  8
3
 10
205.44545757453079
 20
204.72560603685321
 30
0.0
 11
205.45000472779139
 21
204.80745479554531
 31
0.0
  0
LINE
  5
EE96
  8
3
 10
205.44091042126999
 20
204.56190851946889
 30
0.0
 11
205.44545757453079
 21
204.6437572781611
 31
0.0
  0
LINE
  5
EE97
  8
3
 10
205.43636326800939
 20
204.47551260751609
 30
0.0
 11
205.44091042126999
 21
204.56190851946889
 31
0.0
  0
LINE
  5
EE98
  8
3
 10
205.45000472779139
 20
204.88930355423739
 30
0.0
 11
205.44545757453079
 21
204.9711523129296
 31
0.0
  0
LINE
  5
EE99
  8
3
 10
204.43144239740059
 20
204.95751085314751
 30
0.0
 11
204.43144239740059
 21
204.88475640097681
 31
0.0
  0
LINE
  5
EE9A
  8
3
 10
206.14117202341379
 20
204.8438320216307
 30
0.0
 11
206.15936063645651
 21
204.78926618250259
 31
0.0
  0
LINE
  5
EE9B
  8
3
 10
206.16845494297789
 20
204.72560603685321
 30
0.0
 11
206.17754924949921
 21
204.66649304446449
 31
0.0
  0
LINE
  5
EE9C
  8
3
 10
206.15936063645651
 20
204.78926618250259
 30
0.0
 11
206.16845494297789
 21
204.72560603685321
 31
0.0
  0
LINE
  5
EE9D
  8
3
 10
206.17754924949921
 20
204.602832898815
 30
0.0
 11
206.1820964027599
 21
204.5437199064263
 31
0.0
  0
LINE
  5
EE9E
  8
3
 10
206.17754924949921
 20
204.66649304446449
 30
0.0
 11
206.17754924949921
 21
204.602832898815
 31
0.0
  0
LINE
  5
EE9F
  8
3
 10
206.1820964027599
 20
204.48005976077681
 30
0.0
 11
206.17754924949921
 21
204.4163996151274
 31
0.0
  0
LINE
  5
EEA0
  8
3
 10
206.1820964027599
 20
204.5437199064263
 30
0.0
 11
206.1820964027599
 21
204.48005976077681
 31
0.0
  0
LINE
  5
EEA1
  8
3
 10
206.12298341037121
 20
204.90294501401939
 30
0.0
 11
206.14117202341379
 21
204.8438320216307
 31
0.0
  0
LINE
  5
EEA2
  8
3
 10
206.10024764406771
 20
204.9620580064082
 30
0.0
 11
206.12298341037121
 21
204.90294501401939
 31
0.0
  0
LINE
  5
EEA3
  8
3
 10
205.79558837560259
 20
205.04845391836099
 30
0.0
 11
205.83651275494859
 21
205.04390676510039
 31
0.0
  0
LINE
  5
EEA4
  8
3
 10
205.80468268212391
 20
205.1575855966172
 30
0.0
 11
205.7546639962566
 21
205.1575855966172
 31
0.0
  0
LINE
  5
EEA5
  8
3
 10
205.84560706146999
 20
206.6535990193787
 30
0.0
 11
205.79558837560259
 21
206.621768946554
 31
0.0
  0
LINE
  5
EEA6
  8
3
 10
205.76830545603849
 20
206.21252515309351
 30
0.0
 11
205.80468268212391
 21
206.18978938679001
 31
0.0
  0
LINE
  5
EEA7
  8
3
 10
204.09040590285011
 20
205.4076790259542
 30
0.0
 11
204.049481523504
 21
205.4349619455183
 31
0.0
  0
LINE
  5
EEA8
  8
3
 10
204.13587743545671
 20
205.3713017998688
 30
0.0
 11
204.13587743545671
 21
205.37584895312949
 31
0.0
  0
LINE
  5
EEA9
  8
3
 10
204.14042458871751
 20
205.3713017998688
 30
0.0
 11
204.13587743545671
 21
205.3713017998688
 31
0.0
  0
LINE
  5
EEAA
  8
3
 10
204.14497174197811
 20
205.3667546466082
 30
0.0
 11
204.14042458871751
 21
205.3713017998688
 31
0.0
  0
LINE
  5
EEAB
  8
3
 10
204.1495188952388
 20
205.3667546466082
 30
0.0
 11
204.14497174197811
 21
205.3667546466082
 31
0.0
  0
LINE
  5
EEAC
  8
3
 10
204.1540660484994
 20
205.3667546466082
 30
0.0
 11
204.1495188952388
 21
205.3667546466082
 31
0.0
  0
LINE
  5
EEAD
  8
3
 10
204.1586132017602
 20
205.3667546466082
 30
0.0
 11
204.1540660484994
 21
205.3667546466082
 31
0.0
  0
LINE
  5
EEAE
  8
3
 10
204.16316035502089
 20
205.3667546466082
 30
0.0
 11
204.1586132017602
 21
205.3667546466082
 31
0.0
  0
LINE
  5
EEAF
  8
3
 10
204.16770750828161
 20
205.36220749334751
 30
0.0
 11
204.16316035502089
 21
205.3667546466082
 31
0.0
  0
LINE
  5
EEB0
  8
3
 10
204.17225466154221
 20
205.36220749334751
 30
0.0
 11
204.16770750828161
 21
205.36220749334751
 31
0.0
  0
LINE
  5
EEB1
  8
3
 10
204.1768018148029
 20
205.36220749334751
 30
0.0
 11
204.17225466154221
 21
205.36220749334751
 31
0.0
  0
LINE
  5
EEB2
  8
3
 10
204.1813489680635
 20
205.36220749334751
 30
0.0
 11
204.1768018148029
 21
205.36220749334751
 31
0.0
  0
LINE
  5
EEB3
  8
3
 10
204.18589612132419
 20
205.36220749334751
 30
0.0
 11
204.1813489680635
 21
205.36220749334751
 31
0.0
  0
LINE
  5
EEB4
  8
3
 10
204.19044327458491
 20
205.36220749334751
 30
0.0
 11
204.18589612132419
 21
205.36220749334751
 31
0.0
  0
LINE
  5
EEB5
  8
3
 10
204.21317904088821
 20
205.3485660335655
 30
0.0
 11
204.19044327458491
 21
205.36220749334751
 31
0.0
  0
LINE
  5
EEB6
  8
3
 10
204.2313676539309
 20
205.3394717270441
 30
0.0
 11
204.2222733474095
 21
205.34401888030479
 31
0.0
  0
LINE
  5
EEB7
  8
3
 10
204.2222733474095
 20
205.34401888030479
 30
0.0
 11
204.21317904088821
 21
205.3485660335655
 31
0.0
  0
LINE
  5
EEB8
  8
3
 10
204.2313676539309
 20
205.0984726042285
 30
0.0
 11
204.2768391865377
 21
205.10301975748911
 31
0.0
  0
LINE
  5
EEB9
  8
3
 10
204.2813863397983
 20
205.32583026726209
 30
0.0
 11
204.26774488001629
 21
205.33037742052281
 31
0.0
  0
LINE
  5
EEBA
  8
3
 10
204.81340327129709
 20
205.021170998797
 30
0.0
 11
204.84523334412191
 21
205.02571815205769
 31
0.0
  0
LINE
  5
EEBB
  8
3
 10
204.78157319847239
 20
205.021170998797
 30
0.0
 11
204.81340327129709
 21
205.021170998797
 31
0.0
  0
LINE
  5
EEBC
  8
3
 10
204.74519597238699
 20
205.021170998797
 30
0.0
 11
204.78157319847239
 21
205.021170998797
 31
0.0
  0
LINE
  5
EEBD
  8
3
 10
204.7088187463016
 20
205.01662384553629
 30
0.0
 11
204.74519597238699
 21
205.021170998797
 31
0.0
  0
LINE
  5
EEBE
  8
3
 10
204.66789436695561
 20
205.01662384553629
 30
0.0
 11
204.7088187463016
 21
205.01662384553629
 31
0.0
  0
LINE
  5
EEBF
  8
3
 10
204.6224228343489
 20
205.01662384553629
 30
0.0
 11
204.66789436695561
 21
205.01662384553629
 31
0.0
  0
LINE
  5
EEC0
  8
3
 10
204.41780093761861
 20
205.1121140640104
 30
0.0
 11
204.4268952441399
 21
205.03481245857901
 31
0.0
  0
LINE
  5
EEC1
  8
3
 10
204.3268578724051
 20
205.10301975748911
 30
0.0
 11
204.41780093761861
 21
205.1121140640104
 31
0.0
  0
LINE
  5
EEC2
  8
3
 10
204.2768391865377
 20
205.10301975748911
 30
0.0
 11
204.3268578724051
 21
205.10301975748911
 31
0.0
  0
LINE
  5
EEC3
  8
3
 10
204.29502779958031
 20
205.32583026726209
 30
0.0
 11
204.2813863397983
 21
205.32583026726209
 31
0.0
  0
LINE
  5
EEC4
  8
3
 10
204.30412210610169
 20
205.3212831140014
 30
0.0
 11
204.29502779958031
 21
205.32583026726209
 31
0.0
  0
LINE
  5
EEC5
  8
3
 10
204.31776356588369
 20
205.3167359607408
 30
0.0
 11
204.30412210610169
 21
205.3212831140014
 31
0.0
  0
LINE
  5
EEC6
  8
3
 10
204.3314050256657
 20
205.3167359607408
 30
0.0
 11
204.31776356588369
 21
205.3167359607408
 31
0.0
  0
LINE
  5
EEC7
  8
3
 10
204.34504648544791
 20
205.31218880748011
 30
0.0
 11
204.3314050256657
 21
205.3167359607408
 31
0.0
  0
LINE
  5
EEC8
  8
3
 10
204.3586879452298
 20
205.30764165421931
 30
0.0
 11
204.34504648544791
 21
205.31218880748011
 31
0.0
  0
LINE
  5
EEC9
  8
3
 10
204.37232940501181
 20
205.30309450095871
 30
0.0
 11
204.3586879452298
 21
205.30764165421931
 31
0.0
  0
LINE
  5
EECA
  8
3
 10
204.38597086479379
 20
205.29854734769799
 30
0.0
 11
204.37232940501181
 21
205.30309450095871
 31
0.0
  0
LINE
  5
EECB
  8
3
 10
204.48600823652859
 20
205.28035873465529
 30
0.0
 11
204.38597086479379
 21
205.29854734769799
 31
0.0
  0
LINE
  5
EECC
  8
3
 10
204.53602692239599
 20
205.28035873465529
 30
0.0
 11
204.48600823652859
 21
205.28035873465529
 31
0.0
  0
LINE
  5
EECD
  8
3
 10
204.58604560826339
 20
205.28035873465529
 30
0.0
 11
204.53602692239599
 21
205.28035873465529
 31
0.0
  0
LINE
  5
EECE
  8
3
 10
204.6360642941309
 20
205.2849058879161
 30
0.0
 11
204.58604560826339
 21
205.28035873465529
 31
0.0
  0
LINE
  5
EECF
  8
3
 10
204.6860829799983
 20
205.2894530411767
 30
0.0
 11
204.6360642941309
 21
205.2849058879161
 31
0.0
  0
LINE
  5
EED0
  8
3
 10
204.7361016658657
 20
205.29854734769799
 30
0.0
 11
204.6860829799983
 21
205.2894530411767
 31
0.0
  0
LINE
  5
EED1
  8
3
 10
204.7861203517331
 20
205.30764165421931
 30
0.0
 11
204.7361016658657
 21
205.29854734769799
 31
0.0
  0
LINE
  5
EED2
  8
3
 10
204.83159188433979
 20
205.3212831140014
 30
0.0
 11
204.7861203517331
 21
205.30764165421931
 31
0.0
  0
LINE
  5
EED3
  8
3
 10
204.24500911371291
 20
205.33492457378341
 30
0.0
 11
204.2313676539309
 21
205.3394717270441
 31
0.0
  0
LINE
  5
EED4
  8
3
 10
204.2541034202344
 20
205.33037742052281
 30
0.0
 11
204.24500911371291
 21
205.33492457378341
 31
0.0
  0
LINE
  5
EED5
  8
3
 10
204.26774488001629
 20
205.33037742052281
 30
0.0
 11
204.2541034202344
 21
205.33037742052281
 31
0.0
  0
LINE
  5
EED6
  8
3
 10
204.13587743545671
 20
205.10301975748911
 30
0.0
 11
204.1813489680635
 21
205.10301975748911
 31
0.0
  0
LINE
  5
EED7
  8
3
 10
204.08585874958939
 20
205.10301975748911
 30
0.0
 11
204.13587743545671
 21
205.10301975748911
 31
0.0
  0
LINE
  5
EED8
  8
3
 10
204.04038721698271
 20
205.10301975748911
 30
0.0
 11
204.08585874958939
 21
205.10301975748911
 31
0.0
  0
LINE
  5
EED9
  8
3
 10
203.99491568437591
 20
205.1075669107498
 30
0.0
 11
204.04038721698271
 21
205.10301975748911
 31
0.0
  0
LINE
  5
EEDA
  8
3
 10
203.94489699850851
 20
205.1075669107498
 30
0.0
 11
203.99491568437591
 21
205.1075669107498
 31
0.0
  0
LINE
  5
EEDB
  8
3
 10
203.8994254659018
 20
205.1075669107498
 30
0.0
 11
203.94489699850851
 21
205.1075669107498
 31
0.0
  0
LINE
  5
EEDC
  8
3
 10
203.853953933295
 20
205.1075669107498
 30
0.0
 11
203.8994254659018
 21
205.1075669107498
 31
0.0
  0
LINE
  5
EEDD
  8
3
 10
204.1813489680635
 20
205.10301975748911
 30
0.0
 11
204.2313676539309
 21
205.0984726042285
 31
0.0
  0
LINE
  5
EEDE
  8
3
 10
204.1267831289355
 20
205.38039610639021
 30
0.0
 11
204.09040590285011
 21
205.4076790259542
 31
0.0
  0
LINE
  5
EEDF
  8
3
 10
204.13587743545671
 20
205.37584895312949
 30
0.0
 11
204.1267831289355
 21
205.38039610639021
 31
0.0
  0
LINE
  5
EEE0
  8
3
 10
204.49510254305011
 20
206.817296536763
 30
0.0
 11
204.49510254305011
 21
206.7309006248102
 31
0.0
  0
LINE
  5
EEE1
  8
3
 10
204.65880006043429
 20
206.7081648585069
 30
0.0
 11
204.64515860065231
 21
207.8767832465
 31
0.0
  0
LINE
  5
EEE2
  8
3
 10
204.2813863397983
 20
206.6035803335113
 30
0.0
 11
204.24046196045231
 21
206.61267464003271
 31
0.0
  0
LINE
  5
EEE3
  8
3
 10
204.49510254305011
 20
206.7309006248102
 30
0.0
 11
204.47236677674661
 21
206.56720310742591
 31
0.0
  0
LINE
  5
EEE4
  8
3
 10
204.48146108326799
 20
206.48080719547309
 30
0.0
 11
204.48146108326799
 21
206.44442996938781
 31
0.0
  0
LINE
  5
EEE5
  8
3
 10
204.48146108326799
 20
206.41259989656299
 30
0.0
 11
204.48146108326799
 21
206.38076982373829
 31
0.0
  0
LINE
  5
EEE6
  8
3
 10
204.48146108326799
 20
206.44442996938781
 30
0.0
 11
204.48146108326799
 21
206.41259989656299
 31
0.0
  0
LINE
  5
EEE7
  8
3
 10
204.4769139300073
 20
206.5217315748192
 30
0.0
 11
204.48146108326799
 21
206.48080719547309
 31
0.0
  0
LINE
  5
EEE8
  8
3
 10
204.47236677674661
 20
206.56720310742591
 30
0.0
 11
204.4769139300073
 21
206.5217315748192
 31
0.0
  0
LINE
  5
EEE9
  8
3
 10
204.66334721369489
 20
206.7036177052461
 30
0.0
 11
204.65880006043429
 21
206.7081648585069
 31
0.0
  0
LINE
  5
EEEA
  8
3
 10
204.66334721369489
 20
206.6990705519855
 30
0.0
 11
204.66334721369489
 21
206.7036177052461
 31
0.0
  0
LINE
  5
EEEB
  8
3
 10
204.66334721369489
 20
206.69452339872481
 30
0.0
 11
204.66334721369489
 21
206.6990705519855
 31
0.0
  0
LINE
  5
EEEC
  8
3
 10
204.66789436695561
 20
206.68997624546409
 30
0.0
 11
204.66334721369489
 21
206.69452339872481
 31
0.0
  0
LINE
  5
EEED
  8
3
 10
204.66789436695561
 20
206.68542909220349
 30
0.0
 11
204.66789436695561
 21
206.68997624546409
 31
0.0
  0
LINE
  5
EEEE
  8
3
 10
204.66789436695561
 20
206.6808819389428
 30
0.0
 11
204.66789436695561
 21
206.68542909220349
 31
0.0
  0
LINE
  5
EEEF
  8
3
 10
204.6724415202163
 20
206.6808819389428
 30
0.0
 11
204.66789436695561
 21
206.6808819389428
 31
0.0
  0
LINE
  5
EEF0
  8
3
 10
204.6724415202163
 20
206.67633478568209
 30
0.0
 11
204.6724415202163
 21
206.6808819389428
 31
0.0
  0
LINE
  5
EEF1
  8
3
 10
204.74064881912631
 20
206.621768946554
 30
0.0
 11
204.6724415202163
 21
206.67633478568209
 31
0.0
  0
LINE
  5
EEF2
  8
3
 10
204.7770260452117
 20
206.5990331802507
 30
0.0
 11
204.74064881912631
 21
206.621768946554
 31
0.0
  0
LINE
  5
EEF3
  8
3
 10
204.81340327129709
 20
206.580844567208
 30
0.0
 11
204.7770260452117
 21
206.5990331802507
 31
0.0
  0
LINE
  5
EEF4
  8
3
 10
204.8543276506432
 20
206.55810880090459
 30
0.0
 11
204.81340327129709
 21
206.580844567208
 31
0.0
  0
LINE
  5
EEF5
  8
3
 10
204.31776356588369
 20
206.59448602699001
 30
0.0
 11
204.2813863397983
 21
206.6035803335113
 31
0.0
  0
LINE
  5
EEF6
  8
3
 10
204.3586879452298
 20
206.58539172046869
 30
0.0
 11
204.31776356588369
 21
206.59448602699001
 31
0.0
  0
LINE
  5
EEF7
  8
3
 10
204.3950651713152
 20
206.57175026068671
 30
0.0
 11
204.3586879452298
 21
206.58539172046869
 31
0.0
  0
LINE
  5
EEF8
  8
3
 10
204.43144239740059
 20
206.5535616476439
 30
0.0
 11
204.3950651713152
 21
206.57175026068671
 31
0.0
  0
LINE
  5
EEF9
  8
3
 10
204.46327247022529
 20
206.53537303460121
 30
0.0
 11
204.43144239740059
 21
206.5535616476439
 31
0.0
  0
LINE
  5
EEFA
  8
3
 10
204.46781962348601
 20
206.52627872807989
 30
0.0
 11
204.46327247022529
 21
206.53537303460121
 31
0.0
  0
LINE
  5
EEFB
  8
3
 10
204.46781962348601
 20
206.5217315748192
 30
0.0
 11
204.46781962348601
 21
206.52627872807989
 31
0.0
  0
LINE
  5
EEFC
  8
3
 10
204.46327247022529
 20
206.5217315748192
 30
0.0
 11
204.46781962348601
 21
206.5217315748192
 31
0.0
  0
LINE
  5
EEFD
  8
3
 10
204.80885611803649
 20
206.2216194596148
 30
0.0
 11
204.8634219571646
 21
206.2443552259181
 31
0.0
  0
LINE
  5
EEFE
  8
3
 10
204.7861203517331
 20
206.19888369331139
 30
0.0
 11
204.80885611803649
 21
206.2216194596148
 31
0.0
  0
LINE
  5
EEFF
  8
3
 10
204.7770260452117
 20
206.18978938679001
 30
0.0
 11
204.7861203517331
 21
206.19888369331139
 31
0.0
  0
LINE
  5
EF00
  8
3
 10
204.76338458542969
 20
206.18524223352941
 30
0.0
 11
204.7770260452117
 21
206.18978938679001
 31
0.0
  0
LINE
  5
EF01
  8
3
 10
204.74974312564771
 20
206.176147927008
 30
0.0
 11
204.76338458542969
 21
206.18524223352941
 31
0.0
  0
LINE
  5
EF02
  8
3
 10
204.74064881912631
 20
206.16705362048671
 30
0.0
 11
204.74974312564771
 21
206.176147927008
 31
0.0
  0
LINE
  5
EF03
  8
3
 10
204.7270073593443
 20
206.15795931396531
 30
0.0
 11
204.74064881912631
 21
206.16705362048671
 31
0.0
  0
LINE
  5
EF04
  8
3
 10
204.71336589956229
 20
206.14886500744399
 30
0.0
 11
204.7270073593443
 21
206.15795931396531
 31
0.0
  0
LINE
  5
EF05
  8
3
 10
204.704271593041
 20
206.1397707009227
 30
0.0
 11
204.71336589956229
 21
206.14886500744399
 31
0.0
  0
LINE
  5
EF06
  8
3
 10
204.69063013325891
 20
206.13067639440129
 30
0.0
 11
204.704271593041
 21
206.1397707009227
 31
0.0
  0
LINE
  5
EF07
  8
3
 10
204.68153582673759
 20
206.12158208788
 30
0.0
 11
204.69063013325891
 21
206.13067639440129
 31
0.0
  0
LINE
  5
EF08
  8
3
 10
204.4769139300073
 20
206.18524223352941
 30
0.0
 11
204.48146108326799
 21
206.162506467226
 31
0.0
  0
LINE
  5
EF09
  8
3
 10
204.4769139300073
 20
206.20797799983271
 30
0.0
 11
204.4769139300073
 21
206.18524223352941
 31
0.0
  0
LINE
  5
EF0A
  8
3
 10
204.4769139300073
 20
206.23071376613609
 30
0.0
 11
204.4769139300073
 21
206.20797799983271
 31
0.0
  0
LINE
  5
EF0B
  8
3
 10
204.4769139300073
 20
206.2534495324395
 30
0.0
 11
204.4769139300073
 21
206.23071376613609
 31
0.0
  0
LINE
  5
EF0C
  8
3
 10
204.4769139300073
 20
206.27618529874289
 30
0.0
 11
204.4769139300073
 21
206.2534495324395
 31
0.0
  0
LINE
  5
EF0D
  8
3
 10
204.4769139300073
 20
206.3034682183069
 30
0.0
 11
204.4769139300073
 21
206.27618529874289
 31
0.0
  0
LINE
  5
EF0E
  8
3
 10
204.4769139300073
 20
206.3262039846102
 30
0.0
 11
204.4769139300073
 21
206.3034682183069
 31
0.0
  0
LINE
  5
EF0F
  8
3
 10
204.48146108326799
 20
206.3534869041743
 30
0.0
 11
204.4769139300073
 21
206.3262039846102
 31
0.0
  0
LINE
  5
EF10
  8
3
 10
204.48146108326799
 20
206.38076982373829
 30
0.0
 11
204.48146108326799
 21
206.3534869041743
 31
0.0
  0
LINE
  5
EF11
  8
3
 10
204.65880006043429
 20
206.10794062809791
 30
0.0
 11
204.66789436695561
 21
206.1124877813586
 31
0.0
  0
LINE
  5
EF12
  8
3
 10
204.64970575391291
 20
206.09884632157659
 30
0.0
 11
204.65880006043429
 21
206.10794062809791
 31
0.0
  0
LINE
  5
EF13
  8
3
 10
204.64061144739151
 20
206.0897520150553
 30
0.0
 11
204.64970575391291
 21
206.09884632157659
 31
0.0
  0
LINE
  5
EF14
  8
3
 10
204.6269699876095
 20
206.08065770853389
 30
0.0
 11
204.64061144739151
 21
206.0897520150553
 31
0.0
  0
LINE
  5
EF15
  8
3
 10
204.60878137456689
 20
206.07156340201249
 30
0.0
 11
204.6269699876095
 21
206.08065770853389
 31
0.0
  0
LINE
  5
EF16
  8
3
 10
204.5996870680454
 20
206.07156340201249
 30
0.0
 11
204.60878137456689
 21
206.07156340201249
 31
0.0
  0
LINE
  5
EF17
  8
3
 10
204.59059276152411
 20
206.06701624875191
 30
0.0
 11
204.5996870680454
 21
206.07156340201249
 31
0.0
  0
LINE
  5
EF18
  8
3
 10
204.5769513017421
 20
206.06701624875191
 30
0.0
 11
204.59059276152411
 21
206.06701624875191
 31
0.0
  0
LINE
  5
EF19
  8
3
 10
204.56785699522081
 20
206.06701624875191
 30
0.0
 11
204.5769513017421
 21
206.06701624875191
 31
0.0
  0
LINE
  5
EF1A
  8
3
 10
204.5587626886994
 20
206.07156340201249
 30
0.0
 11
204.56785699522081
 21
206.06701624875191
 31
0.0
  0
LINE
  5
EF1B
  8
3
 10
204.54966838217811
 20
206.07156340201249
 30
0.0
 11
204.5587626886994
 21
206.07156340201249
 31
0.0
  0
LINE
  5
EF1C
  8
3
 10
204.54057407565671
 20
206.0761105552732
 30
0.0
 11
204.54966838217811
 21
206.07156340201249
 31
0.0
  0
LINE
  5
EF1D
  8
3
 10
204.53147976913539
 20
206.0761105552732
 30
0.0
 11
204.54057407565671
 21
206.0761105552732
 31
0.0
  0
LINE
  5
EF1E
  8
3
 10
204.52238546261401
 20
206.08065770853389
 30
0.0
 11
204.53147976913539
 21
206.0761105552732
 31
0.0
  0
LINE
  5
EF1F
  8
3
 10
204.51329115609261
 20
206.08520486179461
 30
0.0
 11
204.52238546261401
 21
206.08065770853389
 31
0.0
  0
LINE
  5
EF20
  8
3
 10
204.5041968495714
 20
206.0897520150553
 30
0.0
 11
204.51329115609261
 21
206.08520486179461
 31
0.0
  0
LINE
  5
EF21
  8
3
 10
204.4996496963106
 20
206.09884632157659
 30
0.0
 11
204.5041968495714
 21
206.0897520150553
 31
0.0
  0
LINE
  5
EF22
  8
3
 10
204.49510254305011
 20
206.1033934748373
 30
0.0
 11
204.4996496963106
 21
206.09884632157659
 31
0.0
  0
LINE
  5
EF23
  8
3
 10
204.48600823652859
 20
206.1124877813586
 30
0.0
 11
204.49510254305011
 21
206.1033934748373
 31
0.0
  0
LINE
  5
EF24
  8
3
 10
204.66789436695561
 20
206.1124877813586
 30
0.0
 11
204.68153582673759
 21
206.12158208788
 31
0.0
  0
LINE
  5
EF25
  8
3
 10
204.48146108326799
 20
206.162506467226
 30
0.0
 11
204.48600823652859
 21
206.1124877813586
 31
0.0
  0
LINE
  5
EF26
  8
3
 10
204.24046196045231
 20
206.61267464003271
 30
0.0
 11
204.20408473436689
 21
206.6172217932934
 31
0.0
  0
LINE
  5
EF27
  8
3
 10
203.9312555387265
 20
206.6672404791608
 30
0.0
 11
203.85850108655569
 21
206.6990705519855
 31
0.0
  0
LINE
  5
EF28
  8
3
 10
203.9676327648119
 20
206.6535990193787
 30
0.0
 11
203.9312555387265
 21
206.6672404791608
 31
0.0
  0
LINE
  5
EF29
  8
3
 10
204.00855714415789
 20
206.64450471285741
 30
0.0
 11
203.9676327648119
 21
206.6535990193787
 31
0.0
  0
LINE
  5
EF2A
  8
3
 10
204.04493437024331
 20
206.6399575595967
 30
0.0
 11
204.00855714415789
 21
206.64450471285741
 31
0.0
  0
LINE
  5
EF2B
  8
3
 10
204.08585874958939
 20
206.63541040633609
 30
0.0
 11
204.04493437024331
 21
206.6399575595967
 31
0.0
  0
LINE
  5
EF2C
  8
3
 10
204.12223597567481
 20
206.62631609981469
 30
0.0
 11
204.08585874958939
 21
206.63541040633609
 31
0.0
  0
LINE
  5
EF2D
  8
3
 10
204.16316035502089
 20
206.621768946554
 30
0.0
 11
204.12223597567481
 21
206.62631609981469
 31
0.0
  0
LINE
  5
EF2E
  8
3
 10
204.20408473436689
 20
206.6172217932934
 30
0.0
 11
204.16316035502089
 21
206.621768946554
 31
0.0
  0
LINE
  5
EF2F
  8
3
 10
203.87214254633781
 20
205.60775376942391
 30
0.0
 11
203.84031247351299
 21
205.6486781487699
 31
0.0
  0
LINE
  5
EF30
  8
3
 10
203.9039726191624
 20
205.5713765433384
 30
0.0
 11
203.87214254633781
 21
205.60775376942391
 31
0.0
  0
LINE
  5
EF31
  8
3
 10
203.97217991807261
 20
205.49862209116759
 30
0.0
 11
203.93580269198711
 21
205.53499931725301
 31
0.0
  0
LINE
  5
EF32
  8
3
 10
204.01310429741861
 20
205.466792018343
 30
0.0
 11
203.97217991807261
 21
205.49862209116759
 31
0.0
  0
LINE
  5
EF33
  8
3
 10
203.93580269198711
 20
205.53499931725301
 30
0.0
 11
203.9039726191624
 21
205.5713765433384
 31
0.0
  0
LINE
  5
EF34
  8
3
 10
204.5724041484815
 20
207.80857594758979
 30
0.0
 11
204.53602692239599
 21
207.74036864867969
 31
0.0
  0
LINE
  5
EF35
  8
3
 10
204.61332852782749
 20
207.8813303997606
 30
0.0
 11
204.5724041484815
 21
207.80857594758979
 31
0.0
  0
LINE
  5
EF36
  8
3
 10
204.6224228343489
 20
207.8767832465
 30
0.0
 11
204.61332852782749
 21
207.8813303997606
 31
0.0
  0
LINE
  5
EF37
  8
3
 10
204.6269699876095
 20
207.8767832465
 30
0.0
 11
204.6224228343489
 21
207.8767832465
 31
0.0
  0
LINE
  5
EF38
  8
3
 10
204.6315171408703
 20
207.8767832465
 30
0.0
 11
204.6269699876095
 21
207.8767832465
 31
0.0
  0
LINE
  5
EF39
  8
3
 10
204.6360642941309
 20
207.8767832465
 30
0.0
 11
204.6315171408703
 21
207.8767832465
 31
0.0
  0
LINE
  5
EF3A
  8
3
 10
204.64061144739151
 20
207.8767832465
 30
0.0
 11
204.6360642941309
 21
207.8767832465
 31
0.0
  0
LINE
  5
EF3B
  8
3
 10
204.64515860065231
 20
207.8767832465
 30
0.0
 11
204.64061144739151
 21
207.8767832465
 31
0.0
  0
LINE
  5
EF3C
  8
3
 10
204.50874400283209
 20
207.6630670432483
 30
0.0
 11
204.49055538978931
 21
207.58576543781689
 31
0.0
  0
LINE
  5
EF3D
  8
3
 10
204.53602692239599
 20
207.74036864867969
 30
0.0
 11
204.50874400283209
 21
207.6630670432483
 31
0.0
  0
LINE
  5
EF3E
  8
3
 10
203.83121816699159
 20
208.14506528887969
 30
0.0
 11
203.87214254633781
 21
208.2178197410505
 31
0.0
  0
LINE
  5
EF3F
  8
3
 10
203.96308561155121
 20
208.35423433887061
 30
0.0
 11
204.01310429741861
 21
208.41334733125939
 31
0.0
  0
LINE
  5
EF40
  8
3
 10
203.9176140789445
 20
208.2860270399606
 30
0.0
 11
203.96308561155121
 21
208.35423433887061
 31
0.0
  0
LINE
  5
EF41
  8
3
 10
203.87214254633781
 20
208.2178197410505
 30
0.0
 11
203.9176140789445
 21
208.2860270399606
 31
0.0
  0
LINE
  5
EF42
  8
3
 10
204.48146108326799
 20
207.5039166791247
 30
0.0
 11
204.4769139300073
 21
207.4220679204326
 31
0.0
  0
LINE
  5
EF43
  8
3
 10
204.4769139300073
 20
207.3356720084798
 30
0.0
 11
204.4769139300073
 21
207.24927609652701
 31
0.0
  0
LINE
  5
EF44
  8
3
 10
204.4769139300073
 20
207.4220679204326
 30
0.0
 11
204.4769139300073
 21
207.3356720084798
 31
0.0
  0
LINE
  5
EF45
  8
3
 10
204.49055538978931
 20
207.58576543781689
 30
0.0
 11
204.48146108326799
 21
207.5039166791247
 31
0.0
  0
LINE
  5
EF46
  8
3
 10
204.4769139300073
 20
207.24927609652701
 30
0.0
 11
204.48146108326799
 21
207.16288018457419
 31
0.0
  0
LINE
  5
EF47
  8
3
 10
204.48146108326799
 20
207.16288018457419
 30
0.0
 11
204.48600823652859
 21
207.0764842726214
 31
0.0
  0
LINE
  5
EF48
  8
3
 10
204.48600823652859
 20
207.0764842726214
 30
0.0
 11
204.49055538978931
 21
206.99008836066861
 31
0.0
  0
LINE
  5
EF49
  8
3
 10
204.49510254305011
 20
206.90369244871579
 30
0.0
 11
204.49510254305011
 21
206.817296536763
 31
0.0
  0
LINE
  5
EF4A
  8
3
 10
204.49055538978931
 20
206.99008836066861
 30
0.0
 11
204.49510254305011
 21
206.90369244871579
 31
0.0
  0
LINE
  5
EF4B
  8
3
 10
204.049481523504
 20
205.4349619455183
 30
0.0
 11
204.01310429741861
 21
205.466792018343
 31
0.0
  0
LINE
  5
EF4C
  8
3
 10
205.3908917354027
 20
205.55773508355651
 30
0.0
 11
205.38179742888141
 21
205.55773508355651
 31
0.0
  0
LINE
  5
EF4D
  8
3
 10
205.3636088158386
 20
206.3398454443923
 30
0.0
 11
205.42272180822741
 21
206.330751137871
 31
0.0
  0
LINE
  5
EF4E
  8
3
 10
205.46819334083409
 20
206.48535434873381
 30
0.0
 11
205.34087304953519
 21
206.46261858243051
 31
0.0
  0
LINE
  5
EF4F
  8
3
 10
205.413627501706
 20
205.3849432596509
 30
0.0
 11
205.3908917354027
 21
205.55318793029579
 31
0.0
  0
LINE
  5
EF50
  8
3
 10
205.43181611474881
 20
205.21669858900589
 30
0.0
 11
205.42272180822741
 21
205.29854734769799
 31
0.0
  0
LINE
  5
EF51
  8
3
 10
205.42272180822741
 20
205.29854734769799
 30
0.0
 11
205.413627501706
 21
205.3849432596509
 31
0.0
  0
LINE
  5
EF52
  8
3
 10
205.3908917354027
 20
205.55318793029579
 30
0.0
 11
205.3908917354027
 21
205.55773508355651
 31
0.0
  0
LINE
  5
EF53
  8
3
 10
205.44545757453079
 20
205.05300107162171
 30
0.0
 11
205.43636326800939
 21
205.13484983031381
 31
0.0
  0
LINE
  5
EF54
  8
3
 10
205.43636326800939
 20
205.14849129009579
 30
0.0
 11
205.43636326800939
 21
205.13484983031381
 31
0.0
  0
LINE
  5
EF55
  8
3
 10
205.52700262645641
 20
205.0681919943535
 30
0.0
 11
205.5818721723511
 21
205.06209537814311
 31
0.0
  0
LINE
  5
EF56
  8
3
 10
205.75011684299591
 20
205.05300107162171
 30
0.0
 11
205.79558837560259
 21
205.04845391836099
 31
0.0
  0
LINE
  5
EF57
  8
3
 10
205.70919246364991
 20
205.05300107162171
 30
0.0
 11
205.75011684299591
 21
205.05300107162171
 31
0.0
  0
LINE
  5
EF58
  8
3
 10
205.6682680843038
 20
205.05754822488231
 30
0.0
 11
205.70919246364991
 21
205.05300107162171
 31
0.0
  0
LINE
  5
EF59
  8
3
 10
205.62279655169701
 20
205.05754822488231
 30
0.0
 11
205.6682680843038
 21
205.05754822488231
 31
0.0
  0
LINE
  5
EF5A
  8
3
 10
205.69555100386779
 20
205.1575855966172
 30
0.0
 11
205.62279655169701
 21
205.15303844335651
 31
0.0
  0
LINE
  5
EF5B
  8
3
 10
205.7546639962566
 20
205.1575855966172
 30
0.0
 11
205.69555100386779
 21
205.1575855966172
 31
0.0
  0
LINE
  5
EF5C
  8
3
 10
205.5818721723511
 20
205.06209537814311
 30
0.0
 11
205.62279655169701
 21
205.05754822488231
 31
0.0
  0
LINE
  5
EF5D
  8
3
 10
205.62279655169701
 20
205.15303844335651
 30
0.0
 11
205.43636326800939
 21
205.14849129009579
 31
0.0
  0
LINE
  5
EF5E
  8
3
 10
205.58641932561159
 20
206.5171844215586
 30
0.0
 11
205.5273063332229
 21
206.4989958085159
 31
0.0
  0
LINE
  5
EF5F
  8
3
 10
205.53185348648361
 20
206.31256252482819
 30
0.0
 11
205.58641932561159
 21
206.29892106504619
 31
0.0
  0
LINE
  5
EF60
  8
3
 10
205.69555100386779
 20
206.56265595416531
 30
0.0
 11
205.6409851647397
 21
206.5399201878619
 31
0.0
  0
LINE
  5
EF61
  8
3
 10
205.75011684299591
 20
206.5899388737293
 30
0.0
 11
205.69555100386779
 21
206.56265595416531
 31
0.0
  0
LINE
  5
EF62
  8
3
 10
205.79558837560259
 20
206.621768946554
 30
0.0
 11
205.75011684299591
 21
206.5899388737293
 31
0.0
  0
LINE
  5
EF63
  8
3
 10
205.7273810766925
 20
206.23526091939681
 30
0.0
 11
205.76830545603849
 21
206.21252515309351
 31
0.0
  0
LINE
  5
EF64
  8
3
 10
205.6864566973465
 20
206.25799668570011
 30
0.0
 11
205.7273810766925
 21
206.23526091939681
 31
0.0
  0
LINE
  5
EF65
  8
3
 10
205.6409851647397
 20
206.5399201878619
 30
0.0
 11
205.58641932561159
 21
206.5171844215586
 31
0.0
  0
LINE
  5
EF66
  8
3
 10
205.58641932561159
 20
206.29892106504619
 30
0.0
 11
205.6864566973465
 21
206.25799668570011
 31
0.0
  0
LINE
  5
EF67
  8
3
 10
205.5273063332229
 20
206.4989958085159
 30
0.0
 11
205.46819334083409
 21
206.48535434873381
 31
0.0
  0
LINE
  5
EF68
  8
3
 10
205.4772876473555
 20
206.3262039846102
 30
0.0
 11
205.53185348648361
 21
206.31256252482819
 31
0.0
  0
LINE
  5
EF69
  8
3
 10
205.43636326800939
 20
205.13484983031381
 30
0.0
 11
205.43181611474881
 21
205.21669858900589
 31
0.0
  0
ARC
  5
EF6A
  8
3
 10
205.53592869417449
 20
205.16957256157261
 30
0.0
 40
0.1017727571333202
 50
191.95483737982991
 51
264.96835913918909
  0
LINE
  5
EF6B
  8
3
 10
205.42272180822741
 20
206.330751137871
 30
0.0
 11
205.4772876473555
 21
206.3262039846102
 31
0.0
  0
LINE
  5
EF6C
  8
3
 10
205.0907796201983
 20
205.44405625203959
 30
0.0
 11
205.0544023941128
 21
205.4167733324756
 31
0.0
  0
LINE
  5
EF6D
  8
3
 10
205.16808122562969
 20
205.02571815205769
 30
0.0
 11
205.17262837889029
 21
205.02571815205769
 31
0.0
  0
LINE
  5
EF6E
  8
3
 10
205.163534072369
 20
205.02571815205769
 30
0.0
 11
205.16808122562969
 21
205.02571815205769
 31
0.0
  0
LINE
  5
EF6F
  8
3
 10
205.15898691910829
 20
205.02571815205769
 30
0.0
 11
205.163534072369
 21
205.02571815205769
 31
0.0
  0
LINE
  5
EF70
  8
3
 10
205.15443976584771
 20
205.02571815205769
 30
0.0
 11
205.15898691910829
 21
205.02571815205769
 31
0.0
  0
LINE
  5
EF71
  8
3
 10
205.15443976584771
 20
205.0302653053183
 30
0.0
 11
205.15443976584771
 21
205.02571815205769
 31
0.0
  0
LINE
  5
EF72
  8
3
 10
205.14989261258711
 20
205.0302653053183
 30
0.0
 11
205.15443976584771
 21
205.0302653053183
 31
0.0
  0
LINE
  5
EF73
  8
3
 10
205.14534545932631
 20
205.0302653053183
 30
0.0
 11
205.14989261258711
 21
205.0302653053183
 31
0.0
  0
LINE
  5
EF74
  8
3
 10
205.14079830606559
 20
205.0302653053183
 30
0.0
 11
205.14534545932631
 21
205.0302653053183
 31
0.0
  0
LINE
  5
EF75
  8
3
 10
205.13625115280499
 20
205.0302653053183
 30
0.0
 11
205.14079830606559
 21
205.0302653053183
 31
0.0
  0
LINE
  5
EF76
  8
3
 10
205.1317039995443
 20
205.0302653053183
 30
0.0
 11
205.13625115280499
 21
205.0302653053183
 31
0.0
  0
LINE
  5
EF77
  8
3
 10
205.1271568462837
 20
205.0302653053183
 30
0.0
 11
205.1317039995443
 21
205.0302653053183
 31
0.0
  0
LINE
  5
EF78
  8
3
 10
205.12260969302281
 20
205.03481245857901
 30
0.0
 11
205.1271568462837
 21
205.0302653053183
 31
0.0
  0
LINE
  5
EF79
  8
3
 10
205.06804385389481
 20
205.0302653053183
 30
0.0
 11
205.12260969302281
 21
205.03481245857901
 31
0.0
  0
LINE
  5
EF7A
  8
3
 10
205.04076093433079
 20
205.0302653053183
 30
0.0
 11
205.06804385389481
 21
205.0302653053183
 31
0.0
  0
LINE
  5
EF7B
  8
3
 10
205.0134780147668
 20
205.02571815205769
 30
0.0
 11
205.04076093433079
 21
205.0302653053183
 31
0.0
  0
LINE
  5
EF7C
  8
3
 10
204.9861950952027
 20
205.02571815205769
 30
0.0
 11
205.0134780147668
 21
205.02571815205769
 31
0.0
  0
LINE
  5
EF7D
  8
3
 10
204.9589121756386
 20
205.02571815205769
 30
0.0
 11
204.9861950952027
 21
205.02571815205769
 31
0.0
  0
LINE
  5
EF7E
  8
3
 10
204.93162925607459
 20
205.02571815205769
 30
0.0
 11
204.9589121756386
 21
205.02571815205769
 31
0.0
  0
LINE
  5
EF7F
  8
3
 10
204.9043463365106
 20
205.02571815205769
 30
0.0
 11
204.93162925607459
 21
205.02571815205769
 31
0.0
  0
LINE
  5
EF80
  8
3
 10
204.87706341694661
 20
205.02571815205769
 30
0.0
 11
204.9043463365106
 21
205.02571815205769
 31
0.0
  0
LINE
  5
EF81
  8
3
 10
204.92708210281401
 20
205.35311318682611
 30
0.0
 11
204.87706341694661
 21
205.33492457378341
 31
0.0
  0
LINE
  5
EF82
  8
3
 10
204.96800648216001
 20
205.3713017998688
 30
0.0
 11
204.92708210281401
 21
205.35311318682611
 31
0.0
  0
LINE
  5
EF83
  8
3
 10
205.0134780147668
 20
205.39403756617219
 30
0.0
 11
204.96800648216001
 21
205.3713017998688
 31
0.0
  0
LINE
  5
EF84
  8
3
 10
205.0544023941128
 20
205.4167733324756
 30
0.0
 11
205.0134780147668
 21
205.39403756617219
 31
0.0
  0
LINE
  5
EF85
  8
3
 10
205.2499299843218
 20
206.46261858243051
 30
0.0
 11
205.20445845171511
 21
206.46716573569111
 31
0.0
  0
LINE
  5
EF86
  8
3
 10
205.19536414519371
 20
206.33529829113161
 30
0.0
 11
205.2499299843218
 21
206.3398454443923
 31
0.0
  0
LINE
  5
EF87
  8
3
 10
205.22719421801841
 20
205.55773508355651
 30
0.0
 11
205.1999112984544
 21
205.55318793029579
 31
0.0
  0
LINE
  5
EF88
  8
3
 10
205.2408356778005
 20
205.56228223681711
 30
0.0
 11
205.22719421801841
 21
205.55773508355651
 31
0.0
  0
LINE
  5
EF89
  8
3
 10
205.1999112984544
 20
205.55318793029579
 30
0.0
 11
205.1271568462837
 21
205.4713391716036
 31
0.0
  0
LINE
  5
EF8A
  8
3
 10
205.20445845171511
 20
206.46716573569111
 30
0.0
 11
205.15898691910829
 21
206.4717128889518
 31
0.0
  0
LINE
  5
EF8B
  8
3
 10
205.13625115280499
 20
206.3262039846102
 30
0.0
 11
205.19536414519371
 21
206.33529829113161
 31
0.0
  0
LINE
  5
EF8C
  8
3
 10
205.2908543636679
 20
205.5668293900778
 30
0.0
 11
205.27266575062509
 21
205.5668293900778
 31
0.0
  0
LINE
  5
EF8D
  8
3
 10
205.30449582344991
 20
205.5668293900778
 30
0.0
 11
205.2908543636679
 21
205.5668293900778
 31
0.0
  0
LINE
  5
EF8E
  8
3
 10
205.27266575062509
 20
205.5668293900778
 30
0.0
 11
205.25447713758251
 21
205.56228223681711
 31
0.0
  0
LINE
  5
EF8F
  8
3
 10
205.29540151692851
 20
206.46261858243051
 30
0.0
 11
205.2499299843218
 21
206.46261858243051
 31
0.0
  0
LINE
  5
EF90
  8
3
 10
205.2499299843218
 20
206.3398454443923
 30
0.0
 11
205.30904297671049
 21
206.3398454443923
 31
0.0
  0
LINE
  5
EF91
  8
3
 10
205.25447713758251
 20
205.56228223681711
 30
0.0
 11
205.2408356778005
 21
205.56228223681711
 31
0.0
  0
LINE
  5
EF92
  8
3
 10
205.3363258962745
 20
205.5668293900778
 30
0.0
 11
205.32268443649249
 21
205.5668293900778
 31
0.0
  0
LINE
  5
EF93
  8
3
 10
205.3499673560566
 20
205.5668293900778
 30
0.0
 11
205.3363258962745
 21
205.5668293900778
 31
0.0
  0
LINE
  5
EF94
  8
3
 10
205.37270312236001
 20
205.56228223681711
 30
0.0
 11
205.3636088158386
 21
205.56228223681711
 31
0.0
  0
LINE
  5
EF95
  8
3
 10
205.38179742888141
 20
205.55773508355651
 30
0.0
 11
205.37270312236001
 21
205.56228223681711
 31
0.0
  0
LINE
  5
EF96
  8
3
 10
205.3636088158386
 20
205.56228223681711
 30
0.0
 11
205.3499673560566
 21
205.5668293900778
 31
0.0
  0
LINE
  5
EF97
  8
3
 10
205.34087304953519
 20
206.46261858243051
 30
0.0
 11
205.29540151692851
 21
206.46261858243051
 31
0.0
  0
LINE
  5
EF98
  8
3
 10
205.30904297671049
 20
206.3398454443923
 30
0.0
 11
205.3636088158386
 21
206.3398454443923
 31
0.0
  0
LINE
  5
EF99
  8
3
 10
205.32268443649249
 20
205.5668293900778
 30
0.0
 11
205.30449582344991
 21
205.5668293900778
 31
0.0
  0
LINE
  5
EF9A
  8
3
 10
204.93617640933539
 20
206.52627872807989
 30
0.0
 11
204.89525202998919
 21
206.54446734112261
 31
0.0
  0
LINE
  5
EF9B
  8
3
 10
204.97710078868141
 20
206.51263726829779
 30
0.0
 11
204.93617640933539
 21
206.52627872807989
 31
0.0
  0
LINE
  5
EF9C
  8
3
 10
205.02257232128821
 20
206.4989958085159
 30
0.0
 11
204.97710078868141
 21
206.51263726829779
 31
0.0
  0
LINE
  5
EF9D
  8
3
 10
205.06804385389481
 20
206.4899015019945
 30
0.0
 11
205.02257232128821
 21
206.4989958085159
 31
0.0
  0
LINE
  5
EF9E
  8
3
 10
205.1135153865016
 20
206.48080719547309
 30
0.0
 11
205.06804385389481
 21
206.4899015019945
 31
0.0
  0
LINE
  5
EF9F
  8
3
 10
205.15898691910829
 20
206.4717128889518
 30
0.0
 11
205.1135153865016
 21
206.48080719547309
 31
0.0
  0
LINE
  5
EFA0
  8
3
 10
205.08168531367679
 20
206.31710967808891
 30
0.0
 11
205.13625115280499
 21
206.3262039846102
 31
0.0
  0
LINE
  5
EFA1
  8
3
 10
205.0271194745489
 20
206.3034682183069
 30
0.0
 11
205.08168531367679
 21
206.31710967808891
 31
0.0
  0
LINE
  5
EFA2
  8
3
 10
204.9725536354207
 20
206.28982675852481
 30
0.0
 11
205.0271194745489
 21
206.3034682183069
 31
0.0
  0
LINE
  5
EFA3
  8
3
 10
204.91798779629269
 20
206.2670909922216
 30
0.0
 11
204.9725536354207
 21
206.28982675852481
 31
0.0
  0
LINE
  5
EFA4
  8
3
 10
205.1271568462837
 20
205.4713391716036
 30
0.0
 11
205.0907796201983
 21
205.44405625203959
 31
0.0
  0
LINE
  5
EFA5
  8
3
 10
204.84523334412191
 20
205.02571815205769
 30
0.0
 11
204.87706341694661
 21
205.02571815205769
 31
0.0
  0
LINE
  5
EFA6
  8
3
 10
204.87706341694661
 20
205.33492457378341
 30
0.0
 11
204.83159188433979
 21
205.3212831140014
 31
0.0
  0
LINE
  5
EFA7
  8
3
 10
204.89525202998919
 20
206.54446734112261
 30
0.0
 11
204.8543276506432
 21
206.55810880090459
 31
0.0
  0
LINE
  5
EFA8
  8
3
 10
204.8634219571646
 20
206.2443552259181
 30
0.0
 11
204.91798779629269
 21
206.2670909922216
 31
0.0
  0
LINE
  5
EFA9
  8
3
 10
206.17754924949921
 20
205.4486034053003
 30
0.0
 11
206.17754924949921
 21
205.41222617921491
 31
0.0
  0
LINE
  5
EFAA
  8
3
 10
206.17300209623849
 20
205.27581158139469
 30
0.0
 11
206.17300209623849
 21
205.2394343553093
 31
0.0
  0
LINE
  5
EFAB
  8
3
 10
205.84560706146999
 20
205.1575855966172
 30
0.0
 11
205.80468268212391
 21
205.1575855966172
 31
0.0
  0
LINE
  5
EFAC
  8
3
 10
206.17300209623849
 20
205.2394343553093
 30
0.0
 11
206.17300209623849
 21
205.1712270563992
 31
0.0
  0
LINE
  5
EFAD
  8
3
 10
206.17300209623849
 20
205.1712270563992
 30
0.0
 11
206.12753056363181
 21
205.16667990313849
 31
0.0
  0
LINE
  5
EFAE
  8
3
 10
205.99566311907219
 20
205.0120766922756
 30
0.0
 11
206.03204034515761
 21
204.99843523249359
 31
0.0
  0
LINE
  5
EFAF
  8
3
 10
205.9547387397262
 20
205.02571815205769
 30
0.0
 11
205.99566311907219
 21
205.0120766922756
 31
0.0
  0
LINE
  5
EFB0
  8
3
 10
205.9183615136408
 20
205.03481245857901
 30
0.0
 11
205.9547387397262
 21
205.02571815205769
 31
0.0
  0
LINE
  5
EFB1
  8
3
 10
205.87743713429469
 20
205.03935961183959
 30
0.0
 11
205.9183615136408
 21
205.03481245857901
 31
0.0
  0
LINE
  5
EFB2
  8
3
 10
205.83651275494859
 20
205.04390676510039
 30
0.0
 11
205.87743713429469
 21
205.03935961183959
 31
0.0
  0
LINE
  5
EFB3
  8
3
 10
205.88198428755541
 20
205.1575855966172
 30
0.0
 11
205.84560706146999
 21
205.1575855966172
 31
0.0
  0
LINE
  5
EFB4
  8
3
 10
205.91381436038009
 20
205.1575855966172
 30
0.0
 11
205.88198428755541
 21
205.1575855966172
 31
0.0
  0
LINE
  5
EFB5
  8
3
 10
205.94109727994419
 20
205.1575855966172
 30
0.0
 11
205.91381436038009
 21
205.1575855966172
 31
0.0
  0
LINE
  5
EFB6
  8
3
 10
205.9683801995082
 20
205.1575855966172
 30
0.0
 11
205.94109727994419
 21
205.1575855966172
 31
0.0
  0
LINE
  5
EFB7
  8
3
 10
205.99566311907219
 20
205.1575855966172
 30
0.0
 11
205.9683801995082
 21
205.1575855966172
 31
0.0
  0
LINE
  5
EFB8
  8
3
 10
206.02294603863629
 20
205.1575855966172
 30
0.0
 11
205.99566311907219
 21
205.1575855966172
 31
0.0
  0
LINE
  5
EFB9
  8
3
 10
206.05022895820039
 20
205.1575855966172
 30
0.0
 11
206.02294603863629
 21
205.1575855966172
 31
0.0
  0
LINE
  5
EFBA
  8
3
 10
206.08660618428581
 20
205.16213274987791
 30
0.0
 11
206.05022895820039
 21
205.1575855966172
 31
0.0
  0
LINE
  5
EFBB
  8
3
 10
206.12753056363181
 20
205.16667990313849
 30
0.0
 11
206.08660618428581
 21
205.16213274987791
 31
0.0
  0
LINE
  5
EFBC
  8
3
 10
206.17754924949921
 20
205.30764165421931
 30
0.0
 11
206.17300209623849
 21
205.27581158139469
 31
0.0
  0
LINE
  5
EFBD
  8
3
 10
206.17754924949921
 20
205.34401888030479
 30
0.0
 11
206.17754924949921
 21
205.30764165421931
 31
0.0
  0
LINE
  5
EFBE
  8
3
 10
206.17754924949921
 20
205.38039610639021
 30
0.0
 11
206.17754924949921
 21
205.34401888030479
 31
0.0
  0
LINE
  5
EFBF
  8
3
 10
206.17754924949921
 20
205.41222617921491
 30
0.0
 11
206.17754924949921
 21
205.38039610639021
 31
0.0
  0
LINE
  5
EFC0
  8
3
 10
206.00930457885431
 20
206.80365507698099
 30
0.0
 11
205.97292735276889
 21
206.76273069763491
 31
0.0
  0
LINE
  5
EFC1
  8
3
 10
205.80468268212391
 20
206.18978938679001
 30
0.0
 11
205.8410599082093
 21
206.162506467226
 31
0.0
  0
LINE
  5
EFC2
  8
3
 10
205.93200297342281
 20
206.72180631828891
 30
0.0
 11
205.8910785940769
 21
206.68542909220349
 31
0.0
  0
LINE
  5
EFC3
  8
3
 10
205.8910785940769
 20
206.68542909220349
 30
0.0
 11
205.84560706146999
 21
206.6535990193787
 31
0.0
  0
LINE
  5
EFC4
  8
3
 10
205.8410599082093
 20
206.162506467226
 30
0.0
 11
205.87743713429469
 21
206.13522354766189
 31
0.0
  0
LINE
  5
EFC5
  8
3
 10
205.97292735276889
 20
206.76273069763491
 30
0.0
 11
205.93200297342281
 21
206.72180631828891
 31
0.0
  0
LINE
  5
EFC6
  8
3
 10
206.09115333754639
 20
205.85784719876091
 30
0.0
 11
206.10934195058911
 21
205.8169228194148
 31
0.0
  0
LINE
  5
EFC7
  8
3
 10
206.06841757124309
 20
205.89422442484619
 30
0.0
 11
206.09115333754639
 21
205.85784719876091
 31
0.0
  0
LINE
  5
EFC8
  8
3
 10
206.05022895820039
 20
205.93514880419241
 30
0.0
 11
206.06841757124309
 21
205.89422442484619
 31
0.0
  0
LINE
  5
EFC9
  8
3
 10
206.02294603863629
 20
205.97152603027769
 30
0.0
 11
206.05022895820039
 21
205.93514880419241
 31
0.0
  0
LINE
  5
EFCA
  8
3
 10
206.00021027233291
 20
206.00790325636311
 30
0.0
 11
206.02294603863629
 21
205.97152603027769
 31
0.0
  0
LINE
  5
EFCB
  8
3
 10
205.9683801995082
 20
206.03973332918781
 30
0.0
 11
206.00021027233291
 21
206.00790325636311
 31
0.0
  0
LINE
  5
EFCC
  8
3
 10
205.94109727994419
 20
206.07156340201249
 30
0.0
 11
205.9683801995082
 21
206.03973332918781
 31
0.0
  0
LINE
  5
EFCD
  8
3
 10
205.9092672071194
 20
206.1033934748373
 30
0.0
 11
205.94109727994419
 21
206.07156340201249
 31
0.0
  0
LINE
  5
EFCE
  8
3
 10
205.87743713429469
 20
206.13522354766189
 30
0.0
 11
205.9092672071194
 21
206.1033934748373
 31
0.0
  0
LINE
  5
EFCF
  8
3
 10
206.1366248701531
 20
205.7350740607227
 30
0.0
 11
206.15026632993519
 21
205.6986968346373
 31
0.0
  0
LINE
  5
EFD0
  8
3
 10
206.15026632993519
 20
205.6986968346373
 30
0.0
 11
206.1548134831958
 21
205.66231960855191
 31
0.0
  0
LINE
  5
EFD1
  8
3
 10
206.1639077897172
 20
205.62594238246649
 30
0.0
 11
206.16845494297789
 21
205.58956515638121
 31
0.0
  0
LINE
  5
EFD2
  8
3
 10
206.1548134831958
 20
205.66231960855191
 30
0.0
 11
206.1639077897172
 21
205.62594238246649
 31
0.0
  0
LINE
  5
EFD3
  8
3
 10
206.17300209623849
 20
205.521357857471
 30
0.0
 11
206.17300209623849
 21
205.48498063138561
 31
0.0
  0
LINE
  5
EFD4
  8
3
 10
206.16845494297789
 20
205.55318793029579
 30
0.0
 11
206.17300209623849
 21
205.521357857471
 31
0.0
  0
LINE
  5
EFD5
  8
3
 10
206.16845494297789
 20
205.58956515638121
 30
0.0
 11
206.16845494297789
 21
205.55318793029579
 31
0.0
  0
LINE
  5
EFD6
  8
3
 10
206.10934195058911
 20
205.8169228194148
 30
0.0
 11
206.1366248701531
 21
205.7350740607227
 31
0.0
  0
LINE
  5
EFD7
  8
3
 10
206.1866435560205
 20
207.27201186283031
 30
0.0
 11
206.1820964027599
 21
207.22199317696291
 31
0.0
  0
LINE
  5
EFD8
  8
3
 10
206.17300209623849
 20
207.17197449109551
 30
0.0
 11
206.15936063645651
 21
207.12195580522811
 31
0.0
  0
LINE
  5
EFD9
  8
3
 10
206.1820964027599
 20
207.22199317696291
 30
0.0
 11
206.17300209623849
 21
207.17197449109551
 31
0.0
  0
LINE
  5
EFDA
  8
3
 10
206.1866435560205
 20
208.35423433887061
 30
0.0
 11
206.1866435560205
 21
208.126876675837
 31
0.0
  0
LINE
  5
EFDB
  8
3
 10
206.1548134831958
 20
208.0904994497516
 30
0.0
 11
206.15026632993519
 21
208.08595229649089
 31
0.0
  0
LINE
  5
EFDC
  8
3
 10
206.1639077897172
 20
208.09504660301229
 30
0.0
 11
206.1548134831958
 21
208.0904994497516
 31
0.0
  0
LINE
  5
EFDD
  8
3
 10
206.16845494297789
 20
208.0995937562729
 30
0.0
 11
206.1639077897172
 21
208.09504660301229
 31
0.0
  0
LINE
  5
EFDE
  8
3
 10
206.17300209623849
 20
208.10414090953361
 30
0.0
 11
206.16845494297789
 21
208.0995937562729
 31
0.0
  0
LINE
  5
EFDF
  8
3
 10
206.17754924949921
 20
208.11323521605499
 30
0.0
 11
206.17300209623849
 21
208.10414090953361
 31
0.0
  0
LINE
  5
EFE0
  8
3
 10
206.1866435560205
 20
208.11778236931571
 30
0.0
 11
206.17754924949921
 21
208.11323521605499
 31
0.0
  0
LINE
  5
EFE1
  8
3
 10
206.1866435560205
 20
208.126876675837
 30
0.0
 11
206.1866435560205
 21
208.11778236931571
 31
0.0
  0
LINE
  5
EFE2
  8
3
 10
206.15026632993519
 20
208.08595229649089
 30
0.0
 11
206.14117202341379
 21
208.08140514323031
 31
0.0
  0
LINE
  5
EFE3
  8
3
 10
206.15026632993519
 20
207.79038733454709
 30
0.0
 11
206.1639077897172
 21
207.73582149541909
 31
0.0
  0
LINE
  5
EFE4
  8
3
 10
206.1366248701531
 20
207.84495317367521
 30
0.0
 11
206.15026632993519
 21
207.79038733454709
 31
0.0
  0
LINE
  5
EFE5
  8
3
 10
206.12753056363181
 20
207.85859463345719
 30
0.0
 11
206.1366248701531
 21
207.84495317367521
 31
0.0
  0
LINE
  5
EFE6
  8
3
 10
206.12298341037121
 20
207.86768893997859
 30
0.0
 11
206.12753056363181
 21
207.85859463345719
 31
0.0
  0
LINE
  5
EFE7
  8
3
 10
206.11843625711049
 20
207.8767832465
 30
0.0
 11
206.12298341037121
 21
207.86768893997859
 31
0.0
  0
LINE
  5
EFE8
  8
3
 10
206.1138891038498
 20
207.88587755302129
 30
0.0
 11
206.11843625711049
 21
207.8767832465
 31
0.0
  0
LINE
  5
EFE9
  8
3
 10
206.10934195058911
 20
207.89497185954261
 30
0.0
 11
206.1138891038498
 21
207.88587755302129
 31
0.0
  0
LINE
  5
EFEA
  8
3
 10
206.10479479732851
 20
207.90406616606401
 30
0.0
 11
206.10934195058911
 21
207.89497185954261
 31
0.0
  0
LINE
  5
EFEB
  8
3
 10
206.10024764406771
 20
207.91770762584599
 30
0.0
 11
206.10479479732851
 21
207.90406616606401
 31
0.0
  0
LINE
  5
EFEC
  8
3
 10
206.09570049080699
 20
207.9268019323674
 30
0.0
 11
206.10024764406771
 21
207.91770762584599
 31
0.0
  0
LINE
  5
EFED
  8
3
 10
206.09115333754639
 20
207.93589623888869
 30
0.0
 11
206.09570049080699
 21
207.9268019323674
 31
0.0
  0
LINE
  5
EFEE
  8
3
 10
206.08660618428581
 20
207.94499054541001
 30
0.0
 11
206.09115333754639
 21
207.93589623888869
 31
0.0
  0
LINE
  5
EFEF
  8
3
 10
206.07751187776441
 20
207.95408485193141
 30
0.0
 11
206.08660618428581
 21
207.94499054541001
 31
0.0
  0
LINE
  5
EFF0
  8
3
 10
206.07296472450369
 20
207.96772631171339
 30
0.0
 11
206.07751187776441
 21
207.95408485193141
 31
0.0
  0
LINE
  5
EFF1
  8
3
 10
206.06841757124309
 20
207.97682061823471
 30
0.0
 11
206.07296472450369
 21
207.96772631171339
 31
0.0
  0
LINE
  5
EFF2
  8
3
 10
206.0638704179824
 20
207.98591492475609
 30
0.0
 11
206.06841757124309
 21
207.97682061823471
 31
0.0
  0
LINE
  5
EFF3
  8
3
 10
206.054776111461
 20
207.99500923127741
 30
0.0
 11
206.0638704179824
 21
207.98591492475609
 31
0.0
  0
LINE
  5
EFF4
  8
3
 10
206.0593232647216
 20
207.9995563845381
 30
0.0
 11
206.054776111461
 21
207.99500923127741
 31
0.0
  0
LINE
  5
EFF5
  8
3
 10
206.0593232647216
 20
208.00410353779881
 30
0.0
 11
206.0593232647216
 21
207.9995563845381
 31
0.0
  0
LINE
  5
EFF6
  8
3
 10
206.0593232647216
 20
208.0086506910595
 30
0.0
 11
206.0593232647216
 21
208.00410353779881
 31
0.0
  0
LINE
  5
EFF7
  8
3
 10
206.0593232647216
 20
208.0131978443201
 30
0.0
 11
206.0593232647216
 21
208.0086506910595
 31
0.0
  0
LINE
  5
EFF8
  8
3
 10
206.0593232647216
 20
208.01774499758079
 30
0.0
 11
206.0593232647216
 21
208.0131978443201
 31
0.0
  0
LINE
  5
EFF9
  8
3
 10
206.0593232647216
 20
208.02229215084151
 30
0.0
 11
206.0593232647216
 21
208.01774499758079
 31
0.0
  0
LINE
  5
EFFA
  8
3
 10
206.0593232647216
 20
208.0268393041022
 30
0.0
 11
206.0593232647216
 21
208.02229215084151
 31
0.0
  0
LINE
  5
EFFB
  8
3
 10
206.0593232647216
 20
208.0313864573628
 30
0.0
 11
206.0593232647216
 21
208.0268393041022
 31
0.0
  0
LINE
  5
EFFC
  8
3
 10
206.0593232647216
 20
208.03593361062349
 30
0.0
 11
206.0593232647216
 21
208.0313864573628
 31
0.0
  0
LINE
  5
EFFD
  8
3
 10
206.0638704179824
 20
208.0404807638842
 30
0.0
 11
206.0593232647216
 21
208.03593361062349
 31
0.0
  0
LINE
  5
EFFE
  8
3
 10
206.0638704179824
 20
208.04502791714481
 30
0.0
 11
206.0638704179824
 21
208.0404807638842
 31
0.0
  0
LINE
  5
EFFF
  8
3
 10
206.06841757124309
 20
208.04502791714481
 30
0.0
 11
206.0638704179824
 21
208.04502791714481
 31
0.0
  0
LINE
  5
F000
  8
3
 10
206.06841757124309
 20
208.0495750704055
 30
0.0
 11
206.06841757124309
 21
208.04502791714481
 31
0.0
  0
LINE
  5
F001
  8
3
 10
206.06841757124309
 20
208.05412222366621
 30
0.0
 11
206.06841757124309
 21
208.0495750704055
 31
0.0
  0
LINE
  5
F002
  8
3
 10
206.09115333754639
 20
208.0586693769269
 30
0.0
 11
206.06841757124309
 21
208.05412222366621
 31
0.0
  0
LINE
  5
F003
  8
3
 10
206.10024764406771
 20
208.06321653018759
 30
0.0
 11
206.09115333754639
 21
208.0586693769269
 31
0.0
  0
LINE
  5
F004
  8
3
 10
206.10934195058911
 20
208.06776368344819
 30
0.0
 11
206.10024764406771
 21
208.06321653018759
 31
0.0
  0
LINE
  5
F005
  8
3
 10
206.11843625711049
 20
208.06776368344819
 30
0.0
 11
206.10934195058911
 21
208.06776368344819
 31
0.0
  0
LINE
  5
F006
  8
3
 10
206.12753056363181
 20
208.07231083670891
 30
0.0
 11
206.11843625711049
 21
208.06776368344819
 31
0.0
  0
LINE
  5
F007
  8
3
 10
206.1320777168925
 20
208.0768579899696
 30
0.0
 11
206.12753056363181
 21
208.07231083670891
 31
0.0
  0
LINE
  5
F008
  8
3
 10
206.14117202341379
 20
208.08140514323031
 30
0.0
 11
206.1320777168925
 21
208.0768579899696
 31
0.0
  0
LINE
  5
F009
  8
3
 10
206.1820964027599
 20
207.6312369704236
 30
0.0
 11
206.1866435560205
 21
207.57667113129551
 31
0.0
  0
LINE
  5
F00A
  8
3
 10
206.17300209623849
 20
207.68125565629089
 30
0.0
 11
206.1820964027599
 21
207.6312369704236
 31
0.0
  0
LINE
  5
F00B
  8
3
 10
206.1639077897172
 20
207.73582149541909
 30
0.0
 11
206.17300209623849
 21
207.68125565629089
 31
0.0
  0
LINE
  5
F00C
  8
3
 10
206.1911907092813
 20
207.526652445428
 30
0.0
 11
206.1957378625419
 21
207.47663375956071
 31
0.0
  0
LINE
  5
F00D
  8
3
 10
206.1957378625419
 20
207.4266150736932
 30
0.0
 11
206.1957378625419
 21
207.3720492345652
 31
0.0
  0
LINE
  5
F00E
  8
3
 10
206.1957378625419
 20
207.47663375956071
 30
0.0
 11
206.1957378625419
 21
207.4266150736932
 31
0.0
  0
LINE
  5
F00F
  8
3
 10
206.1911907092813
 20
207.32203054869771
 30
0.0
 11
206.1866435560205
 21
207.27201186283031
 31
0.0
  0
LINE
  5
F010
  8
3
 10
206.1957378625419
 20
207.3720492345652
 30
0.0
 11
206.1911907092813
 21
207.32203054869771
 31
0.0
  0
LINE
  5
F011
  8
3
 10
206.1866435560205
 20
207.57667113129551
 30
0.0
 11
206.1911907092813
 21
207.526652445428
 31
0.0
  0
LINE
  5
F012
  8
3
 10
206.12298341037121
 20
206.9946355139293
 30
0.0
 11
206.11843625711049
 21
206.99008836066861
 31
0.0
  0
LINE
  5
F013
  8
3
 10
206.10479479732851
 20
206.96280544110451
 30
0.0
 11
206.10479479732851
 21
206.9582582878439
 31
0.0
  0
LINE
  5
F014
  8
3
 10
206.10479479732851
 20
206.9582582878439
 30
0.0
 11
206.10024764406771
 21
206.94916398132261
 31
0.0
  0
LINE
  5
F015
  8
3
 10
206.10479479732851
 20
206.9673525943652
 30
0.0
 11
206.10479479732851
 21
206.96280544110451
 31
0.0
  0
LINE
  5
F016
  8
3
 10
206.10934195058911
 20
206.9673525943652
 30
0.0
 11
206.10479479732851
 21
206.9673525943652
 31
0.0
  0
LINE
  5
F017
  8
3
 10
206.10934195058911
 20
206.97189974762591
 30
0.0
 11
206.10934195058911
 21
206.9673525943652
 31
0.0
  0
LINE
  5
F018
  8
3
 10
206.10934195058911
 20
206.9764469008866
 30
0.0
 11
206.10934195058911
 21
206.97189974762591
 31
0.0
  0
LINE
  5
F019
  8
3
 10
206.1138891038498
 20
206.9809940541472
 30
0.0
 11
206.10934195058911
 21
206.9764469008866
 31
0.0
  0
LINE
  5
F01A
  8
3
 10
206.1138891038498
 20
206.98554120740789
 30
0.0
 11
206.1138891038498
 21
206.9809940541472
 31
0.0
  0
LINE
  5
F01B
  8
3
 10
206.11843625711049
 20
206.99008836066861
 30
0.0
 11
206.1138891038498
 21
206.98554120740789
 31
0.0
  0
LINE
  5
F01C
  8
3
 10
206.12298341037121
 20
206.9991826671899
 30
0.0
 11
206.12298341037121
 21
206.9946355139293
 31
0.0
  0
LINE
  5
F01D
  8
3
 10
206.12753056363181
 20
207.00372982045059
 30
0.0
 11
206.12298341037121
 21
206.9991826671899
 31
0.0
  0
LINE
  5
F01E
  8
3
 10
206.12753056363181
 20
207.0082769737113
 30
0.0
 11
206.12753056363181
 21
207.00372982045059
 31
0.0
  0
LINE
  5
F01F
  8
3
 10
206.1320777168925
 20
207.01282412697199
 30
0.0
 11
206.12753056363181
 21
207.0082769737113
 31
0.0
  0
LINE
  5
F020
  8
3
 10
206.1320777168925
 20
207.02191843349331
 30
0.0
 11
206.1320777168925
 21
207.01282412697199
 31
0.0
  0
LINE
  5
F021
  8
3
 10
206.15936063645651
 20
207.12195580522811
 30
0.0
 11
206.1320777168925
 21
207.02191843349331
 31
0.0
  0
LINE
  5
F022
  8
3
 10
206.07296472450369
 20
206.8991452954551
 30
0.0
 11
206.04113465167899
 21
206.8491266095877
 31
0.0
  0
LINE
  5
F023
  8
3
 10
206.04113465167899
 20
206.8491266095877
 30
0.0
 11
206.00930457885431
 21
206.80365507698099
 31
0.0
  0
LINE
  5
F024
  8
3
 10
206.10024764406771
 20
206.94916398132261
 30
0.0
 11
206.07296472450369
 21
206.8991452954551
 31
0.0
  0
LINE
  5
F025
  8
3
 10
206.17300209623849
 20
205.48498063138561
 30
0.0
 11
206.17754924949921
 21
205.4486034053003
 31
0.0
  0
LINE
  5
F026
  8
3
 10
205.72283392343181
 20
208.85896835080541
 30
0.0
 11
205.84560706146999
 21
208.87260981058739
 31
0.0
  0
LINE
  5
F027
  8
3
 10
204.06767013654661
 20
208.47246032364819
 30
0.0
 11
204.1267831289355
 21
208.5270261627762
 31
0.0
  0
LINE
  5
F028
  8
3
 10
204.58604560826339
 20
208.7907610518954
 30
0.0
 11
204.704271593041
 21
208.8180439714593
 31
0.0
  0
LINE
  5
F029
  8
3
 10
204.2495562669736
 20
208.62251638125039
 30
0.0
 11
204.3586879452298
 21
208.69527083342109
 31
0.0
  0
LINE
  5
F02A
  8
3
 10
204.3586879452298
 20
208.69527083342109
 30
0.0
 11
204.46781962348601
 21
208.74983667254921
 31
0.0
  0
LINE
  5
F02B
  8
3
 10
204.46781962348601
 20
208.74983667254921
 30
0.0
 11
204.58604560826339
 21
208.7907610518954
 31
0.0
  0
LINE
  5
F02C
  8
3
 10
204.704271593041
 20
208.8180439714593
 30
0.0
 11
204.83159188433979
 21
208.83623258450211
 31
0.0
  0
LINE
  5
F02D
  8
3
 10
204.1267831289355
 20
208.5270261627762
 30
0.0
 11
204.2495562669736
 21
208.62251638125039
 31
0.0
  0
LINE
  5
F02E
  8
3
 10
205.34087304953519
 20
208.8453268910234
 30
0.0
 11
205.46819334083409
 21
208.8453268910234
 31
0.0
  0
LINE
  5
F02F
  8
3
 10
205.59551363213299
 20
208.84987404428401
 30
0.0
 11
205.72283392343181
 21
208.85896835080541
 31
0.0
  0
LINE
  5
F030
  8
3
 10
205.46819334083409
 20
208.8453268910234
 30
0.0
 11
205.59551363213299
 21
208.84987404428401
 31
0.0
  0
LINE
  5
F031
  8
3
 10
204.954365022378
 20
208.8453268910234
 30
0.0
 11
205.08168531367679
 21
208.8453268910234
 31
0.0
  0
LINE
  5
F032
  8
3
 10
205.08168531367679
 20
208.8453268910234
 30
0.0
 11
205.2135527582364
 21
208.8453268910234
 31
0.0
  0
LINE
  5
F033
  8
3
 10
205.2135527582364
 20
208.8453268910234
 30
0.0
 11
205.34087304953519
 21
208.8453268910234
 31
0.0
  0
LINE
  5
F034
  8
3
 10
204.83159188433979
 20
208.83623258450211
 30
0.0
 11
204.954365022378
 21
208.8453268910234
 31
0.0
  0
LINE
  5
F035
  8
3
 10
205.9638330462476
 20
208.89989273015149
 30
0.0
 11
206.1866435560205
 21
208.99993010188629
 31
0.0
  0
LINE
  5
F036
  8
3
 10
205.84560706146999
 20
208.87260981058739
 30
0.0
 11
205.9638330462476
 21
208.89989273015149
 31
0.0
  0
LINE
  5
F037
  8
3
 10
205.1999112984544
 20
207.276559016091
 30
0.0
 11
205.1999112984544
 21
207.9131604725853
 31
0.0
  0
LINE
  5
F038
  8
3
 10
205.1999112984544
 20
207.9131604725853
 30
0.0
 11
205.20900560497569
 21
207.91770762584599
 31
0.0
  0
LINE
  5
F039
  8
3
 10
205.20900560497569
 20
207.91770762584599
 30
0.0
 11
205.21809991149709
 21
207.92225477910659
 31
0.0
  0
LINE
  5
F03A
  8
3
 10
205.21809991149709
 20
207.92225477910659
 30
0.0
 11
205.22264706475781
 21
207.92225477910659
 31
0.0
  0
LINE
  5
F03B
  8
3
 10
205.22264706475781
 20
207.92225477910659
 30
0.0
 11
205.2317413712791
 21
207.92225477910659
 31
0.0
  0
LINE
  5
F03C
  8
3
 10
205.2317413712791
 20
207.92225477910659
 30
0.0
 11
205.2362885245397
 21
207.91770762584599
 31
0.0
  0
LINE
  5
F03D
  8
3
 10
205.2362885245397
 20
207.91770762584599
 30
0.0
 11
205.24538283106111
 21
207.9131604725853
 31
0.0
  0
LINE
  5
F03E
  8
3
 10
205.24538283106111
 20
207.9131604725853
 30
0.0
 11
205.25447713758251
 21
207.9086133193247
 31
0.0
  0
LINE
  5
F03F
  8
3
 10
205.25447713758251
 20
207.9086133193247
 30
0.0
 11
205.2635714441038
 21
207.8995190128033
 31
0.0
  0
LINE
  5
F040
  8
3
 10
205.2635714441038
 20
207.8995190128033
 30
0.0
 11
205.26811859736449
 21
207.890424706282
 31
0.0
  0
LINE
  5
F041
  8
3
 10
205.26811859736449
 20
207.890424706282
 30
0.0
 11
205.2772129038859
 21
207.8813303997606
 31
0.0
  0
LINE
  5
F042
  8
3
 10
205.2772129038859
 20
207.8813303997606
 30
0.0
 11
205.28630721040719
 21
207.87223609323931
 31
0.0
  0
LINE
  5
F043
  8
3
 10
205.28630721040719
 20
207.87223609323931
 30
0.0
 11
205.29540151692851
 21
207.8631417867179
 31
0.0
  0
LINE
  5
F044
  8
3
 10
205.29540151692851
 20
207.8631417867179
 30
0.0
 11
205.2999486701892
 21
207.85404748019661
 31
0.0
  0
LINE
  5
F045
  8
3
 10
205.2999486701892
 20
207.85404748019661
 30
0.0
 11
205.30904297671049
 21
207.84495317367521
 31
0.0
  0
LINE
  5
F046
  8
3
 10
205.30904297671049
 20
207.84495317367521
 30
0.0
 11
205.32268443649249
 21
207.8313117138932
 31
0.0
  0
LINE
  5
F047
  8
3
 10
205.32268443649249
 20
207.8313117138932
 30
0.0
 11
205.34087304953519
 21
207.8040287943291
 31
0.0
  0
LINE
  5
F048
  8
3
 10
205.34087304953519
 20
207.8040287943291
 30
0.0
 11
205.35906166257789
 21
207.7721987215044
 31
0.0
  0
LINE
  5
F049
  8
3
 10
205.35906166257789
 20
207.7721987215044
 30
0.0
 11
205.37270312236001
 21
207.74491580194041
 31
0.0
  0
LINE
  5
F04A
  8
3
 10
205.37270312236001
 20
207.74491580194041
 30
0.0
 11
205.38179742888141
 21
207.71763288237631
 31
0.0
  0
LINE
  5
F04B
  8
3
 10
205.38179742888141
 20
207.71763288237631
 30
0.0
 11
205.3908917354027
 21
207.68580280955169
 31
0.0
  0
LINE
  5
F04C
  8
3
 10
205.3908917354027
 20
207.68580280955169
 30
0.0
 11
205.399986041924
 21
207.65851988998759
 31
0.0
  0
LINE
  5
F04D
  8
3
 10
205.399986041924
 20
207.65851988998759
 30
0.0
 11
205.4090803484454
 21
207.62668981716291
 31
0.0
  0
LINE
  5
F04E
  8
3
 10
205.4090803484454
 20
207.62668981716291
 30
0.0
 11
205.413627501706
 21
207.59485974433821
 31
0.0
  0
LINE
  5
F04F
  8
3
 10
205.413627501706
 20
207.59485974433821
 30
0.0
 11
205.41817465496669
 21
207.56302967151339
 31
0.0
  0
LINE
  5
F050
  8
3
 10
205.41817465496669
 20
207.56302967151339
 30
0.0
 11
205.41817465496669
 21
207.5311995986888
 31
0.0
  0
LINE
  5
F051
  8
3
 10
205.41817465496669
 20
207.5311995986888
 30
0.0
 11
205.41817465496669
 21
207.49936952586401
 31
0.0
  0
LINE
  5
F052
  8
3
 10
205.41817465496669
 20
207.49936952586401
 30
0.0
 11
205.41817465496669
 21
207.46753945303931
 31
0.0
  0
LINE
  5
F053
  8
3
 10
205.41817465496669
 20
207.46753945303931
 30
0.0
 11
205.413627501706
 21
207.44025653347529
 31
0.0
  0
LINE
  5
F054
  8
3
 10
205.413627501706
 20
207.44025653347529
 30
0.0
 11
205.4090803484454
 21
207.40842646065059
 31
0.0
  0
LINE
  5
F055
  8
3
 10
205.4090803484454
 20
207.40842646065059
 30
0.0
 11
205.39543888866339
 21
207.34931346826181
 31
0.0
  0
LINE
  5
F056
  8
3
 10
205.39543888866339
 20
207.34931346826181
 30
0.0
 11
205.3908917354027
 21
207.3356720084798
 31
0.0
  0
LINE
  5
F057
  8
3
 10
205.3908917354027
 20
207.3356720084798
 30
0.0
 11
205.38634458214199
 21
207.32657770195851
 31
0.0
  0
LINE
  5
F058
  8
3
 10
205.38634458214199
 20
207.32657770195851
 30
0.0
 11
205.38179742888141
 21
207.31293624217639
 31
0.0
  0
LINE
  5
F059
  8
3
 10
205.38179742888141
 20
207.31293624217639
 30
0.0
 11
205.37270312236001
 21
207.30384193565499
 31
0.0
  0
LINE
  5
F05A
  8
3
 10
205.37270312236001
 20
207.30384193565499
 30
0.0
 11
205.3681559690994
 21
207.2947476291337
 31
0.0
  0
LINE
  5
F05B
  8
3
 10
205.3681559690994
 20
207.2947476291337
 30
0.0
 11
205.35906166257789
 21
207.2856533226124
 31
0.0
  0
LINE
  5
F05C
  8
3
 10
205.35906166257789
 20
207.2856533226124
 30
0.0
 11
205.3499673560566
 21
207.276559016091
 31
0.0
  0
LINE
  5
F05D
  8
3
 10
205.3499673560566
 20
207.276559016091
 30
0.0
 11
205.34087304953519
 21
207.27201186283031
 31
0.0
  0
LINE
  5
F05E
  8
3
 10
205.34087304953519
 20
207.27201186283031
 30
0.0
 11
205.33177874301401
 21
207.26291755630899
 31
0.0
  0
LINE
  5
F05F
  8
3
 10
205.33177874301401
 20
207.26291755630899
 30
0.0
 11
205.32268443649249
 21
207.2583704030483
 31
0.0
  0
LINE
  5
F060
  8
3
 10
205.32268443649249
 20
207.2583704030483
 30
0.0
 11
205.3135901299712
 21
207.2538232497877
 31
0.0
  0
LINE
  5
F061
  8
3
 10
205.3135901299712
 20
207.2538232497877
 30
0.0
 11
205.30449582344991
 21
207.24927609652701
 31
0.0
  0
LINE
  5
F062
  8
3
 10
205.30449582344991
 20
207.24927609652701
 30
0.0
 11
205.29540151692851
 21
207.2447289432663
 31
0.0
  0
LINE
  5
F063
  8
3
 10
205.29540151692851
 20
207.2447289432663
 30
0.0
 11
205.28176005714661
 21
207.24018179000561
 31
0.0
  0
LINE
  5
F064
  8
3
 10
205.28176005714661
 20
207.24018179000561
 30
0.0
 11
205.25902429084309
 21
207.235634636745
 31
0.0
  0
LINE
  5
F065
  8
3
 10
205.25902429084309
 20
207.235634636745
 30
0.0
 11
205.20445845171511
 21
207.26746470956971
 31
0.0
  0
LINE
  5
F066
  8
3
 10
205.20445845171511
 20
207.26746470956971
 30
0.0
 11
205.20445845171511
 21
207.27201186283031
 31
0.0
  0
LINE
  5
F067
  8
3
 10
205.20445845171511
 20
207.27201186283031
 30
0.0
 11
205.1999112984544
 21
207.276559016091
 31
0.0
  0
LINE
  5
F068
  8
3
 10
205.1999112984544
 20
207.276559016091
 30
0.0
 11
205.1999112984544
 21
207.276559016091
 31
0.0
  0
LINE
  5
F069
  8
3
 10
204.56330984196001
 20
200.88780868484471
 30
0.0
 11
204.56785699522081
 21
201.88363524893219
 31
0.0
  0
LINE
  5
F06A
  8
3
 10
204.4041594778366
 20
201.5471459076424
 30
0.0
 11
204.3996123245758
 21
201.47439145547159
 31
0.0
  0
LINE
  5
F06B
  8
3
 10
206.1366248701531
 20
201.58352313372779
 30
0.0
 11
206.1366248701531
 21
201.50167437503569
 31
0.0
  0
LINE
  5
F06C
  8
3
 10
205.10896823324089
 20
201.5244101413391
 30
0.0
 11
205.10896823324089
 21
201.45620284242889
 31
0.0
  0
LINE
  5
F06D
  8
3
 10
205.3499673560566
 20
201.43346707612559
 30
0.0
 11
205.3499673560566
 21
201.52895729459971
 31
0.0
  0
LINE
  5
F06E
  8
3
 10
205.8137769886454
 20
200.34669744682461
 30
0.0
 11
205.7910412223419
 21
200.32396168052119
 31
0.0
  0
LINE
  5
F06F
  8
3
 10
203.82667101373099
 20
200.46947058486279
 30
0.0
 11
203.81757670720961
 21
200.4831120446448
 31
0.0
  0
LINE
  5
F070
  8
3
 10
203.83576532025239
 20
200.45582912508081
 30
0.0
 11
203.82667101373099
 21
200.46947058486279
 31
0.0
  0
LINE
  5
F071
  8
3
 10
204.4587253169646
 20
200.98784605657951
 30
0.0
 11
204.53602692239599
 21
200.87871437832339
 31
0.0
  0
LINE
  5
F072
  8
3
 10
204.56330984196001
 20
200.88326153158411
 30
0.0
 11
204.56330984196001
 21
200.88780868484471
 31
0.0
  0
LINE
  5
F073
  8
3
 10
204.5587626886994
 20
200.88326153158411
 30
0.0
 11
204.56330984196001
 21
200.88326153158411
 31
0.0
  0
LINE
  5
F074
  8
3
 10
204.5587626886994
 20
200.87871437832339
 30
0.0
 11
204.5587626886994
 21
200.88326153158411
 31
0.0
  0
LINE
  5
F075
  8
3
 10
204.55421553543869
 20
200.87871437832339
 30
0.0
 11
204.5587626886994
 21
200.87871437832339
 31
0.0
  0
LINE
  5
F076
  8
3
 10
204.54966838217811
 20
200.87871437832339
 30
0.0
 11
204.55421553543869
 21
200.87871437832339
 31
0.0
  0
LINE
  5
F077
  8
3
 10
204.5451212289174
 20
200.87871437832339
 30
0.0
 11
204.54966838217811
 21
200.87871437832339
 31
0.0
  0
LINE
  5
F078
  8
3
 10
204.54057407565671
 20
200.87871437832339
 30
0.0
 11
204.5451212289174
 21
200.87871437832339
 31
0.0
  0
LINE
  5
F079
  8
3
 10
204.53602692239599
 20
200.87871437832339
 30
0.0
 11
204.54057407565671
 21
200.87871437832339
 31
0.0
  0
LINE
  5
F07A
  8
3
 10
204.3950651713152
 20
201.25612809895929
 30
0.0
 11
204.4041594778366
 21
201.18337364678851
 31
0.0
  0
LINE
  5
F07B
  8
3
 10
204.4041594778366
 20
201.18337364678851
 30
0.0
 11
204.41325378435781
 21
201.11516634787839
 31
0.0
  0
LINE
  5
F07C
  8
3
 10
204.43144239740059
 20
201.05150620222889
 30
0.0
 11
204.4587253169646
 21
200.98784605657951
 31
0.0
  0
LINE
  5
F07D
  8
3
 10
204.41325378435781
 20
201.11516634787839
 30
0.0
 11
204.43144239740059
 21
201.05150620222889
 31
0.0
  0
LINE
  5
F07E
  8
3
 10
204.3950651713152
 20
201.32433539786939
 30
0.0
 11
204.3950651713152
 21
201.25612809895929
 31
0.0
  0
LINE
  5
F07F
  8
3
 10
204.3950651713152
 20
201.3970898500402
 30
0.0
 11
204.3950651713152
 21
201.32433539786939
 31
0.0
  0
LINE
  5
F080
  8
3
 10
204.3996123245758
 20
201.47439145547159
 30
0.0
 11
204.3950651713152
 21
201.3970898500402
 31
0.0
  0
LINE
  5
F081
  8
3
 10
203.85850108655569
 20
200.4330933587774
 30
0.0
 11
203.84485962677371
 21
200.44218766529869
 31
0.0
  0
LINE
  5
F082
  8
3
 10
203.8675953930771
 20
200.41945189899539
 30
0.0
 11
203.85850108655569
 21
200.4330933587774
 31
0.0
  0
LINE
  5
F083
  8
3
 10
203.87668969959839
 20
200.4058104392133
 30
0.0
 11
203.8675953930771
 21
200.41945189899539
 31
0.0
  0
LINE
  5
F084
  8
3
 10
203.89033115938039
 20
200.39216897943129
 30
0.0
 11
203.87668969959839
 21
200.4058104392133
 31
0.0
  0
LINE
  5
F085
  8
3
 10
203.8994254659018
 20
200.37852751964931
 30
0.0
 11
203.89033115938039
 21
200.39216897943129
 31
0.0
  0
LINE
  5
F086
  8
3
 10
203.9176140789445
 20
200.35579175334601
 30
0.0
 11
203.90851977242309
 21
200.36943321312791
 31
0.0
  0
LINE
  5
F087
  8
3
 10
203.92670838546579
 20
200.34215029356389
 30
0.0
 11
203.9176140789445
 21
200.35579175334601
 31
0.0
  0
LINE
  5
F088
  8
3
 10
203.93580269198711
 20
200.32850883378191
 30
0.0
 11
203.92670838546579
 21
200.34215029356389
 31
0.0
  0
LINE
  5
F089
  8
3
 10
204.08131159632859
 20
200.19664138922229
 30
0.0
 11
203.93580269198711
 21
200.32850883378191
 31
0.0
  0
LINE
  5
F08A
  8
3
 10
204.11314166915341
 20
200.17845277617971
 30
0.0
 11
204.08131159632859
 21
200.19664138922229
 31
0.0
  0
LINE
  5
F08B
  8
3
 10
204.1267831289355
 20
200.17390562291899
 30
0.0
 11
204.11314166915341
 21
200.17845277617971
 31
0.0
  0
LINE
  5
F08C
  8
3
 10
204.13587743545671
 20
200.1648113163977
 30
0.0
 11
204.1267831289355
 21
200.17390562291899
 31
0.0
  0
LINE
  5
F08D
  8
3
 10
204.1495188952388
 20
200.1557170098763
 30
0.0
 11
204.13587743545671
 21
200.1648113163977
 31
0.0
  0
LINE
  5
F08E
  8
3
 10
204.16316035502089
 20
200.14662270335489
 30
0.0
 11
204.1495188952388
 21
200.1557170098763
 31
0.0
  0
LINE
  5
F08F
  8
3
 10
204.17225466154221
 20
200.14207555009429
 30
0.0
 11
204.16316035502089
 21
200.14662270335489
 31
0.0
  0
LINE
  5
F090
  8
3
 10
204.18589612132419
 20
200.13298124357291
 30
0.0
 11
204.17225466154221
 21
200.14207555009429
 31
0.0
  0
LINE
  5
F091
  8
3
 10
204.19953758110631
 20
200.12388693705159
 30
0.0
 11
204.18589612132419
 21
200.13298124357291
 31
0.0
  0
LINE
  5
F092
  8
3
 10
204.21317904088821
 20
200.1147926305303
 30
0.0
 11
204.19953758110631
 21
200.12388693705159
 31
0.0
  0
LINE
  5
F093
  8
3
 10
204.2222733474095
 20
200.1056983240089
 30
0.0
 11
204.21317904088821
 21
200.1147926305303
 31
0.0
  0
LINE
  5
F094
  8
3
 10
204.23591480719159
 20
200.09660401748749
 30
0.0
 11
204.2222733474095
 21
200.1056983240089
 31
0.0
  0
LINE
  5
F095
  8
3
 10
204.2768391865377
 20
200.06932109792351
 30
0.0
 11
204.26319772675561
 21
200.07841540444491
 31
0.0
  0
LINE
  5
F096
  8
3
 10
204.29048064631971
 20
200.06022679140219
 30
0.0
 11
204.2768391865377
 21
200.06932109792351
 31
0.0
  0
LINE
  5
F097
  8
3
 10
204.43144239740059
 20
200.00111379901341
 30
0.0
 11
204.29048064631971
 21
200.06022679140219
 31
0.0
  0
LINE
  5
F098
  8
3
 10
204.5041968495714
 20
199.97837803271
 30
0.0
 11
204.43144239740059
 21
200.00111379901341
 31
0.0
  0
LINE
  5
F099
  8
3
 10
204.5724041484815
 20
199.9601894196673
 30
0.0
 11
204.5041968495714
 21
199.97837803271
 31
0.0
  0
LINE
  5
F09A
  8
3
 10
204.64970575391291
 20
199.94200080662461
 30
0.0
 11
204.5724041484815
 21
199.9601894196673
 31
0.0
  0
LINE
  5
F09B
  8
3
 10
204.7224602060837
 20
199.93290650010329
 30
0.0
 11
204.64970575391291
 21
199.94200080662461
 31
0.0
  0
LINE
  5
F09C
  8
3
 10
204.79521465825439
 20
199.92381219358191
 30
0.0
 11
204.7224602060837
 21
199.93290650010329
 31
0.0
  0
LINE
  5
F09D
  8
3
 10
204.86796911042521
 20
199.92381219358191
 30
0.0
 11
204.79521465825439
 21
199.92381219358191
 31
0.0
  0
LINE
  5
F09E
  8
3
 10
204.26319772675561
 20
200.07841540444491
 30
0.0
 11
204.2495562669736
 21
200.0875097109662
 31
0.0
  0
LINE
  5
F09F
  8
3
 10
204.2495562669736
 20
200.0875097109662
 30
0.0
 11
204.23591480719159
 21
200.09660401748749
 31
0.0
  0
LINE
  5
F0A0
  8
3
 10
203.90851977242309
 20
200.36943321312791
 30
0.0
 11
203.8994254659018
 21
200.37852751964931
 31
0.0
  0
LINE
  5
F0A1
  8
3
 10
203.84485962677371
 20
200.44218766529869
 30
0.0
 11
203.83576532025239
 21
200.45582912508081
 31
0.0
  0
LINE
  5
F0A2
  8
3
 10
205.1044210799802
 20
200.98329890331891
 30
0.0
 11
205.10896823324089
 21
200.85597861202001
 31
0.0
  0
LINE
  5
F0A3
  8
3
 10
205.2317413712791
 20
200.91509160440879
 30
0.0
 11
205.26811859736449
 21
200.98784605657951
 31
0.0
  0
LINE
  5
F0A4
  8
3
 10
205.18172268541159
 20
200.84688430549869
 30
0.0
 11
205.1862698386723
 21
200.85597861202001
 31
0.0
  0
LINE
  5
F0A5
  8
3
 10
205.17717553215101
 20
200.84688430549869
 30
0.0
 11
205.18172268541159
 21
200.84688430549869
 31
0.0
  0
LINE
  5
F0A6
  8
3
 10
205.16808122562969
 20
200.842337152238
 30
0.0
 11
205.17717553215101
 21
200.84688430549869
 31
0.0
  0
LINE
  5
F0A7
  8
3
 10
205.163534072369
 20
200.83778999897731
 30
0.0
 11
205.16808122562969
 21
200.842337152238
 31
0.0
  0
LINE
  5
F0A8
  8
3
 10
205.15898691910829
 20
200.83778999897731
 30
0.0
 11
205.163534072369
 21
200.83778999897731
 31
0.0
  0
LINE
  5
F0A9
  8
3
 10
205.15443976584771
 20
200.8332428457166
 30
0.0
 11
205.15898691910829
 21
200.83778999897731
 31
0.0
  0
LINE
  5
F0AA
  8
3
 10
205.14534545932631
 20
200.8332428457166
 30
0.0
 11
205.15443976584771
 21
200.8332428457166
 31
0.0
  0
LINE
  5
F0AB
  8
3
 10
205.14079830606559
 20
200.82869569245599
 30
0.0
 11
205.14534545932631
 21
200.8332428457166
 31
0.0
  0
LINE
  5
F0AC
  8
3
 10
205.13625115280499
 20
200.82869569245599
 30
0.0
 11
205.14079830606559
 21
200.82869569245599
 31
0.0
  0
LINE
  5
F0AD
  8
3
 10
205.1317039995443
 20
200.82869569245599
 30
0.0
 11
205.13625115280499
 21
200.82869569245599
 31
0.0
  0
LINE
  5
F0AE
  8
3
 10
205.12260969302281
 20
200.8332428457166
 30
0.0
 11
205.1317039995443
 21
200.82869569245599
 31
0.0
  0
LINE
  5
F0AF
  8
3
 10
205.11806253976229
 20
200.8332428457166
 30
0.0
 11
205.12260969302281
 21
200.8332428457166
 31
0.0
  0
LINE
  5
F0B0
  8
3
 10
205.11806253976229
 20
200.83778999897731
 30
0.0
 11
205.11806253976229
 21
200.8332428457166
 31
0.0
  0
LINE
  5
F0B1
  8
3
 10
205.1135153865016
 20
200.84688430549869
 30
0.0
 11
205.11806253976229
 21
200.83778999897731
 31
0.0
  0
LINE
  5
F0B2
  8
3
 10
205.10896823324089
 20
200.85597861202001
 30
0.0
 11
205.1135153865016
 21
200.84688430549869
 31
0.0
  0
LINE
  5
F0B3
  8
3
 10
205.1862698386723
 20
200.85597861202001
 30
0.0
 11
205.2317413712791
 21
200.91509160440879
 31
0.0
  0
LINE
  5
F0B4
  8
3
 10
205.1044210799802
 20
201.25158094569861
 30
0.0
 11
205.1044210799802
 21
201.18337364678851
 31
0.0
  0
LINE
  5
F0B5
  8
3
 10
205.1044210799802
 20
201.18337364678851
 30
0.0
 11
205.1044210799802
 21
201.11516634787839
 31
0.0
  0
LINE
  5
F0B6
  8
3
 10
205.1044210799802
 20
201.05150620222889
 30
0.0
 11
205.1044210799802
 21
200.98329890331891
 31
0.0
  0
LINE
  5
F0B7
  8
3
 10
205.1044210799802
 20
201.11516634787839
 30
0.0
 11
205.1044210799802
 21
201.05150620222889
 31
0.0
  0
LINE
  5
F0B8
  8
3
 10
205.26811859736449
 20
200.98784605657951
 30
0.0
 11
205.2999486701892
 21
201.0696948152717
 31
0.0
  0
LINE
  5
F0B9
  8
3
 10
205.2999486701892
 20
201.0696948152717
 30
0.0
 11
205.31813728323189
 21
201.15609072722449
 31
0.0
  0
LINE
  5
F0BA
  8
3
 10
205.10896823324089
 20
201.3197882446087
 30
0.0
 11
205.1044210799802
 21
201.25158094569861
 31
0.0
  0
LINE
  5
F0BB
  8
3
 10
205.10896823324089
 20
201.3879955435188
 30
0.0
 11
205.10896823324089
 21
201.3197882446087
 31
0.0
  0
LINE
  5
F0BC
  8
3
 10
205.10896823324089
 20
201.45620284242889
 30
0.0
 11
205.10896823324089
 21
201.3879955435188
 31
0.0
  0
LINE
  5
F0BD
  8
3
 10
205.34542020279599
 20
201.3379768576514
 30
0.0
 11
205.3499673560566
 21
201.43346707612559
 31
0.0
  0
LINE
  5
F0BE
  8
3
 10
205.3363258962745
 20
201.247033792438
 30
0.0
 11
205.34542020279599
 21
201.3379768576514
 31
0.0
  0
LINE
  5
F0BF
  8
3
 10
205.31813728323189
 20
201.15609072722449
 30
0.0
 11
205.3363258962745
 21
201.247033792438
 31
0.0
  0
LINE
  5
F0C0
  8
3
 10
205.44545757453079
 20
200.06022679140219
 30
0.0
 11
205.37725027562061
 21
200.02384956531679
 31
0.0
  0
LINE
  5
F0C1
  8
3
 10
205.4772876473555
 20
200.07841540444491
 30
0.0
 11
205.46819334083409
 21
200.07386825118419
 31
0.0
  0
LINE
  5
F0C2
  8
3
 10
205.4909291071375
 20
200.0875097109662
 30
0.0
 11
205.4772876473555
 21
200.07841540444491
 31
0.0
  0
LINE
  5
F0C3
  8
3
 10
205.50002341365879
 20
200.09205686422689
 30
0.0
 11
205.4909291071375
 21
200.0875097109662
 31
0.0
  0
LINE
  5
F0C4
  8
3
 10
205.46819334083409
 20
200.07386825118419
 30
0.0
 11
205.44545757453079
 21
200.06022679140219
 31
0.0
  0
LINE
  5
F0C5
  8
3
 10
205.52275917996221
 20
200.1056983240089
 30
0.0
 11
205.5136648734408
 21
200.09660401748749
 31
0.0
  0
LINE
  5
F0C6
  8
3
 10
205.53640063974419
 20
200.11024547726959
 30
0.0
 11
205.52275917996221
 21
200.1056983240089
 31
0.0
  0
LINE
  5
F0C7
  8
3
 10
205.55004209952619
 20
200.1147926305303
 30
0.0
 11
205.53640063974419
 21
200.11024547726959
 31
0.0
  0
LINE
  5
F0C8
  8
3
 10
205.5591364060476
 20
200.12388693705159
 30
0.0
 11
205.55004209952619
 21
200.1147926305303
 31
0.0
  0
LINE
  5
F0C9
  8
3
 10
205.56823071256889
 20
200.12843409031231
 30
0.0
 11
205.5591364060476
 21
200.12388693705159
 31
0.0
  0
LINE
  5
F0CA
  8
3
 10
205.57732501909021
 20
200.1375283968336
 30
0.0
 11
205.56823071256889
 21
200.12843409031231
 31
0.0
  0
LINE
  5
F0CB
  8
3
 10
205.59096647887239
 20
200.14662270335489
 30
0.0
 11
205.57732501909021
 21
200.1375283968336
 31
0.0
  0
LINE
  5
F0CC
  8
3
 10
205.59551363213299
 20
200.15116985661561
 30
0.0
 11
205.59096647887239
 21
200.14662270335489
 31
0.0
  0
LINE
  5
F0CD
  8
3
 10
205.60460793865431
 20
200.1602641631369
 30
0.0
 11
205.59551363213299
 21
200.15116985661561
 31
0.0
  0
LINE
  5
F0CE
  8
3
 10
205.609155091915
 20
200.17390562291899
 30
0.0
 11
205.60460793865431
 21
200.1602641631369
 31
0.0
  0
LINE
  5
F0CF
  8
3
 10
205.6591737777824
 20
200.2011885424831
 30
0.0
 11
205.609155091915
 21
200.17390562291899
 31
0.0
  0
LINE
  5
F0D0
  8
3
 10
205.68190954408581
 20
200.21937715552571
 30
0.0
 11
205.6591737777824
 21
200.2011885424831
 31
0.0
  0
LINE
  5
F0D1
  8
3
 10
205.70464531038911
 20
200.23756576856849
 30
0.0
 11
205.68190954408581
 21
200.21937715552571
 31
0.0
  0
LINE
  5
F0D2
  8
3
 10
205.7273810766925
 20
200.2557543816111
 30
0.0
 11
205.70464531038911
 21
200.23756576856849
 31
0.0
  0
LINE
  5
F0D3
  8
3
 10
205.75011684299591
 20
200.27849014791451
 30
0.0
 11
205.7273810766925
 21
200.2557543816111
 31
0.0
  0
LINE
  5
F0D4
  8
3
 10
205.77285260929929
 20
200.30122591421789
 30
0.0
 11
205.75011684299591
 21
200.27849014791451
 31
0.0
  0
LINE
  5
F0D5
  8
3
 10
205.7910412223419
 20
200.32396168052119
 30
0.0
 11
205.77285260929929
 21
200.30122591421789
 31
0.0
  0
LINE
  5
F0D6
  8
3
 10
205.5136648734408
 20
200.09660401748749
 30
0.0
 11
205.50002341365879
 21
200.09205686422689
 31
0.0
  0
LINE
  5
F0D7
  8
3
 10
205.01802516802741
 20
199.9283593468426
 30
0.0
 11
204.94527071585659
 21
199.92381219358191
 31
0.0
  0
LINE
  5
F0D8
  8
3
 10
205.0907796201983
 20
199.94200080662461
 30
0.0
 11
205.01802516802741
 21
199.9283593468426
 31
0.0
  0
LINE
  5
F0D9
  8
3
 10
205.16808122562969
 20
199.95564226640661
 30
0.0
 11
205.0907796201983
 21
199.94200080662461
 31
0.0
  0
LINE
  5
F0DA
  8
3
 10
205.2362885245397
 20
199.97383087944939
 30
0.0
 11
205.16808122562969
 21
199.95564226640661
 31
0.0
  0
LINE
  5
F0DB
  8
3
 10
205.30904297671049
 20
199.99656664575269
 30
0.0
 11
205.2362885245397
 21
199.97383087944939
 31
0.0
  0
LINE
  5
F0DC
  8
3
 10
205.37725027562061
 20
200.02384956531679
 30
0.0
 11
205.30904297671049
 21
199.99656664575269
 31
0.0
  0
LINE
  5
F0DD
  8
3
 10
204.94527071585659
 20
199.92381219358191
 30
0.0
 11
204.86796911042521
 21
199.92381219358191
 31
0.0
  0
LINE
  5
F0DE
  8
3
 10
206.013851732115
 20
200.64680956202901
 30
0.0
 11
205.9365501266835
 21
200.5149421174695
 31
0.0
  0
LINE
  5
F0DF
  8
3
 10
205.92290866690149
 20
200.48765919790549
 30
0.0
 11
205.9047200538588
 21
200.4649234316021
 31
0.0
  0
LINE
  5
F0E0
  8
3
 10
205.9365501266835
 20
200.5149421174695
 30
0.0
 11
205.92290866690149
 21
200.48765919790549
 31
0.0
  0
LINE
  5
F0E1
  8
3
 10
206.10479479732851
 20
200.9423745239728
 30
0.0
 11
206.08660618428581
 21
200.86507291854139
 31
0.0
  0
LINE
  5
F0E2
  8
3
 10
206.06841757124309
 20
200.78777131311
 30
0.0
 11
206.04113465167899
 21
200.7150168609391
 31
0.0
  0
LINE
  5
F0E3
  8
3
 10
206.08660618428581
 20
200.86507291854139
 30
0.0
 11
206.06841757124309
 21
200.78777131311
 31
0.0
  0
LINE
  5
F0E4
  8
3
 10
206.04113465167899
 20
200.7150168609391
 30
0.0
 11
206.013851732115
 21
200.64680956202901
 31
0.0
  0
LINE
  5
F0E5
  8
3
 10
206.1366248701531
 20
201.26067525222001
 30
0.0
 11
206.1320777168925
 21
201.17882649352779
 31
0.0
  0
LINE
  5
F0E6
  8
3
 10
206.12753056363181
 20
201.09697773483569
 30
0.0
 11
206.11843625711049
 21
201.0196761294043
 31
0.0
  0
LINE
  5
F0E7
  8
3
 10
206.11843625711049
 20
201.0196761294043
 30
0.0
 11
206.10479479732851
 21
200.9423745239728
 31
0.0
  0
LINE
  5
F0E8
  8
3
 10
206.1320777168925
 20
201.17882649352779
 30
0.0
 11
206.12753056363181
 21
201.09697773483569
 31
0.0
  0
LINE
  5
F0E9
  8
3
 10
206.14117202341379
 20
201.34252401091209
 30
0.0
 11
206.1366248701531
 21
201.26067525222001
 31
0.0
  0
LINE
  5
F0EA
  8
3
 10
206.14117202341379
 20
201.4198256163435
 30
0.0
 11
206.14117202341379
 21
201.34252401091209
 31
0.0
  0
LINE
  5
F0EB
  8
3
 10
206.1366248701531
 20
201.50167437503569
 30
0.0
 11
206.14117202341379
 21
201.4198256163435
 31
0.0
  0
LINE
  5
F0EC
  8
3
 10
205.87288998103409
 20
200.4149047457347
 30
0.0
 11
205.85015421473071
 21
200.39216897943129
 31
0.0
  0
LINE
  5
F0ED
  8
3
 10
205.8910785940769
 20
200.44218766529869
 30
0.0
 11
205.87288998103409
 21
200.4149047457347
 31
0.0
  0
LINE
  5
F0EE
  8
3
 10
205.83196560168801
 20
200.36943321312791
 30
0.0
 11
205.8137769886454
 21
200.34669744682461
 31
0.0
  0
LINE
  5
F0EF
  8
3
 10
205.85015421473071
 20
200.39216897943129
 30
0.0
 11
205.83196560168801
 21
200.36943321312791
 31
0.0
  0
LINE
  5
F0F0
  8
3
 10
205.9047200538588
 20
200.4649234316021
 30
0.0
 11
205.8910785940769
 21
200.44218766529869
 31
0.0
  0
LINE
  5
F0F1
  8
3
 10
205.9047200538588
 20
202.30652050217489
 30
0.0
 11
205.7273810766925
 21
202.23831320326479
 31
0.0
  0
LINE
  5
F0F2
  8
3
 10
205.7546639962566
 20
202.02914415327379
 30
0.0
 11
205.80013552886339
 21
202.0200498467525
 31
0.0
  0
LINE
  5
F0F3
  8
3
 10
205.7864940690813
 20
203.15229100866009
 30
0.0
 11
205.818324141906
 21
203.17047962170281
 31
0.0
  0
LINE
  5
F0F4
  8
3
 10
205.80922983538471
 20
203.4342145108219
 30
0.0
 11
205.76830545603849
 21
203.38874297821511
 31
0.0
  0
LINE
  5
F0F5
  8
3
 10
204.38597086479379
 20
201.9745783141457
 30
0.0
 11
204.3996123245758
 21
201.90637101523561
 31
0.0
  0
LINE
  5
F0F6
  8
3
 10
204.83159188433979
 20
201.90637101523561
 30
0.0
 11
204.86796911042521
 21
201.90637101523561
 31
0.0
  0
LINE
  5
F0F7
  8
3
 10
204.7997618115152
 20
201.90637101523561
 30
0.0
 11
204.83159188433979
 21
201.90637101523561
 31
0.0
  0
LINE
  5
F0F8
  8
3
 10
204.76338458542969
 20
201.90637101523561
 30
0.0
 11
204.7997618115152
 21
201.90637101523561
 31
0.0
  0
LINE
  5
F0F9
  8
3
 10
204.73155451260499
 20
201.90637101523561
 30
0.0
 11
204.76338458542969
 21
201.90637101523561
 31
0.0
  0
LINE
  5
F0FA
  8
3
 10
204.69517728651959
 20
201.901823861975
 30
0.0
 11
204.73155451260499
 21
201.90637101523561
 31
0.0
  0
LINE
  5
F0FB
  8
3
 10
204.66334721369489
 20
201.901823861975
 30
0.0
 11
204.69517728651959
 21
201.901823861975
 31
0.0
  0
LINE
  5
F0FC
  8
3
 10
204.6315171408703
 20
201.89727670871429
 30
0.0
 11
204.66334721369489
 21
201.901823861975
 31
0.0
  0
LINE
  5
F0FD
  8
3
 10
204.5996870680454
 20
201.88818240219291
 30
0.0
 11
204.6315171408703
 21
201.89727670871429
 31
0.0
  0
LINE
  5
F0FE
  8
3
 10
204.56785699522081
 20
201.88363524893219
 30
0.0
 11
204.5996870680454
 21
201.88818240219291
 31
0.0
  0
LINE
  5
F0FF
  8
3
 10
204.3996123245758
 20
201.90637101523561
 30
0.0
 11
204.4087066310972
 21
201.83816371632551
 31
0.0
  0
LINE
  5
F100
  8
3
 10
204.4087066310972
 20
201.7654092641547
 30
0.0
 11
204.4087066310972
 21
201.692654811984
 31
0.0
  0
LINE
  5
F101
  8
3
 10
204.4041594778366
 20
201.61990035981319
 30
0.0
 11
204.4041594778366
 21
201.5471459076424
 31
0.0
  0
LINE
  5
F102
  8
3
 10
204.4087066310972
 20
201.692654811984
 30
0.0
 11
204.4041594778366
 21
201.61990035981319
 31
0.0
  0
LINE
  5
F103
  8
3
 10
204.4087066310972
 20
201.83816371632551
 30
0.0
 11
204.4087066310972
 21
201.7654092641547
 31
0.0
  0
LINE
  5
F104
  8
3
 10
204.2813863397983
 20
203.2068568477882
 30
0.0
 11
204.26319772675561
 21
203.21595115430961
 31
0.0
  0
LINE
  5
F105
  8
3
 10
204.299574952841
 20
203.19776254126691
 30
0.0
 11
204.2813863397983
 21
203.2068568477882
 31
0.0
  0
LINE
  5
F106
  8
3
 10
204.31776356588369
 20
203.18866823474551
 30
0.0
 11
204.299574952841
 21
203.19776254126691
 31
0.0
  0
LINE
  5
F107
  8
3
 10
204.33595217892639
 20
203.17957392822419
 30
0.0
 11
204.31776356588369
 21
203.18866823474551
 31
0.0
  0
LINE
  5
F108
  8
3
 10
204.3541407919692
 20
203.17047962170281
 30
0.0
 11
204.33595217892639
 21
203.17957392822419
 31
0.0
  0
LINE
  5
F109
  8
3
 10
204.37232940501181
 20
203.16138531518149
 30
0.0
 11
204.3541407919692
 21
203.17047962170281
 31
0.0
  0
LINE
  5
F10A
  8
3
 10
204.39051801805451
 20
203.15229100866009
 30
0.0
 11
204.37232940501181
 21
203.16138531518149
 31
0.0
  0
LINE
  5
F10B
  8
3
 10
204.4087066310972
 20
203.14319670213879
 30
0.0
 11
204.39051801805451
 21
203.15229100866009
 31
0.0
  0
LINE
  5
F10C
  8
3
 10
204.4268952441399
 20
203.1341023956175
 30
0.0
 11
204.4087066310972
 21
203.14319670213879
 31
0.0
  0
LINE
  5
F10D
  8
3
 10
204.4450838571826
 20
203.1250080890961
 30
0.0
 11
204.4268952441399
 21
203.1341023956175
 31
0.0
  0
LINE
  5
F10E
  8
3
 10
204.46327247022529
 20
203.11591378257469
 30
0.0
 11
204.4450838571826
 21
203.1250080890961
 31
0.0
  0
LINE
  5
F10F
  8
3
 10
204.4769139300073
 20
203.1068194760534
 30
0.0
 11
204.46327247022529
 21
203.11591378257469
 31
0.0
  0
LINE
  5
F110
  8
3
 10
204.5587626886994
 20
203.08408370974999
 30
0.0
 11
204.4769139300073
 21
203.1068194760534
 31
0.0
  0
LINE
  5
F111
  8
3
 10
204.6224228343489
 20
204.00715582166669
 30
0.0
 11
204.6224228343489
 21
204.01625012818809
 31
0.0
  0
LINE
  5
F112
  8
3
 10
204.6224228343489
 20
204.00260866840611
 30
0.0
 11
204.6224228343489
 21
204.00715582166669
 31
0.0
  0
LINE
  5
F113
  8
3
 10
204.61787568108821
 20
204.00260866840611
 30
0.0
 11
204.6224228343489
 21
204.00260866840611
 31
0.0
  0
LINE
  5
F114
  8
3
 10
204.61787568108821
 20
203.99806151514539
 30
0.0
 11
204.61787568108821
 21
204.00260866840611
 31
0.0
  0
LINE
  5
F115
  8
3
 10
204.61332852782749
 20
203.99806151514539
 30
0.0
 11
204.61787568108821
 21
203.99806151514539
 31
0.0
  0
LINE
  5
F116
  8
3
 10
204.61332852782749
 20
203.99351436188479
 30
0.0
 11
204.61332852782749
 21
203.99806151514539
 31
0.0
  0
LINE
  5
F117
  8
3
 10
204.60878137456689
 20
203.99351436188479
 30
0.0
 11
204.61332852782749
 21
203.99351436188479
 31
0.0
  0
LINE
  5
F118
  8
3
 10
204.60423422130609
 20
203.99351436188479
 30
0.0
 11
204.60878137456689
 21
203.99351436188479
 31
0.0
  0
LINE
  5
F119
  8
3
 10
204.5996870680454
 20
203.99351436188479
 30
0.0
 11
204.60423422130609
 21
203.99351436188479
 31
0.0
  0
LINE
  5
F11A
  8
3
 10
204.5951399147848
 20
203.99351436188479
 30
0.0
 11
204.5996870680454
 21
203.99351436188479
 31
0.0
  0
LINE
  5
F11B
  8
3
 10
204.51329115609261
 20
204.09809888688031
 30
0.0
 11
204.5951399147848
 21
203.99351436188479
 31
0.0
  0
LINE
  5
F11C
  8
3
 10
204.48600823652859
 20
204.16175903252969
 30
0.0
 11
204.51329115609261
 21
204.09809888688031
 31
0.0
  0
LINE
  5
F11D
  8
3
 10
203.91306692568381
 20
203.53879903581739
 30
0.0
 11
203.87668969959839
 21
203.59336487494551
 31
0.0
  0
LINE
  5
F11E
  8
3
 10
204.24500911371291
 20
203.2250454608309
 30
0.0
 11
204.2268205006703
 21
203.23413976735219
 31
0.0
  0
LINE
  5
F11F
  8
3
 10
204.26319772675561
 20
203.21595115430961
 30
0.0
 11
204.24500911371291
 21
203.2250454608309
 31
0.0
  0
LINE
  5
F120
  8
3
 10
203.9539913050298
 20
203.48878034994999
 30
0.0
 11
203.91306692568381
 21
203.53879903581739
 31
0.0
  0
LINE
  5
F121
  8
3
 10
204.19044327458491
 20
203.25687553365569
 30
0.0
 11
204.13587743545671
 21
203.29779991300171
 31
0.0
  0
LINE
  5
F122
  8
3
 10
204.2268205006703
 20
203.23413976735219
 30
0.0
 11
204.19044327458491
 21
203.25687553365569
 31
0.0
  0
LINE
  5
F123
  8
3
 10
203.99491568437591
 20
203.43876166408259
 30
0.0
 11
203.9539913050298
 21
203.48878034994999
 31
0.0
  0
LINE
  5
F124
  8
3
 10
204.04038721698271
 20
203.38874297821511
 30
0.0
 11
203.99491568437591
 21
203.43876166408259
 31
0.0
  0
LINE
  5
F125
  8
3
 10
204.08585874958939
 20
203.34327144560839
 30
0.0
 11
204.04038721698271
 21
203.38874297821511
 31
0.0
  0
LINE
  5
F126
  8
3
 10
204.13587743545671
 20
203.29779991300171
 30
0.0
 11
204.08585874958939
 21
203.34327144560839
 31
0.0
  0
LINE
  5
F127
  8
3
 10
203.84485962677371
 20
203.64793071407351
 30
0.0
 11
203.81302955394889
 21
203.7024965532016
 31
0.0
  0
LINE
  5
F128
  8
3
 10
203.87668969959839
 20
203.59336487494551
 30
0.0
 11
203.84485962677371
 21
203.64793071407351
 31
0.0
  0
LINE
  5
F129
  8
3
 10
204.46327247022529
 20
204.2254191781791
 30
0.0
 11
204.48600823652859
 21
204.16175903252969
 31
0.0
  0
LINE
  5
F12A
  8
3
 10
204.1267831289355
 20
202.9249333456265
 30
0.0
 11
204.31321641262309
 21
202.9249333456265
 31
0.0
  0
LINE
  5
F12B
  8
3
 10
204.65425290717349
 20
202.9294804988871
 30
0.0
 11
204.80430896477569
 21
202.9294804988871
 31
0.0
  0
LINE
  5
F12C
  8
3
 10
204.48600823652859
 20
202.9294804988871
 30
0.0
 11
204.65425290717349
 21
202.9294804988871
 31
0.0
  0
LINE
  5
F12D
  8
3
 10
204.31321641262309
 20
202.9249333456265
 30
0.0
 11
204.48600823652859
 21
202.9294804988871
 31
0.0
  0
LINE
  5
F12E
  8
3
 10
203.94034984524779
 20
202.92038619236581
 30
0.0
 11
204.1267831289355
 21
202.9249333456265
 31
0.0
  0
LINE
  5
F12F
  8
3
 10
204.299574952841
 20
202.09735145218389
 30
0.0
 11
204.09495305611071
 21
202.10644575870529
 31
0.0
  0
LINE
  5
F130
  8
3
 10
204.49055538978931
 20
202.0928042989232
 30
0.0
 11
204.299574952841
 21
202.09735145218389
 31
0.0
  0
LINE
  5
F131
  8
3
 10
204.68153582673759
 20
202.0882571456626
 30
0.0
 11
204.49055538978931
 21
202.0928042989232
 31
0.0
  0
LINE
  5
F132
  8
3
 10
204.85887480390389
 20
202.0928042989232
 30
0.0
 11
204.68153582673759
 21
202.0882571456626
 31
0.0
  0
LINE
  5
F133
  8
3
 10
204.09495305611071
 20
202.10644575870529
 30
0.0
 11
203.87668969959839
 21
202.11099291196589
 31
0.0
  0
LINE
  5
F134
  8
3
 10
204.5951399147848
 20
203.0749894032287
 30
0.0
 11
204.5587626886994
 21
203.08408370974999
 31
0.0
  0
LINE
  5
F135
  8
3
 10
204.6360642941309
 20
203.06589509670729
 30
0.0
 11
204.5951399147848
 21
203.0749894032287
 31
0.0
  0
LINE
  5
F136
  8
3
 10
204.6769886734769
 20
203.06134794344669
 30
0.0
 11
204.6360642941309
 21
203.06589509670729
 31
0.0
  0
LINE
  5
F137
  8
3
 10
204.71791305282301
 20
203.05225363692529
 30
0.0
 11
204.6769886734769
 21
203.06134794344669
 31
0.0
  0
LINE
  5
F138
  8
3
 10
204.75883743216909
 20
203.0477064836646
 30
0.0
 11
204.71791305282301
 21
203.05225363692529
 31
0.0
  0
LINE
  5
F139
  8
3
 10
204.79521465825439
 20
203.0477064836646
 30
0.0
 11
204.75883743216909
 21
203.0477064836646
 31
0.0
  0
LINE
  5
F13A
  8
3
 10
204.8361390376005
 20
203.04315933040399
 30
0.0
 11
204.79521465825439
 21
203.0477064836646
 31
0.0
  0
LINE
  5
F13B
  8
3
 10
204.4450838571826
 20
204.2890793238285
 30
0.0
 11
204.46327247022529
 21
204.2254191781791
 31
0.0
  0
LINE
  5
F13C
  8
3
 10
204.43598955066119
 20
204.3572866227386
 30
0.0
 11
204.4450838571826
 21
204.2890793238285
 31
0.0
  0
LINE
  5
F13D
  8
3
 10
205.38179742888141
 20
204.18449479883299
 30
0.0
 11
205.39543888866339
 21
204.19813625861511
 31
0.0
  0
LINE
  5
F13E
  8
3
 10
205.35451450931731
 20
202.0882571456626
 30
0.0
 11
205.3908917354027
 21
202.07916283914119
 31
0.0
  0
LINE
  5
F13F
  8
3
 10
205.3681559690994
 20
202.97949918475459
 30
0.0
 11
205.399986041924
 21
202.98859349127591
 31
0.0
  0
LINE
  5
F140
  8
3
 10
205.42272180822741
 20
203.15229100866009
 30
0.0
 11
205.3681559690994
 21
203.12955524235679
 31
0.0
  0
LINE
  5
F141
  8
3
 10
205.55458925278691
 20
202.18829451739731
 30
0.0
 11
205.38179742888141
 21
202.14737013805129
 31
0.0
  0
LINE
  5
F142
  8
3
 10
205.399986041924
 20
202.98859349127591
 30
0.0
 11
205.42726896148801
 21
202.9976877977972
 31
0.0
  0
LINE
  5
F143
  8
3
 10
205.42272180822741
 20
204.3072679368712
 30
0.0
 11
205.42726896148801
 21
204.39366384882399
 31
0.0
  0
LINE
  5
F144
  8
3
 10
205.4090803484454
 20
204.2254191781791
 30
0.0
 11
205.42272180822741
 21
204.3072679368712
 31
0.0
  0
LINE
  5
F145
  8
3
 10
205.39543888866339
 20
204.19813625861511
 30
0.0
 11
205.4090803484454
 21
204.2254191781791
 31
0.0
  0
LINE
  5
F146
  8
3
 10
205.3908917354027
 20
202.07916283914119
 30
0.0
 11
205.42726896148801
 21
202.0746156858805
 31
0.0
  0
LINE
  5
F147
  8
3
 10
205.45455188105211
 20
203.0067821043186
 30
0.0
 11
205.4818348006161
 21
203.01587641083989
 31
0.0
  0
LINE
  5
F148
  8
3
 10
205.4636461875734
 20
202.06552137935921
 30
0.0
 11
205.50002341365879
 21
202.06097422609849
 31
0.0
  0
LINE
  5
F149
  8
3
 10
205.53640063974419
 20
203.0340650238827
 30
0.0
 11
205.5636835593082
 21
203.04315933040399
 31
0.0
  0
LINE
  5
F14A
  8
3
 10
205.50911772018031
 20
203.02497071736121
 30
0.0
 11
205.53640063974419
 21
203.0340650238827
 31
0.0
  0
LINE
  5
F14B
  8
3
 10
205.7273810766925
 20
202.23831320326479
 30
0.0
 11
205.55458925278691
 21
202.18829451739731
 31
0.0
  0
LINE
  5
F14C
  8
3
 10
205.71373961691049
 20
202.03369130653451
 30
0.0
 11
205.7546639962566
 21
202.02914415327379
 31
0.0
  0
LINE
  5
F14D
  8
3
 10
205.6682680843038
 20
202.03823845979511
 30
0.0
 11
205.71373961691049
 21
202.03369130653451
 31
0.0
  0
LINE
  5
F14E
  8
3
 10
205.6273437049577
 20
202.04278561305591
 30
0.0
 11
205.6682680843038
 21
202.03823845979511
 31
0.0
  0
LINE
  5
F14F
  8
3
 10
205.5818721723511
 20
202.04733276631649
 30
0.0
 11
205.6273437049577
 21
202.04278561305591
 31
0.0
  0
LINE
  5
F150
  8
3
 10
205.5409477930049
 20
202.05642707283781
 30
0.0
 11
205.5818721723511
 21
202.04733276631649
 31
0.0
  0
LINE
  5
F151
  8
3
 10
205.6409851647397
 20
203.0749894032287
 30
0.0
 11
205.68190954408581
 21
203.10227232279269
 31
0.0
  0
LINE
  5
F152
  8
3
 10
205.61370224517569
 20
203.06589509670729
 30
0.0
 11
205.6409851647397
 21
203.0749894032287
 31
0.0
  0
LINE
  5
F153
  8
3
 10
205.59096647887239
 20
203.056800790186
 30
0.0
 11
205.61370224517569
 21
203.06589509670729
 31
0.0
  0
LINE
  5
F154
  8
3
 10
205.5636835593082
 20
203.04315933040399
 30
0.0
 11
205.59096647887239
 21
203.056800790186
 31
0.0
  0
LINE
  5
F155
  8
3
 10
205.7546639962566
 20
203.1341023956175
 30
0.0
 11
205.7864940690813
 21
203.15229100866009
 31
0.0
  0
LINE
  5
F156
  8
3
 10
205.7182867701712
 20
203.11591378257469
 30
0.0
 11
205.7546639962566
 21
203.1341023956175
 31
0.0
  0
LINE
  5
F157
  8
3
 10
205.68190954408581
 20
203.10227232279269
 30
0.0
 11
205.7182867701712
 21
203.11591378257469
 31
0.0
  0
LINE
  5
F158
  8
3
 10
205.5818721723511
 20
203.23868692061291
 30
0.0
 11
205.5273063332229
 21
203.2068568477882
 31
0.0
  0
LINE
  5
F159
  8
3
 10
205.6773623908251
 20
203.306894219523
 30
0.0
 11
205.6273437049577
 21
203.2750641466983
 31
0.0
  0
LINE
  5
F15A
  8
3
 10
205.72283392343181
 20
203.34781859886911
 30
0.0
 11
205.6773623908251
 21
203.306894219523
 31
0.0
  0
LINE
  5
F15B
  8
3
 10
205.76830545603849
 20
203.38874297821511
 30
0.0
 11
205.72283392343181
 21
203.34781859886911
 31
0.0
  0
LINE
  5
F15C
  8
3
 10
205.6273437049577
 20
203.2750641466983
 30
0.0
 11
205.5818721723511
 21
203.23868692061291
 31
0.0
  0
LINE
  5
F15D
  8
3
 10
205.4818348006161
 20
203.01587641083989
 30
0.0
 11
205.50911772018031
 21
203.02497071736121
 31
0.0
  0
LINE
  5
F15E
  8
3
 10
205.50002341365879
 20
202.06097422609849
 30
0.0
 11
205.5409477930049
 21
202.05642707283781
 31
0.0
  0
LINE
  5
F15F
  8
3
 10
205.5273063332229
 20
203.2068568477882
 30
0.0
 11
205.4772876473555
 21
203.17957392822419
 31
0.0
  0
LINE
  5
F160
  8
3
 10
205.42726896148801
 20
202.9976877977972
 30
0.0
 11
205.45455188105211
 21
203.0067821043186
 31
0.0
  0
LINE
  5
F161
  8
3
 10
205.42726896148801
 20
202.0746156858805
 30
0.0
 11
205.4636461875734
 21
202.06552137935921
 31
0.0
  0
LINE
  5
F162
  8
3
 10
205.4772876473555
 20
203.17957392822419
 30
0.0
 11
205.42272180822741
 21
203.15229100866009
 31
0.0
  0
LINE
  5
F163
  8
3
 10
205.33177874301401
 20
201.9472953945816
 30
0.0
 11
205.3272315897533
 21
202.01095554023109
 31
0.0
  0
LINE
  5
F164
  8
3
 10
205.1044210799802
 20
201.85180517610749
 30
0.0
 11
205.10896823324089
 21
201.78814503045811
 31
0.0
  0
LINE
  5
F165
  8
3
 10
205.0998739267196
 20
201.91546532175701
 30
0.0
 11
205.1044210799802
 21
201.85180517610749
 31
0.0
  0
LINE
  5
F166
  8
3
 10
205.03621378107019
 20
201.90637101523561
 30
0.0
 11
205.0998739267196
 21
201.91546532175701
 31
0.0
  0
LINE
  5
F167
  8
3
 10
205.0043837082454
 20
201.90637101523561
 30
0.0
 11
205.03621378107019
 21
201.90637101523561
 31
0.0
  0
LINE
  5
F168
  8
3
 10
204.9725536354207
 20
201.90637101523561
 30
0.0
 11
205.0043837082454
 21
201.90637101523561
 31
0.0
  0
LINE
  5
F169
  8
3
 10
204.93617640933539
 20
201.90637101523561
 30
0.0
 11
204.9725536354207
 21
201.90637101523561
 31
0.0
  0
LINE
  5
F16A
  8
3
 10
204.89979918325
 20
201.90637101523561
 30
0.0
 11
204.93617640933539
 21
201.90637101523561
 31
0.0
  0
LINE
  5
F16B
  8
3
 10
205.3363258962745
 20
201.8745409424109
 30
0.0
 11
205.33177874301401
 21
201.9472953945816
 31
0.0
  0
LINE
  5
F16C
  8
3
 10
205.34087304953519
 20
201.7972393369794
 30
0.0
 11
205.3363258962745
 21
201.8745409424109
 31
0.0
  0
LINE
  5
F16D
  8
3
 10
205.10896823324089
 20
201.5926174402492
 30
0.0
 11
205.10896823324089
 21
201.5244101413391
 31
0.0
  0
LINE
  5
F16E
  8
3
 10
205.10896823324089
 20
201.65627758589861
 30
0.0
 11
205.10896823324089
 21
201.5926174402492
 31
0.0
  0
LINE
  5
F16F
  8
3
 10
205.10896823324089
 20
201.72448488480859
 30
0.0
 11
205.10896823324089
 21
201.65627758589861
 31
0.0
  0
LINE
  5
F170
  8
3
 10
205.3499673560566
 20
201.61990035981319
 30
0.0
 11
205.34542020279599
 21
201.7108434250267
 31
0.0
  0
LINE
  5
F171
  8
3
 10
205.3499673560566
 20
201.52895729459971
 30
0.0
 11
205.3499673560566
 21
201.61990035981319
 31
0.0
  0
LINE
  5
F172
  8
3
 10
205.10896823324089
 20
201.78814503045811
 30
0.0
 11
205.10896823324089
 21
201.72448488480859
 31
0.0
  0
LINE
  5
F173
  8
3
 10
205.34542020279599
 20
201.7108434250267
 30
0.0
 11
205.34087304953519
 21
201.7972393369794
 31
0.0
  0
LINE
  5
F174
  8
3
 10
205.17717553215101
 20
203.98442005536339
 30
0.0
 11
205.1908169919331
 21
203.98442005536339
 31
0.0
  0
LINE
  5
F175
  8
3
 10
205.22264706475781
 20
203.99806151514539
 30
0.0
 11
205.2408356778005
 21
204.01170297492749
 31
0.0
  0
LINE
  5
F176
  8
3
 10
205.20900560497569
 20
203.98896720862399
 30
0.0
 11
205.22264706475781
 21
203.99806151514539
 31
0.0
  0
LINE
  5
F177
  8
3
 10
205.1908169919331
 20
203.98442005536339
 30
0.0
 11
205.20900560497569
 21
203.98896720862399
 31
0.0
  0
LINE
  5
F178
  8
3
 10
205.2908543636679
 20
204.06626881405549
 30
0.0
 11
205.30904297671049
 21
204.0844574270983
 31
0.0
  0
LINE
  5
F179
  8
3
 10
205.27266575062509
 20
204.04353304775211
 30
0.0
 11
205.2908543636679
 21
204.06626881405549
 31
0.0
  0
LINE
  5
F17A
  8
3
 10
205.25902429084309
 20
204.02989158797021
 30
0.0
 11
205.27266575062509
 21
204.04353304775211
 31
0.0
  0
LINE
  5
F17B
  8
3
 10
205.30904297671049
 20
203.1068194760534
 30
0.0
 11
205.2499299843218
 21
203.08863086301071
 31
0.0
  0
LINE
  5
F17C
  8
3
 10
205.2408356778005
 20
204.01170297492749
 30
0.0
 11
205.25902429084309
 21
204.02989158797021
 31
0.0
  0
LINE
  5
F17D
  8
3
 10
205.37270312236001
 20
204.16630618579029
 30
0.0
 11
205.38179742888141
 21
204.18449479883299
 31
0.0
  0
LINE
  5
F17E
  8
3
 10
205.35906166257789
 20
204.14357041948699
 30
0.0
 11
205.37270312236001
 21
204.16630618579029
 31
0.0
  0
LINE
  5
F17F
  8
3
 10
205.34087304953519
 20
204.1253818064443
 30
0.0
 11
205.35906166257789
 21
204.14357041948699
 31
0.0
  0
LINE
  5
F180
  8
3
 10
205.3272315897533
 20
204.10264604014091
 30
0.0
 11
205.34087304953519
 21
204.1253818064443
 31
0.0
  0
LINE
  5
F181
  8
3
 10
205.3681559690994
 20
203.12955524235679
 30
0.0
 11
205.30904297671049
 21
203.1068194760534
 31
0.0
  0
LINE
  5
F182
  8
3
 10
205.30904297671049
 20
204.0844574270983
 30
0.0
 11
205.3272315897533
 21
204.10264604014091
 31
0.0
  0
LINE
  5
F183
  8
3
 10
205.0544023941128
 20
202.93857480540851
 30
0.0
 11
205.14534545932631
 21
202.93857480540851
 31
0.0
  0
LINE
  5
F184
  8
3
 10
204.94072356259591
 20
202.93402765214779
 30
0.0
 11
205.0544023941128
 21
202.93857480540851
 31
0.0
  0
LINE
  5
F185
  8
3
 10
205.14534545932631
 20
202.93857480540851
 30
0.0
 11
205.2499299843218
 21
202.9476691119298
 31
0.0
  0
LINE
  5
F186
  8
3
 10
205.28176005714661
 20
202.95221626519049
 30
0.0
 11
205.30904297671049
 21
202.96131057171181
 31
0.0
  0
LINE
  5
F187
  8
3
 10
205.2499299843218
 20
202.9476691119298
 30
0.0
 11
205.28176005714661
 21
202.95221626519049
 31
0.0
  0
LINE
  5
F188
  8
3
 10
205.20900560497569
 20
202.1200872184873
 30
0.0
 11
205.03621378107019
 21
202.10189860544449
 31
0.0
  0
LINE
  5
F189
  8
3
 10
205.34087304953519
 20
202.97040487823321
 30
0.0
 11
205.3681559690994
 21
202.97949918475459
 31
0.0
  0
LINE
  5
F18A
  8
3
 10
205.32268443649249
 20
202.10189860544449
 30
0.0
 11
205.35451450931731
 21
202.0882571456626
 31
0.0
  0
LINE
  5
F18B
  8
3
 10
205.3272315897533
 20
202.01095554023109
 30
0.0
 11
205.32268443649249
 21
202.10189860544449
 31
0.0
  0
LINE
  5
F18C
  8
3
 10
205.30904297671049
 20
202.96131057171181
 30
0.0
 11
205.34087304953519
 21
202.97040487823321
 31
0.0
  0
LINE
  5
F18D
  8
3
 10
205.38179742888141
 20
202.14737013805129
 30
0.0
 11
205.20900560497569
 21
202.1200872184873
 31
0.0
  0
LINE
  5
F18E
  8
3
 10
205.2499299843218
 20
203.08863086301071
 30
0.0
 11
205.1271568462837
 21
203.056800790186
 31
0.0
  0
LINE
  5
F18F
  8
3
 10
204.91798779629269
 20
203.04315933040399
 30
0.0
 11
204.87706341694661
 21
203.04315933040399
 31
0.0
  0
LINE
  5
F190
  8
3
 10
204.9634593288994
 20
203.04315933040399
 30
0.0
 11
204.91798779629269
 21
203.04315933040399
 31
0.0
  0
LINE
  5
F191
  8
3
 10
205.0043837082454
 20
203.04315933040399
 30
0.0
 11
204.9634593288994
 21
203.04315933040399
 31
0.0
  0
LINE
  5
F192
  8
3
 10
205.04530808759151
 20
203.0477064836646
 30
0.0
 11
205.0043837082454
 21
203.04315933040399
 31
0.0
  0
LINE
  5
F193
  8
3
 10
205.08623246693759
 20
203.0477064836646
 30
0.0
 11
205.04530808759151
 21
203.0477064836646
 31
0.0
  0
LINE
  5
F194
  8
3
 10
205.1271568462837
 20
203.056800790186
 30
0.0
 11
205.08623246693759
 21
203.0477064836646
 31
0.0
  0
LINE
  5
F195
  8
3
 10
204.86796911042521
 20
201.90637101523561
 30
0.0
 11
204.89979918325
 21
201.90637101523561
 31
0.0
  0
LINE
  5
F196
  8
3
 10
204.80430896477569
 20
202.9294804988871
 30
0.0
 11
204.94072356259591
 21
202.93402765214779
 31
0.0
  0
LINE
  5
F197
  8
3
 10
205.03621378107019
 20
202.10189860544449
 30
0.0
 11
204.85887480390389
 21
202.0928042989232
 31
0.0
  0
LINE
  5
F198
  8
3
 10
204.87706341694661
 20
203.04315933040399
 30
0.0
 11
204.8361390376005
 21
203.04315933040399
 31
0.0
  0
LINE
  5
F199
  8
3
 10
205.97747450602961
 20
201.9745783141457
 30
0.0
 11
205.99566311907219
 21
201.96548400762441
 31
0.0
  0
LINE
  5
F19A
  8
3
 10
206.1138891038498
 20
201.7972393369794
 30
0.0
 11
206.12298341037121
 21
201.77905072393679
 31
0.0
  0
LINE
  5
F19B
  8
3
 10
206.10934195058911
 20
201.8154279500221
 30
0.0
 11
206.1138891038498
 21
201.7972393369794
 31
0.0
  0
LINE
  5
F19C
  8
3
 10
206.10024764406771
 20
201.83361656306479
 30
0.0
 11
206.10934195058911
 21
201.8154279500221
 31
0.0
  0
LINE
  5
F19D
  8
3
 10
206.09115333754639
 20
201.85180517610749
 30
0.0
 11
206.10024764406771
 21
201.83361656306479
 31
0.0
  0
LINE
  5
F19E
  8
3
 10
206.08205903102501
 20
201.86999378915019
 30
0.0
 11
206.09115333754639
 21
201.85180517610749
 31
0.0
  0
LINE
  5
F19F
  8
3
 10
206.07296472450369
 20
201.88363524893219
 30
0.0
 11
206.08205903102501
 21
201.86999378915019
 31
0.0
  0
LINE
  5
F1A0
  8
3
 10
206.0638704179824
 20
201.901823861975
 30
0.0
 11
206.07296472450369
 21
201.88363524893219
 31
0.0
  0
LINE
  5
F1A1
  8
3
 10
206.05022895820039
 20
201.91546532175701
 30
0.0
 11
206.0638704179824
 21
201.901823861975
 31
0.0
  0
LINE
  5
F1A2
  8
3
 10
206.0365874984183
 20
201.92910678153899
 30
0.0
 11
206.05022895820039
 21
201.91546532175701
 31
0.0
  0
LINE
  5
F1A3
  8
3
 10
206.02294603863629
 20
201.942748241321
 30
0.0
 11
206.0365874984183
 21
201.92910678153899
 31
0.0
  0
LINE
  5
F1A4
  8
3
 10
206.00930457885431
 20
201.95638970110309
 30
0.0
 11
206.02294603863629
 21
201.942748241321
 31
0.0
  0
LINE
  5
F1A5
  8
3
 10
205.99566311907219
 20
201.96548400762441
 30
0.0
 11
206.00930457885431
 21
201.95638970110309
 31
0.0
  0
LINE
  5
F1A6
  8
3
 10
206.12753056363181
 20
201.74722065111209
 30
0.0
 11
206.1320777168925
 21
201.6653718924199
 31
0.0
  0
LINE
  5
F1A7
  8
3
 10
206.1320777168925
 20
201.6653718924199
 30
0.0
 11
206.1366248701531
 21
201.58352313372779
 31
0.0
  0
LINE
  5
F1A8
  8
3
 10
206.12298341037121
 20
201.77905072393679
 30
0.0
 11
206.12753056363181
 21
201.74722065111209
 31
0.0
  0
LINE
  5
F1A9
  8
3
 10
206.1366248701531
 20
203.4342145108219
 30
0.0
 11
206.1366248701531
 21
202.44293509999511
 31
0.0
  0
LINE
  5
F1AA
  8
3
 10
206.08660618428581
 20
202.39291641412771
 30
0.0
 11
205.9047200538588
 21
202.30652050217489
 31
0.0
  0
LINE
  5
F1AB
  8
3
 10
206.09115333754639
 20
202.39746356738829
 30
0.0
 11
206.08660618428581
 21
202.39291641412771
 31
0.0
  0
LINE
  5
F1AC
  8
3
 10
206.09115333754639
 20
202.402010720649
 30
0.0
 11
206.09115333754639
 21
202.39746356738829
 31
0.0
  0
LINE
  5
F1AD
  8
3
 10
206.09115333754639
 20
202.40655787390969
 30
0.0
 11
206.09115333754639
 21
202.402010720649
 31
0.0
  0
LINE
  5
F1AE
  8
3
 10
206.09115333754639
 20
202.41110502717041
 30
0.0
 11
206.09115333754639
 21
202.40655787390969
 31
0.0
  0
LINE
  5
F1AF
  8
3
 10
206.09570049080699
 20
202.41110502717041
 30
0.0
 11
206.09115333754639
 21
202.41110502717041
 31
0.0
  0
LINE
  5
F1B0
  8
3
 10
206.09570049080699
 20
202.41565218043101
 30
0.0
 11
206.09570049080699
 21
202.41110502717041
 31
0.0
  0
LINE
  5
F1B1
  8
3
 10
206.09570049080699
 20
202.42019933369181
 30
0.0
 11
206.09570049080699
 21
202.41565218043101
 31
0.0
  0
LINE
  5
F1B2
  8
3
 10
206.09570049080699
 20
202.42474648695239
 30
0.0
 11
206.09570049080699
 21
202.42019933369181
 31
0.0
  0
LINE
  5
F1B3
  8
3
 10
206.10479479732851
 20
202.42474648695239
 30
0.0
 11
206.09570049080699
 21
202.42474648695239
 31
0.0
  0
LINE
  5
F1B4
  8
3
 10
206.10934195058911
 20
202.42474648695239
 30
0.0
 11
206.10479479732851
 21
202.42474648695239
 31
0.0
  0
LINE
  5
F1B5
  8
3
 10
206.1138891038498
 20
202.4292936402131
 30
0.0
 11
206.10934195058911
 21
202.42474648695239
 31
0.0
  0
LINE
  5
F1B6
  8
3
 10
206.11843625711049
 20
202.4292936402131
 30
0.0
 11
206.1138891038498
 21
202.4292936402131
 31
0.0
  0
LINE
  5
F1B7
  8
3
 10
206.12298341037121
 20
202.43384079347371
 30
0.0
 11
206.11843625711049
 21
202.4292936402131
 31
0.0
  0
LINE
  5
F1B8
  8
3
 10
206.12753056363181
 20
202.43384079347371
 30
0.0
 11
206.12298341037121
 21
202.43384079347371
 31
0.0
  0
LINE
  5
F1B9
  8
3
 10
206.1320777168925
 20
202.43384079347371
 30
0.0
 11
206.12753056363181
 21
202.43384079347371
 31
0.0
  0
LINE
  5
F1BA
  8
3
 10
206.1366248701531
 20
202.43838794673439
 30
0.0
 11
206.1320777168925
 21
202.43384079347371
 31
0.0
  0
LINE
  5
F1BB
  8
3
 10
206.1366248701531
 20
202.44293509999511
 30
0.0
 11
206.1366248701531
 21
202.43838794673439
 31
0.0
  0
LINE
  5
F1BC
  8
3
 10
205.95928589298691
 20
201.98821977392771
 30
0.0
 11
205.97747450602961
 21
201.9745783141457
 31
0.0
  0
LINE
  5
F1BD
  8
3
 10
205.88198428755541
 20
202.00640838697041
 30
0.0
 11
205.95928589298691
 21
201.98821977392771
 31
0.0
  0
LINE
  5
F1BE
  8
3
 10
205.8410599082093
 20
202.01550269349181
 30
0.0
 11
205.88198428755541
 21
202.00640838697041
 31
0.0
  0
LINE
  5
F1BF
  8
3
 10
205.80013552886339
 20
202.0200498467525
 30
0.0
 11
205.8410599082093
 21
202.01550269349181
 31
0.0
  0
LINE
  5
F1C0
  8
3
 10
206.16845494297789
 20
204.29362647708919
 30
0.0
 11
206.15936063645651
 21
204.2299663314397
 31
0.0
  0
LINE
  5
F1C1
  8
3
 10
206.17300209623849
 20
204.3572866227386
 30
0.0
 11
206.16845494297789
 21
204.29362647708919
 31
0.0
  0
LINE
  5
F1C2
  8
3
 10
206.08660618428581
 20
203.3841958249545
 30
0.0
 11
206.1366248701531
 21
203.4342145108219
 31
0.0
  0
LINE
  5
F1C3
  8
3
 10
206.0593232647216
 20
203.36146005865109
 30
0.0
 11
206.08660618428581
 21
203.3841958249545
 31
0.0
  0
LINE
  5
F1C4
  8
3
 10
206.03204034515761
 20
203.33872429234779
 30
0.0
 11
206.0593232647216
 21
203.36146005865109
 31
0.0
  0
LINE
  5
F1C5
  8
3
 10
206.00930457885431
 20
203.31598852604441
 30
0.0
 11
206.03204034515761
 21
203.33872429234779
 31
0.0
  0
LINE
  5
F1C6
  8
3
 10
205.98202165929021
 20
203.29325275974099
 30
0.0
 11
206.00930457885431
 21
203.31598852604441
 31
0.0
  0
LINE
  5
F1C7
  8
3
 10
205.9547387397262
 20
203.27051699343761
 30
0.0
 11
205.98202165929021
 21
203.29325275974099
 31
0.0
  0
LINE
  5
F1C8
  8
3
 10
205.93200297342281
 20
203.25232838039491
 30
0.0
 11
205.9547387397262
 21
203.27051699343761
 31
0.0
  0
LINE
  5
F1C9
  8
3
 10
205.9047200538588
 20
203.22959261409159
 30
0.0
 11
205.93200297342281
 21
203.25232838039491
 31
0.0
  0
LINE
  5
F1CA
  8
3
 10
205.87743713429469
 20
203.21140400104889
 30
0.0
 11
205.9047200538588
 21
203.22959261409159
 31
0.0
  0
LINE
  5
F1CB
  8
3
 10
205.84560706146999
 20
203.18866823474551
 30
0.0
 11
205.87743713429469
 21
203.21140400104889
 31
0.0
  0
LINE
  5
F1CC
  8
3
 10
205.818324141906
 20
203.17047962170281
 30
0.0
 11
205.84560706146999
 21
203.18866823474551
 31
0.0
  0
LINE
  5
F1CD
  8
3
 10
205.92290866690149
 20
203.5842705684241
 30
0.0
 11
205.88653144081621
 21
203.5297047292961
 31
0.0
  0
LINE
  5
F1CE
  8
3
 10
205.88653144081621
 20
203.5297047292961
 30
0.0
 11
205.85015421473071
 21
203.47968604342859
 31
0.0
  0
LINE
  5
F1CF
  8
3
 10
205.85015421473071
 20
203.47968604342859
 30
0.0
 11
205.80922983538471
 21
203.4342145108219
 31
0.0
  0
LINE
  5
F1D0
  8
3
 10
206.09570049080699
 20
203.907118449932
 30
0.0
 11
206.08660618428581
 21
203.8798355303679
 31
0.0
  0
LINE
  5
F1D1
  8
3
 10
206.10934195058911
 20
203.93440136949599
 30
0.0
 11
206.09570049080699
 21
203.907118449932
 31
0.0
  0
LINE
  5
F1D2
  8
3
 10
206.11843625711049
 20
203.96168428906
 30
0.0
 11
206.10934195058911
 21
203.93440136949599
 31
0.0
  0
LINE
  5
F1D3
  8
3
 10
206.12298341037121
 20
203.99351436188479
 30
0.0
 11
206.11843625711049
 21
203.96168428906
 31
0.0
  0
LINE
  5
F1D4
  8
3
 10
206.14117202341379
 20
204.11174034666229
 30
0.0
 11
206.12298341037121
 21
203.99351436188479
 31
0.0
  0
LINE
  5
F1D5
  8
3
 10
206.15026632993519
 20
204.17085333905101
 30
0.0
 11
206.14117202341379
 21
204.11174034666229
 31
0.0
  0
LINE
  5
F1D6
  8
3
 10
206.07751187776441
 20
203.8525526108038
 30
0.0
 11
206.0638704179824
 21
203.82526969123981
 31
0.0
  0
LINE
  5
F1D7
  8
3
 10
205.9547387397262
 20
203.6297421010309
 30
0.0
 11
205.92290866690149
 21
203.5842705684241
 31
0.0
  0
LINE
  5
F1D8
  8
3
 10
205.97292735276889
 20
203.65247786733431
 30
0.0
 11
205.9547387397262
 21
203.6297421010309
 31
0.0
  0
LINE
  5
F1D9
  8
3
 10
205.98656881255079
 20
203.6797607868983
 30
0.0
 11
205.97292735276889
 21
203.65247786733431
 31
0.0
  0
LINE
  5
F1DA
  8
3
 10
206.00021027233291
 20
203.7024965532016
 30
0.0
 11
205.98656881255079
 21
203.6797607868983
 31
0.0
  0
LINE
  5
F1DB
  8
3
 10
206.013851732115
 20
203.72523231950501
 30
0.0
 11
206.00021027233291
 21
203.7024965532016
 31
0.0
  0
LINE
  5
F1DC
  8
3
 10
206.02749319189701
 20
203.75251523906911
 30
0.0
 11
206.013851732115
 21
203.72523231950501
 31
0.0
  0
LINE
  5
F1DD
  8
3
 10
206.04113465167899
 20
203.7752510053725
 30
0.0
 11
206.02749319189701
 21
203.75251523906911
 31
0.0
  0
LINE
  5
F1DE
  8
3
 10
206.054776111461
 20
203.80253392493651
 30
0.0
 11
206.04113465167899
 21
203.7752510053725
 31
0.0
  0
LINE
  5
F1DF
  8
3
 10
206.0638704179824
 20
203.82526969123981
 30
0.0
 11
206.054776111461
 21
203.80253392493651
 31
0.0
  0
LINE
  5
F1E0
  8
3
 10
206.08660618428581
 20
203.8798355303679
 30
0.0
 11
206.07751187776441
 21
203.8525526108038
 31
0.0
  0
LINE
  5
F1E1
  8
3
 10
206.15936063645651
 20
204.2299663314397
 30
0.0
 11
206.15026632993519
 21
204.17085333905101
 31
0.0
  0
LINE
  5
F1E2
  8
3
 10
205.17262837889029
 20
205.02571815205769
 30
0.0
 11
205.17717553215101
 21
203.98442005536339
 31
0.0
  0
LINE
  5
F1E3
  8
3
 10
204.6224228343489
 20
204.01625012818809
 30
0.0
 11
204.6224228343489
 21
205.01662384553629
 31
0.0
  0
LINE
  5
F1E4
  8
3
 10
204.4268952441399
 20
204.43004107490941
 30
0.0
 11
204.43598955066119
 21
204.3572866227386
 31
0.0
  0
LINE
  5
F1E5
  8
3
 10
205.42726896148801
 20
204.39366384882399
 30
0.0
 11
205.43636326800939
 21
204.47551260751609
 31
0.0
  0
LINE
  5
F1E6
  8
3
 10
206.17754924949921
 20
204.4163996151274
 30
0.0
 11
206.17300209623849
 21
204.3572866227386
 31
0.0
  0
LINE
  5
F1E7
  8
3
 10
203.66297349634669
 20
205.0939254509677
 30
0.0
 11
203.71299218221409
 21
205.0984726042285
 31
0.0
  0
LINE
  5
F1E8
  8
3
 10
203.75846371482089
 20
205.10301975748911
 30
0.0
 11
203.80393524742769
 21
205.10301975748911
 31
0.0
  0
LINE
  5
F1E9
  8
3
 10
203.71299218221409
 20
205.0984726042285
 30
0.0
 11
203.75846371482089
 21
205.10301975748911
 31
0.0
  0
LINE
  5
F1EA
  8
3
 10
203.78119948112419
 20
205.73052690746201
 30
0.0
 11
203.75846371482089
 21
205.77599844006869
 31
0.0
  0
LINE
  5
F1EB
  8
3
 10
203.6720678028681
 20
206.42624135634509
 30
0.0
 11
203.6720678028681
 21
206.45807142916979
 31
0.0
  0
LINE
  5
F1EC
  8
3
 10
203.6720678028681
 20
206.39441128352041
 30
0.0
 11
203.6720678028681
 21
206.42624135634509
 31
0.0
  0
LINE
  5
F1ED
  8
3
 10
203.6720678028681
 20
206.3671283639564
 30
0.0
 11
203.6720678028681
 21
206.39441128352041
 31
0.0
  0
LINE
  5
F1EE
  8
3
 10
203.6720678028681
 20
206.45807142916979
 30
0.0
 11
203.6720678028681
 21
206.5217315748192
 31
0.0
  0
LINE
  5
F1EF
  8
3
 10
203.6720678028681
 20
206.3034682183069
 30
0.0
 11
203.6720678028681
 21
206.33529829113161
 31
0.0
  0
LINE
  5
F1F0
  8
3
 10
203.6720678028681
 20
206.2716381454822
 30
0.0
 11
203.6720678028681
 21
206.3034682183069
 31
0.0
  0
LINE
  5
F1F1
  8
3
 10
203.6720678028681
 20
206.2443552259181
 30
0.0
 11
203.6720678028681
 21
206.2716381454822
 31
0.0
  0
LINE
  5
F1F2
  8
3
 10
203.6720678028681
 20
206.21252515309351
 30
0.0
 11
203.6720678028681
 21
206.2443552259181
 31
0.0
  0
LINE
  5
F1F3
  8
3
 10
203.6720678028681
 20
206.18069508026869
 30
0.0
 11
203.6720678028681
 21
206.21252515309351
 31
0.0
  0
LINE
  5
F1F4
  8
3
 10
203.6720678028681
 20
206.14886500744399
 30
0.0
 11
203.6720678028681
 21
206.18069508026869
 31
0.0
  0
LINE
  5
F1F5
  8
3
 10
203.6720678028681
 20
206.11703493461931
 30
0.0
 11
203.6720678028681
 21
206.14886500744399
 31
0.0
  0
LINE
  5
F1F6
  8
3
 10
203.6720678028681
 20
206.33529829113161
 30
0.0
 11
203.6720678028681
 21
206.3671283639564
 31
0.0
  0
LINE
  5
F1F7
  8
3
 10
203.69935072243209
 20
205.92150734441029
 30
0.0
 11
203.6720678028681
 21
206.0260918694058
 31
0.0
  0
LINE
  5
F1F8
  8
3
 10
203.71299218221409
 20
205.871488658543
 30
0.0
 11
203.69935072243209
 21
205.92150734441029
 31
0.0
  0
LINE
  5
F1F9
  8
3
 10
203.73572794851759
 20
205.82146997267549
 30
0.0
 11
203.71299218221409
 21
205.871488658543
 31
0.0
  0
LINE
  5
F1FA
  8
3
 10
203.75846371482089
 20
205.77599844006869
 30
0.0
 11
203.73572794851759
 21
205.82146997267549
 31
0.0
  0
LINE
  5
F1FB
  8
3
 10
203.6720678028681
 20
206.0533747889699
 30
0.0
 11
203.6720678028681
 21
206.08520486179461
 31
0.0
  0
LINE
  5
F1FC
  8
3
 10
203.6720678028681
 20
206.0260918694058
 30
0.0
 11
203.6720678028681
 21
206.0533747889699
 31
0.0
  0
LINE
  5
F1FD
  8
3
 10
203.6720678028681
 20
206.08520486179461
 30
0.0
 11
203.6720678028681
 21
206.11703493461931
 31
0.0
  0
LINE
  5
F1FE
  8
3
 10
203.80848240068829
 20
205.68960252811601
 30
0.0
 11
203.78119948112419
 21
205.73052690746201
 31
0.0
  0
LINE
  5
F1FF
  8
3
 10
203.68570926265011
 20
207.17197449109551
 30
0.0
 11
203.68570926265011
 21
207.2083517171809
 31
0.0
  0
LINE
  5
F200
  8
3
 10
203.7675580213423
 20
207.9904620780168
 30
0.0
 11
203.79938809416689
 21
208.06776368344819
 31
0.0
  0
LINE
  5
F201
  8
3
 10
203.74027510177811
 20
207.9086133193247
 30
0.0
 11
203.7675580213423
 21
207.9904620780168
 31
0.0
  0
LINE
  5
F202
  8
3
 10
203.71753933547481
 20
207.82676456063251
 30
0.0
 11
203.74027510177811
 21
207.9086133193247
 31
0.0
  0
LINE
  5
F203
  8
3
 10
203.69935072243209
 20
207.74036864867969
 30
0.0
 11
203.71753933547481
 21
207.82676456063251
 31
0.0
  0
LINE
  5
F204
  8
3
 10
203.67661495612879
 20
207.56302967151339
 30
0.0
 11
203.68570926265011
 21
207.6539727367269
 31
0.0
  0
LINE
  5
F205
  8
3
 10
203.68570926265011
 20
207.6539727367269
 30
0.0
 11
203.69935072243209
 21
207.74036864867969
 31
0.0
  0
LINE
  5
F206
  8
3
 10
203.6811621093895
 20
207.39933215412921
 30
0.0
 11
203.6720678028681
 21
207.47663375956071
 31
0.0
  0
LINE
  5
F207
  8
3
 10
203.68570926265011
 20
207.36295492804379
 30
0.0
 11
203.6811621093895
 21
207.39933215412921
 31
0.0
  0
LINE
  5
F208
  8
3
 10
203.68570926265011
 20
207.2447289432663
 30
0.0
 11
203.68570926265011
 21
207.2856533226124
 31
0.0
  0
LINE
  5
F209
  8
3
 10
203.68570926265011
 20
207.2856533226124
 30
0.0
 11
203.68570926265011
 21
207.32203054869771
 31
0.0
  0
LINE
  5
F20A
  8
3
 10
203.68570926265011
 20
207.32203054869771
 30
0.0
 11
203.68570926265011
 21
207.36295492804379
 31
0.0
  0
LINE
  5
F20B
  8
3
 10
203.6720678028681
 20
207.47663375956071
 30
0.0
 11
203.67661495612879
 21
207.56302967151339
 31
0.0
  0
LINE
  5
F20C
  8
3
 10
203.68570926265011
 20
207.2083517171809
 30
0.0
 11
203.68570926265011
 21
207.2447289432663
 31
0.0
  0
LINE
  5
F20D
  8
3
 10
203.68570926265011
 20
207.13105011174949
 30
0.0
 11
203.68570926265011
 21
207.17197449109551
 31
0.0
  0
LINE
  5
F20E
  8
3
 10
203.68570926265011
 20
207.09467288566401
 30
0.0
 11
203.68570926265011
 21
207.13105011174949
 31
0.0
  0
LINE
  5
F20F
  8
3
 10
203.6902564159108
 20
207.0582956595787
 30
0.0
 11
203.68570926265011
 21
207.09467288566401
 31
0.0
  0
LINE
  5
F210
  8
3
 10
203.6902564159108
 20
206.9809940541472
 30
0.0
 11
203.6902564159108
 21
207.0173712802326
 31
0.0
  0
LINE
  5
F211
  8
3
 10
203.6948035691714
 20
206.94461682806181
 30
0.0
 11
203.6902564159108
 21
206.9809940541472
 31
0.0
  0
LINE
  5
F212
  8
3
 10
203.6902564159108
 20
207.0173712802326
 30
0.0
 11
203.6902564159108
 21
207.0582956595787
 31
0.0
  0
LINE
  5
F213
  8
3
 10
203.70389787569269
 20
206.87186237589111
 30
0.0
 11
203.69935072243209
 21
206.9082396019765
 31
0.0
  0
LINE
  5
F214
  8
3
 10
203.69935072243209
 20
206.9082396019765
 30
0.0
 11
203.6948035691714
 21
206.94461682806181
 31
0.0
  0
LINE
  5
F215
  8
3
 10
203.3765028409243
 20
202.91583903910521
 30
0.0
 11
203.56293612461189
 21
202.91583903910521
 31
0.0
  0
LINE
  5
F216
  8
3
 10
203.76301086808149
 20
202.1132664885962
 30
0.0
 11
202.8576929278131
 21
202.0985540579226
 31
0.0
  0
LINE
  5
F217
  8
3
 10
202.8576929278131
 20
202.91129188584441
 30
0.0
 11
203.01229613867599
 21
202.91129188584441
 31
0.0
  0
LINE
  5
F218
  8
3
 10
203.20371101701869
 20
202.91583903910521
 30
0.0
 11
203.3765028409243
 21
202.91583903910521
 31
0.0
  0
LINE
  5
F219
  8
3
 10
203.01229613867599
 20
202.91129188584441
 30
0.0
 11
203.20371101701869
 21
202.91583903910521
 31
0.0
  0
LINE
  5
F21A
  8
3
 10
202.8576929278131
 20
202.91129188584441
 30
0.0
 11
202.8576929278131
 21
202.0985540579226
 31
0.0
  0
LINE
  5
F21B
  8
3
 10
203.603860503958
 20
201.1424492674424
 30
0.0
 11
203.59931335069729
 21
201.98367262066699
 31
0.0
  0
LINE
  5
F21C
  8
3
 10
203.76301086808149
 20
200.578602263119
 30
0.0
 11
203.7539165615602
 21
200.59224372290089
 31
0.0
  0
LINE
  5
F21D
  8
3
 10
203.7766523278635
 20
200.55131934355489
 30
0.0
 11
203.7721051746029
 21
200.5649608033369
 31
0.0
  0
LINE
  5
F21E
  8
3
 10
203.79484094090631
 20
200.5149421174695
 30
0.0
 11
203.7766523278635
 21
200.55131934355489
 31
0.0
  0
LINE
  5
F21F
  8
3
 10
203.80848240068829
 20
200.50130065768741
 30
0.0
 11
203.79484094090631
 21
200.5149421174695
 31
0.0
  0
LINE
  5
F220
  8
3
 10
203.7721051746029
 20
200.5649608033369
 30
0.0
 11
203.76301086808149
 21
200.578602263119
 31
0.0
  0
LINE
  5
F221
  8
3
 10
203.63114342352199
 20
200.9196387576695
 30
0.0
 11
203.62659627026139
 21
200.9423745239728
 31
0.0
  0
LINE
  5
F222
  8
3
 10
203.63569057678271
 20
200.8923558381054
 30
0.0
 11
203.63114342352199
 21
200.9196387576695
 31
0.0
  0
LINE
  5
F223
  8
3
 10
203.6402377300434
 20
200.86962007180199
 30
0.0
 11
203.63569057678271
 21
200.8923558381054
 31
0.0
  0
LINE
  5
F224
  8
3
 10
203.64478488330411
 20
200.84688430549869
 30
0.0
 11
203.6402377300434
 21
200.86962007180199
 31
0.0
  0
LINE
  5
F225
  8
3
 10
203.64933203656469
 20
200.82414853919531
 30
0.0
 11
203.64478488330411
 21
200.84688430549869
 31
0.0
  0
LINE
  5
F226
  8
3
 10
203.6538791898254
 20
200.80141277289189
 30
0.0
 11
203.64933203656469
 21
200.82414853919531
 31
0.0
  0
LINE
  5
F227
  8
3
 10
203.65842634308609
 20
200.77867700658859
 30
0.0
 11
203.6538791898254
 21
200.80141277289189
 31
0.0
  0
LINE
  5
F228
  8
3
 10
203.67661495612879
 20
200.75139408702461
 30
0.0
 11
203.65842634308609
 21
200.77867700658859
 31
0.0
  0
LINE
  5
F229
  8
3
 10
203.68570926265011
 20
200.73775262724249
 30
0.0
 11
203.67661495612879
 21
200.75139408702461
 31
0.0
  0
LINE
  5
F22A
  8
3
 10
203.6948035691714
 20
200.72411116746051
 30
0.0
 11
203.68570926265011
 21
200.73775262724249
 31
0.0
  0
LINE
  5
F22B
  8
3
 10
203.69935072243209
 20
200.71046970767841
 30
0.0
 11
203.6948035691714
 21
200.72411116746051
 31
0.0
  0
LINE
  5
F22C
  8
3
 10
203.70844502895349
 20
200.69682824789649
 30
0.0
 11
203.69935072243209
 21
200.71046970767841
 31
0.0
  0
LINE
  5
F22D
  8
3
 10
203.71299218221409
 20
200.67863963485371
 30
0.0
 11
203.70844502895349
 21
200.69682824789649
 31
0.0
  0
LINE
  5
F22E
  8
3
 10
203.71753933547481
 20
200.6649981750717
 30
0.0
 11
203.71299218221409
 21
200.67863963485371
 31
0.0
  0
LINE
  5
F22F
  8
3
 10
203.7311807952569
 20
200.63771525550769
 30
0.0
 11
203.7266336419961
 21
200.65135671528969
 31
0.0
  0
LINE
  5
F230
  8
3
 10
203.74027510177811
 20
200.62407379572571
 30
0.0
 11
203.7311807952569
 21
200.63771525550769
 31
0.0
  0
LINE
  5
F231
  8
3
 10
203.74482225503891
 20
200.60588518268301
 30
0.0
 11
203.74027510177811
 21
200.62407379572571
 31
0.0
  0
LINE
  5
F232
  8
3
 10
203.7539165615602
 20
200.59224372290089
 30
0.0
 11
203.74482225503891
 21
200.60588518268301
 31
0.0
  0
LINE
  5
F233
  8
3
 10
203.7266336419961
 20
200.65135671528969
 30
0.0
 11
203.71753933547481
 21
200.6649981750717
 31
0.0
  0
LINE
  5
F234
  8
3
 10
203.603860503958
 20
201.1424492674424
 30
0.0
 11
203.603860503958
 21
201.1424492674424
 31
0.0
  0
LINE
  5
F235
  8
3
 10
203.60840765721869
 20
201.07424196853239
 30
0.0
 11
203.60840765721869
 21
201.09697773483569
 31
0.0
  0
LINE
  5
F236
  8
3
 10
203.61295481047929
 20
201.05150620222889
 30
0.0
 11
203.60840765721869
 21
201.07424196853239
 31
0.0
  0
LINE
  5
F237
  8
3
 10
203.61750196374001
 20
201.03331758918631
 30
0.0
 11
203.61295481047929
 21
201.05150620222889
 31
0.0
  0
LINE
  5
F238
  8
3
 10
203.61750196374001
 20
201.0105818228829
 30
0.0
 11
203.61750196374001
 21
201.03331758918631
 31
0.0
  0
LINE
  5
F239
  8
3
 10
203.6220491170007
 20
200.98784605657951
 30
0.0
 11
203.61750196374001
 21
201.0105818228829
 31
0.0
  0
LINE
  5
F23A
  8
3
 10
203.62659627026139
 20
200.96511029027619
 30
0.0
 11
203.6220491170007
 21
200.98784605657951
 31
0.0
  0
LINE
  5
F23B
  8
3
 10
203.62659627026139
 20
200.9423745239728
 30
0.0
 11
203.62659627026139
 21
200.96511029027619
 31
0.0
  0
LINE
  5
F23C
  8
3
 10
203.60840765721869
 20
201.09697773483569
 30
0.0
 11
203.603860503958
 21
201.1424492674424
 31
0.0
  0
LINE
  5
F23D
  8
3
 10
203.67661495612879
 20
204.1754004923117
 30
0.0
 11
203.67661495612879
 21
204.17994764557241
 31
0.0
  0
LINE
  5
F23E
  8
3
 10
203.6720678028681
 20
204.14811757274771
 30
0.0
 11
203.67661495612879
 21
204.15266472600831
 31
0.0
  0
LINE
  5
F23F
  8
3
 10
203.70389787569269
 20
204.01170297492749
 30
0.0
 11
203.6720678028681
 21
204.14811757274771
 31
0.0
  0
LINE
  5
F240
  8
3
 10
203.67661495612879
 20
204.16630618579029
 30
0.0
 11
203.67661495612879
 21
204.1754004923117
 31
0.0
  0
LINE
  5
F241
  8
3
 10
203.67661495612879
 20
204.16175903252969
 30
0.0
 11
203.67661495612879
 21
204.16630618579029
 31
0.0
  0
LINE
  5
F242
  8
3
 10
203.67661495612879
 20
204.157211879269
 30
0.0
 11
203.67661495612879
 21
204.16175903252969
 31
0.0
  0
LINE
  5
F243
  8
3
 10
203.67661495612879
 20
204.15266472600831
 30
0.0
 11
203.67661495612879
 21
204.157211879269
 31
0.0
  0
LINE
  5
F244
  8
3
 10
203.7220864887355
 20
203.94804282927799
 30
0.0
 11
203.70389787569269
 21
204.01170297492749
 31
0.0
  0
LINE
  5
F245
  8
3
 10
203.74027510177811
 20
203.88438268362859
 30
0.0
 11
203.7220864887355
 21
203.94804282927799
 31
0.0
  0
LINE
  5
F246
  8
3
 10
203.78574663438499
 20
203.7616095455904
 30
0.0
 11
203.76301086808149
 21
203.82072253797921
 31
0.0
  0
LINE
  5
F247
  8
3
 10
203.76301086808149
 20
203.82072253797921
 30
0.0
 11
203.74027510177811
 21
203.88438268362859
 31
0.0
  0
LINE
  5
F248
  8
3
 10
203.67661495612879
 20
204.18449479883299
 30
0.0
 11
203.6720678028681
 21
204.1890419520937
 31
0.0
  0
LINE
  5
F249
  8
3
 10
203.67661495612879
 20
204.17994764557241
 30
0.0
 11
203.67661495612879
 21
204.18449479883299
 31
0.0
  0
LINE
  5
F24A
  8
3
 10
203.6720678028681
 20
204.19813625861511
 30
0.0
 11
203.6675206496075
 21
204.19813625861511
 31
0.0
  0
LINE
  5
F24B
  8
3
 10
203.6720678028681
 20
204.19358910535431
 30
0.0
 11
203.6720678028681
 21
204.19813625861511
 31
0.0
  0
LINE
  5
F24C
  8
3
 10
203.6720678028681
 20
204.1890419520937
 30
0.0
 11
203.6720678028681
 21
204.19358910535431
 31
0.0
  0
LINE
  5
F24D
  8
3
 10
203.6675206496075
 20
204.19813625861511
 30
0.0
 11
203.6675206496075
 21
204.20268341187571
 31
0.0
  0
LINE
  5
F24E
  8
3
 10
203.56293612461189
 20
202.91583903910521
 30
0.0
 11
203.7493694082996
 21
202.92038619236581
 31
0.0
  0
LINE
  5
F24F
  8
3
 10
203.66297349634669
 20
204.22087202491841
 30
0.0
 11
203.66297349634669
 21
204.22087202491841
 31
0.0
  0
LINE
  5
F250
  8
3
 10
203.6675206496075
 20
204.21177771839709
 30
0.0
 11
203.66297349634669
 21
204.22087202491841
 31
0.0
  0
LINE
  5
F251
  8
3
 10
203.6675206496075
 20
204.2072305651364
 30
0.0
 11
203.6675206496075
 21
204.21177771839709
 31
0.0
  0
LINE
  5
F252
  8
3
 10
203.6675206496075
 20
204.20268341187571
 30
0.0
 11
203.6675206496075
 21
204.2072305651364
 31
0.0
  0
LINE
  5
F253
  8
3
 10
203.66297349634669
 20
204.22087202491841
 30
0.0
 11
203.66297349634669
 21
205.0939254509677
 31
0.0
  0
CIRCLE
  5
F254
  8
0
 10
204.9066209131409
 20
204.46187214773411
 30
0.0
 40
6.25
  0
LINE
  5
F255
  8
3
 10
203.81757670720961
 20
200.4831120446448
 30
0.0
 11
203.80848240068829
 21
200.50130065768741
 31
0.0
  0
LINE
  5
F256
  8
3
 10
203.81302955394889
 20
203.7024965532016
 30
0.0
 11
203.78574663438499
 21
203.7616095455904
 31
0.0
  0
LINE
  5
F257
  8
3
 10
203.7493694082996
 20
202.92038619236581
 30
0.0
 11
203.94034984524779
 21
202.92038619236581
 31
0.0
  0
LINE
  5
F258
  8
3
 10
203.59931335069729
 20
201.98367262066699
 30
0.0
 11
204.38597086479379
 21
201.9745783141457
 31
0.0
  0
LINE
  5
F259
  8
3
 10
203.87668969959839
 20
202.11099291196589
 30
0.0
 11
203.76301086808161
 21
202.1132664885962
 31
0.0
  0
LINE
  5
F25A
  8
3
 10
203.80393524742769
 20
205.10301975748911
 30
0.0
 11
203.853953933295
 21
205.1075669107498
 31
0.0
  0
LINE
  5
F25B
  8
3
 10
203.85850108655569
 20
206.6990705519855
 30
0.0
 11
203.70389787569269
 21
206.87186237589111
 31
0.0
  0
LINE
  5
F25C
  8
3
 10
203.6720678028681
 20
206.5217315748192
 30
0.0
 11
204.46327247022529
 21
206.5217315748192
 31
0.0
  0
LINE
  5
F25D
  8
3
 10
203.84031247351299
 20
205.6486781487699
 30
0.0
 11
203.80848240068829
 21
205.68960252811601
 31
0.0
  0
LINE
  5
F25E
  8
3
 10
203.79938809416689
 20
208.06776368344819
 30
0.0
 11
203.83121816699159
 21
208.14506528887969
 31
0.0
  0
CIRCLE
  5
F25F
  8
3
 10
203.85023835669031
 20
208.83383522289529
 30
0.0
 40
0.1823323512662302
  0
CIRCLE
  5
F260
  8
0
 10
204.9066204131409
 20
178.6857488970696
 30
0.0
 40
6.25
  0
LINE
  5
F261
  8
1
 10
198.00662191314089
 20
191.73574964706961
 30
0.0
 11
211.80662191314099
 21
191.73574964706961
 31
0.0
  0
LINE
  5
F262
  8
0
 10
195.55662041314091
 20
185.13375064706969
 30
0.0
 11
195.55662041314091
 21
194.3037486470696
 31
0.0
  0
CIRCLE
  5
F263
  8
0
 10
204.90662191314101
 20
191.73575064706949
 30
0.0
 40
6.0
  0
CIRCLE
  5
F264
  8
0
 10
204.90662191314101
 20
191.73575064706949
 30
0.0
 40
5.0
  0
CIRCLE
  5
F265
  8
0
 10
204.90662191314101
 20
191.73575064706949
 30
0.0
 40
2.5
  0
LINE
  5
F266
  8
1
 10
204.90662091314101
 20
184.83574764706961
 30
0.0
 11
204.90662091314101
 21
198.63575064706961
 31
0.0
  0
ARC
  5
F267
  8
0
 10
211.55662041314091
 20
211.6357496470697
 30
0.0
 40
1.0
 50
0.0
 51
90.0
  0
LINE
  5
F268
  8
0
 10
178.05662041314091
 20
216.2357496470697
 30
0.0
 11
188.05662041314091
 21
216.2357496470697
 31
0.0
  0
ARC
  5
F269
  8
0
 10
193.55662041314091
 20
211.6357496470697
 30
0.0
 40
1.0
 50
90.0
 51
180.0
  0
ARC
  5
F26A
  8
0
 10
189.55662041314091
 20
203.9697496470697
 30
0.0
 40
0.5
 50
270.0
 51
0.0
  0
ARC
  5
F26B
  8
0
 10
189.55662041314091
 20
193.8037486470696
 30
0.0
 40
0.5
 50
0.0
 51
90.0
  0
LINE
  5
F26C
  8
0
 10
190.05662041314091
 20
203.9697496470697
 30
0.0
 11
190.05662041314091
 21
214.2357496470697
 31
0.0
  0
LINE
  5
F26D
  8
0
 10
192.55662041314091
 20
203.4697496470697
 30
0.0
 11
192.55662041314091
 21
211.6357496470697
 31
0.0
  0
ARC
  5
F26E
  8
0
 10
189.55662041314091
 20
185.6377486470696
 30
0.0
 40
0.5
 50
270.0
 51
0.0
  0
ARC
  5
F26F
  8
0
 10
189.55662041314091
 20
175.46775064706969
 30
0.0
 40
0.5
 50
0.0
 51
90.0
  0
LINE
  5
F270
  8
0
 10
190.05662041314091
 20
193.8037486470696
 30
0.0
 11
190.05662041314091
 21
185.6377486470696
 31
0.0
  0
LINE
  5
F271
  8
0
 10
192.55662041314091
 20
185.13375064706969
 30
0.0
 11
192.55662041314091
 21
194.3037486470696
 31
0.0
  0
LINE
  5
F272
  8
0
 10
176.05662041314091
 20
212.6357496470697
 30
0.0
 11
176.05662041314091
 21
214.2357496470697
 31
0.0
  0
ARC
  5
F273
  8
0
 10
176.55662041314091
 20
194.8037486470696
 30
0.0
 40
0.5
 50
180.0
 51
270.0
  0
LINE
  5
F274
  8
0
 10
176.05662041314091
 20
202.9697496470697
 30
0.0
 11
176.05662041314091
 21
194.8037486470696
 31
0.0
  0
LINE
  5
F275
  8
0
 10
173.55662041314091
 20
203.4697496470697
 30
0.0
 11
173.55662041314091
 21
194.3037486470696
 31
0.0
  0
ARC
  5
F276
  8
0
 10
176.55662041314091
 20
202.9697496470697
 30
0.0
 40
0.5
 50
90.0
 51
180.0
  0
LINE
  5
F277
  8
0
 10
170.55662041314091
 20
203.4697496470697
 30
0.0
 11
170.55662041314091
 21
194.3037486470696
 31
0.0
  0
ARC
  5
F279
  8
0
 10
176.55662041314091
 20
184.6337506470696
 30
0.0
 40
0.5
 50
90.0
 51
180.0
  0
ARC
  5
F27A
  8
0
 10
176.55662041314091
 20
176.46775064706969
 30
0.0
 40
0.5
 50
180.0
 51
270.0
  0
LINE
  5
F27B
  8
0
 10
176.05662041314091
 20
176.46775064706969
 30
0.0
 11
176.05662041314091
 21
184.6337506470696
 31
0.0
  0
LINE
  5
F27C
  8
0
 10
173.55662041314091
 20
185.13375064706969
 30
0.0
 11
173.55662041314091
 21
175.96775064706969
 31
0.0
  0
LINE
  5
F27D
  8
0
 10
170.55662041314091
 20
185.13375064706969
 30
0.0
 11
170.55662041314091
 21
175.96775064706969
 31
0.0
  0
LINE
  5
F27F
  8
0
 10
192.55662041314091
 20
203.4697496470697
 30
0.0
 11
170.55662041314091
 21
203.4697496470697
 31
0.0
  0
ARC
  5
F280
  8
0
 10
188.05662041314091
 20
214.2357496470697
 30
0.0
 40
2.0
 50
0.0
 51
90.0
  0
ARC
  5
F281
  8
0
 10
178.05662041314091
 20
214.2357496470697
 30
0.0
 40
2.0
 50
90.0
 51
180.0
  0
LINE
  5
F282
  8
0
 10
195.55662041314091
 20
194.3037486470696
 30
0.0
 11
170.55662041314091
 21
194.3037486470696
 31
0.0
  0
LINE
  5
F283
  8
0
 10
195.55662041314091
 20
185.1377486470696
 30
0.0
 11
170.55662041314091
 21
185.1377486470696
 31
0.0
  0
LINE
  5
F284
  8
0
 10
170.55662041314091
 20
175.96775064706969
 30
0.0
 11
195.55662041314091
 21
175.96775064706969
 31
0.0
  0
LINE
  5
F285
  8
0
 10
195.55662041314091
 20
185.13375064706969
 30
0.0
 11
170.55662041314091
 21
185.13375064706969
 31
0.0
  0
LINE
  5
F286
  8
0
 10
193.55662041314091
 20
212.6357496470697
 30
0.0
 11
211.55662041314091
 21
212.6357496470697
 31
0.0
  0
CIRCLE
  5
F287
  8
0
 10
204.9066209131409
 20
165.63575014706959
 30
0.0
 40
2.5
  0
LINE
  5
F288
  8
1
 10
198.00662091314089
 20
165.63574914706959
 30
0.0
 11
211.8066209131409
 21
165.63574914706959
 31
0.0
  0
ARC
  5
F289
  8
0
 10
211.55662041314091
 20
158.6357496470697
 30
0.0
 40
1.0
 50
270.0
 51
0.0
  0
ARC
  5
F28A
  8
0
 10
189.55662041314091
 20
167.30174964706961
 30
0.0
 40
0.5
 50
270.0
 51
0.0
  0
LINE
  5
F28B
  8
0
 10
190.05662041314091
 20
157.6357496470697
 30
0.0
 11
190.05662041314091
 21
156.03574964706971
 31
0.0
  0
ARC
  5
F28C
  8
0
 10
188.05662041314091
 20
156.03574964706971
 30
0.0
 40
2.0
 50
270.0
 51
0.0
  0
LINE
  5
F28D
  8
0
 10
178.05662041314091
 20
154.03574964706959
 30
0.0
 11
188.05662041314091
 21
154.03574964706959
 31
0.0
  0
ARC
  5
F28E
  8
0
 10
176.55662041314091
 20
166.30174964706961
 30
0.0
 40
0.5
 50
90.0
 51
180.0
  0
LINE
  5
F28F
  8
0
 10
176.05662041314091
 20
157.6357496470697
 30
0.0
 11
176.05662041314091
 21
156.03574964706971
 31
0.0
  0
ARC
  5
F290
  8
0
 10
172.55662041314091
 20
158.6357496470697
 30
0.0
 40
1.0
 50
270.0
 51
0.0
  0
LINE
  5
F291
  8
0
 10
176.05662041314091
 20
166.30174964706961
 30
0.0
 11
176.05662041314091
 21
157.6357496470697
 31
0.0
  0
LINE
  5
F292
  8
0
 10
173.55662041314091
 20
166.80174964706961
 30
0.0
 11
173.55662041314091
 21
158.6357496470697
 31
0.0
  0
LINE
  5
F293
  8
3
 10
161.61813628323259
 20
163.36671609845121
 30
0.0
 11
161.64087204953589
 21
163.53041361583541
 31
0.0
  0
LINE
  5
F294
  8
3
 10
161.25891117563941
 20
163.53950792235679
 30
0.0
 11
161.29983555498549
 21
163.51677215605349
 31
0.0
  0
LINE
  5
F295
  8
3
 10
161.7181736549675
 20
163.52586646257481
 30
0.0
 11
161.75455088105281
 21
163.5122250027928
 31
0.0
  0
LINE
  5
F296
  8
3
 10
161.61813628323259
 20
163.28032018649839
 30
0.0
 11
161.61813628323259
 21
163.36671609845121
 31
0.0
  0
LINE
  5
F297
  8
3
 10
162.25473773972689
 20
163.39854617127591
 30
0.0
 11
162.40934095058989
 21
163.2257543473703
 31
0.0
  0
LINE
  5
F298
  8
3
 10
161.45443876584841
 20
163.38945186475459
 30
0.0
 11
161.4680802256303
 21
162.2208334767615
 31
0.0
  0
LINE
  5
F299
  8
3
 10
161.83185248648431
 20
163.49403638975011
 30
0.0
 11
161.8727768658303
 21
163.4849420832287
 31
0.0
  0
LINE
  5
F29A
  8
3
 10
161.44989161258769
 20
163.39399901801519
 30
0.0
 11
161.45443876584841
 21
163.38945186475459
 31
0.0
  0
LINE
  5
F29B
  8
3
 10
161.44989161258769
 20
163.39854617127591
 30
0.0
 11
161.44989161258769
 21
163.39399901801519
 31
0.0
  0
LINE
  5
F29C
  8
3
 10
161.44989161258769
 20
163.4030933245366
 30
0.0
 11
161.44989161258769
 21
163.39854617127591
 31
0.0
  0
LINE
  5
F29D
  8
3
 10
161.44534445932709
 20
163.40764047779729
 30
0.0
 11
161.44989161258769
 21
163.4030933245366
 31
0.0
  0
LINE
  5
F29E
  8
3
 10
161.44534445932709
 20
163.412187631058
 30
0.0
 11
161.44534445932709
 21
163.40764047779729
 31
0.0
  0
LINE
  5
F29F
  8
3
 10
161.44534445932709
 20
163.41673478431861
 30
0.0
 11
161.44534445932709
 21
163.412187631058
 31
0.0
  0
LINE
  5
F2A0
  8
3
 10
161.44079730606629
 20
163.41673478431861
 30
0.0
 11
161.44534445932709
 21
163.41673478431861
 31
0.0
  0
LINE
  5
F2A1
  8
3
 10
161.44079730606629
 20
163.42128193757929
 30
0.0
 11
161.44079730606629
 21
163.41673478431861
 31
0.0
  0
LINE
  5
F2A2
  8
3
 10
161.3725900071563
 20
163.47584777670741
 30
0.0
 11
161.44079730606629
 21
163.42128193757929
 31
0.0
  0
LINE
  5
F2A3
  8
3
 10
161.3362127810708
 20
163.4985835430108
 30
0.0
 11
161.3725900071563
 21
163.47584777670741
 31
0.0
  0
LINE
  5
F2A4
  8
3
 10
161.29983555498549
 20
163.51677215605349
 30
0.0
 11
161.3362127810708
 21
163.4985835430108
 31
0.0
  0
LINE
  5
F2A5
  8
3
 10
161.79547526039889
 20
163.5031306962714
 30
0.0
 11
161.83185248648431
 21
163.49403638975011
 31
0.0
  0
LINE
  5
F2A6
  8
3
 10
161.75455088105281
 20
163.5122250027928
 30
0.0
 11
161.79547526039889
 21
163.5031306962714
 31
0.0
  0
LINE
  5
F2A7
  8
3
 10
161.8727768658303
 20
163.4849420832287
 30
0.0
 11
161.9091540919157
 21
163.4803949299681
 31
0.0
  0
LINE
  5
F2A8
  8
3
 10
162.18198328755611
 20
163.4303762441007
 30
0.0
 11
162.25473773972689
 21
163.39854617127591
 31
0.0
  0
LINE
  5
F2A9
  8
3
 10
162.1456060614708
 20
163.44401770388271
 30
0.0
 11
162.18198328755611
 21
163.4303762441007
 31
0.0
  0
LINE
  5
F2AA
  8
3
 10
162.10468168212469
 20
163.453112010404
 30
0.0
 11
162.1456060614708
 21
163.44401770388271
 31
0.0
  0
LINE
  5
F2AB
  8
3
 10
162.0683044560393
 20
163.45765916366469
 30
0.0
 11
162.10468168212469
 21
163.453112010404
 31
0.0
  0
LINE
  5
F2AC
  8
3
 10
162.02738007669319
 20
163.4622063169254
 30
0.0
 11
162.0683044560393
 21
163.45765916366469
 31
0.0
  0
LINE
  5
F2AD
  8
3
 10
161.9910028506078
 20
163.47130062344669
 30
0.0
 11
162.02738007669319
 21
163.4622063169254
 31
0.0
  0
LINE
  5
F2AE
  8
3
 10
161.95007847126169
 20
163.47584777670741
 30
0.0
 11
161.9910028506078
 21
163.47130062344669
 31
0.0
  0
LINE
  5
F2AF
  8
3
 10
161.9091540919157
 20
163.4803949299681
 30
0.0
 11
161.95007847126169
 21
163.47584777670741
 31
0.0
  0
LINE
  5
F2B0
  8
3
 10
162.4275295636325
 20
162.9256422321659
 30
0.0
 11
162.4275295636325
 21
162.88926500608051
 31
0.0
  0
LINE
  5
F2B1
  8
3
 10
161.5408346778012
 20
162.28904077567159
 30
0.0
 11
161.57721190388651
 21
162.35724807458169
 31
0.0
  0
LINE
  5
F2B2
  8
3
 10
161.49991029845509
 20
162.21628632350081
 30
0.0
 11
161.5408346778012
 21
162.28904077567159
 31
0.0
  0
LINE
  5
F2B3
  8
3
 10
161.4908159919338
 20
162.2208334767615
 30
0.0
 11
161.49991029845509
 21
162.21628632350081
 31
0.0
  0
LINE
  5
F2B4
  8
3
 10
161.48626883867311
 20
162.2208334767615
 30
0.0
 11
161.4908159919338
 21
162.2208334767615
 31
0.0
  0
LINE
  5
F2B5
  8
3
 10
161.4817216854124
 20
162.2208334767615
 30
0.0
 11
161.48626883867311
 21
162.2208334767615
 31
0.0
  0
LINE
  5
F2B6
  8
3
 10
161.47717453215179
 20
162.2208334767615
 30
0.0
 11
161.4817216854124
 21
162.2208334767615
 31
0.0
  0
LINE
  5
F2B7
  8
3
 10
161.4726273788911
 20
162.2208334767615
 30
0.0
 11
161.47717453215179
 21
162.2208334767615
 31
0.0
  0
LINE
  5
F2B8
  8
3
 10
161.4680802256303
 20
162.2208334767615
 30
0.0
 11
161.4726273788911
 21
162.2208334767615
 31
0.0
  0
LINE
  5
F2B9
  8
3
 10
161.60449482345061
 20
162.43454968001311
 30
0.0
 11
161.6226834364933
 21
162.51185128544461
 31
0.0
  0
LINE
  5
F2BA
  8
3
 10
161.57721190388651
 20
162.35724807458169
 30
0.0
 11
161.60449482345061
 21
162.43454968001311
 31
0.0
  0
LINE
  5
F2BB
  8
3
 10
162.100134528864
 20
161.68426939200211
 30
0.0
 11
162.04556868973589
 21
161.6251563996133
 31
0.0
  0
LINE
  5
F2BC
  8
3
 10
162.28202065929099
 20
161.9525514343818
 30
0.0
 11
162.24109627994491
 21
161.87979698221099
 31
0.0
  0
LINE
  5
F2BD
  8
3
 10
162.1501532147314
 20
161.7433823843908
 30
0.0
 11
162.100134528864
 21
161.68426939200211
 31
0.0
  0
LINE
  5
F2BE
  8
3
 10
162.1956247473382
 20
161.81158968330089
 30
0.0
 11
162.1501532147314
 21
161.7433823843908
 31
0.0
  0
LINE
  5
F2BF
  8
3
 10
162.24109627994491
 20
161.87979698221099
 30
0.0
 11
162.1956247473382
 21
161.81158968330089
 31
0.0
  0
LINE
  5
F2C0
  8
3
 10
162.3456808049404
 20
162.10715464524469
 30
0.0
 11
162.3138507321157
 21
162.02985303981319
 31
0.0
  0
LINE
  5
F2C1
  8
3
 10
162.37296372450439
 20
162.18900340393679
 30
0.0
 11
162.3456808049404
 21
162.10715464524469
 31
0.0
  0
LINE
  5
F2C2
  8
3
 10
162.3956994908078
 20
162.2708521626289
 30
0.0
 11
162.37296372450439
 21
162.18900340393679
 31
0.0
  0
LINE
  5
F2C3
  8
3
 10
162.4138881038505
 20
162.35724807458169
 30
0.0
 11
162.3956994908078
 21
162.2708521626289
 31
0.0
  0
LINE
  5
F2C4
  8
3
 10
162.3138507321157
 20
162.02985303981319
 30
0.0
 11
162.28202065929099
 21
161.9525514343818
 31
0.0
  0
LINE
  5
F2C5
  8
3
 10
162.04556868973589
 20
161.6251563996133
 30
0.0
 11
161.98645569734711
 21
161.57059056048519
 31
0.0
  0
LINE
  5
F2C6
  8
3
 10
162.4366238701538
 20
162.53458705174791
 30
0.0
 11
162.4275295636325
 21
162.44364398653451
 31
0.0
  0
LINE
  5
F2C7
  8
3
 10
162.4275295636325
 20
162.44364398653451
 30
0.0
 11
162.4138881038505
 21
162.35724807458169
 31
0.0
  0
LINE
  5
F2C8
  8
3
 10
161.6317777430146
 20
162.5937000441368
 30
0.0
 11
161.6363248962754
 21
162.6755488028289
 31
0.0
  0
LINE
  5
F2C9
  8
3
 10
162.43207671689311
 20
162.6982845691322
 30
0.0
 11
162.44117102341451
 21
162.62098296370081
 31
0.0
  0
LINE
  5
F2CA
  8
3
 10
162.4275295636325
 20
162.73466179521759
 30
0.0
 11
162.43207671689311
 21
162.6982845691322
 31
0.0
  0
LINE
  5
F2CB
  8
3
 10
162.4275295636325
 20
162.85288777999509
 30
0.0
 11
162.4275295636325
 21
162.81196340064901
 31
0.0
  0
LINE
  5
F2CC
  8
3
 10
161.6363248962754
 20
162.76194471478169
 30
0.0
 11
161.6363248962754
 21
162.8483406267344
 31
0.0
  0
LINE
  5
F2CD
  8
3
 10
162.4275295636325
 20
162.81196340064901
 30
0.0
 11
162.4275295636325
 21
162.7755861745637
 31
0.0
  0
LINE
  5
F2CE
  8
3
 10
161.6363248962754
 20
162.6755488028289
 30
0.0
 11
161.6363248962754
 21
162.76194471478169
 31
0.0
  0
LINE
  5
F2CF
  8
3
 10
162.4275295636325
 20
162.7755861745637
 30
0.0
 11
162.4275295636325
 21
162.73466179521759
 31
0.0
  0
LINE
  5
F2D0
  8
3
 10
161.6226834364933
 20
162.51185128544461
 30
0.0
 11
161.6317777430146
 21
162.5937000441368
 31
0.0
  0
LINE
  5
F2D1
  8
3
 10
162.44117102341451
 20
162.62098296370081
 30
0.0
 11
162.4366238701538
 21
162.53458705174791
 31
0.0
  0
LINE
  5
F2D2
  8
3
 10
161.52719321801919
 20
161.30685567136609
 30
0.0
 11
161.40896723324161
 21
161.27957275180211
 31
0.0
  0
LINE
  5
F2D3
  8
3
 10
161.86368255930901
 20
161.47510034201099
 30
0.0
 11
161.75455088105281
 21
161.40234588984029
 31
0.0
  0
LINE
  5
F2D4
  8
3
 10
161.75455088105281
 20
161.40234588984029
 30
0.0
 11
161.64541920279669
 21
161.3477800507122
 31
0.0
  0
LINE
  5
F2D5
  8
3
 10
161.64541920279669
 20
161.3477800507122
 30
0.0
 11
161.52719321801919
 21
161.30685567136609
 31
0.0
  0
LINE
  5
F2D6
  8
3
 10
161.40896723324161
 20
161.27957275180211
 30
0.0
 11
161.28164694194291
 21
161.26138413875941
 31
0.0
  0
CIRCLE
  5
F2D7
  8
3
 10
162.26300046959241
 20
161.26378150036621
 30
0.0
 40
0.1823323512662302
  0
LINE
  5
F2D8
  8
3
 10
161.98645569734711
 20
161.57059056048519
 30
0.0
 11
161.86368255930901
 21
161.47510034201099
 31
0.0
  0
LINE
  5
F2D9
  8
3
 10
161.6363248962754
 20
162.8483406267344
 30
0.0
 11
161.6317777430146
 21
162.9347365386873
 31
0.0
  0
LINE
  5
F2DA
  8
3
 10
162.4275295636325
 20
162.88926500608051
 30
0.0
 11
162.4275295636325
 21
162.85288777999509
 31
0.0
  0
LINE
  5
F2DB
  8
3
 10
161.6317777430146
 20
162.9347365386873
 30
0.0
 11
161.62723058975399
 21
163.02113245064001
 31
0.0
  0
LINE
  5
F2DC
  8
3
 10
162.4275295636325
 20
162.96656661151189
 30
0.0
 11
162.4275295636325
 21
162.9256422321659
 31
0.0
  0
LINE
  5
F2DD
  8
3
 10
162.4275295636325
 20
163.0029438375974
 30
0.0
 11
162.4275295636325
 21
162.96656661151189
 31
0.0
  0
LINE
  5
F2DE
  8
3
 10
162.42298241037179
 20
163.03932106368271
 30
0.0
 11
162.4275295636325
 21
163.0029438375974
 31
0.0
  0
LINE
  5
F2DF
  8
3
 10
162.42298241037179
 20
163.11662266911421
 30
0.0
 11
162.42298241037179
 21
163.08024544302879
 31
0.0
  0
LINE
  5
F2E0
  8
3
 10
162.41843525711121
 20
163.1529998951996
 30
0.0
 11
162.42298241037179
 21
163.11662266911421
 31
0.0
  0
LINE
  5
F2E1
  8
3
 10
161.62723058975399
 20
163.02113245064001
 30
0.0
 11
161.6226834364933
 21
163.1075283625928
 31
0.0
  0
LINE
  5
F2E2
  8
3
 10
162.42298241037179
 20
163.08024544302879
 30
0.0
 11
162.42298241037179
 21
163.03932106368271
 31
0.0
  0
LINE
  5
F2E3
  8
3
 10
161.61813628323259
 20
163.19392427454571
 30
0.0
 11
161.61813628323259
 21
163.28032018649839
 31
0.0
  0
LINE
  5
F2E4
  8
3
 10
162.40934095058989
 20
163.2257543473703
 30
0.0
 11
162.4138881038505
 21
163.18937712128491
 31
0.0
  0
LINE
  5
F2E5
  8
3
 10
161.6226834364933
 20
163.1075283625928
 30
0.0
 11
161.61813628323259
 21
163.19392427454571
 31
0.0
  0
LINE
  5
F2E6
  8
3
 10
162.4138881038505
 20
163.18937712128491
 30
0.0
 11
162.41843525711121
 21
163.1529998951996
 31
0.0
  0
LINE
  5
F2E7
  8
3
 10
160.77236577674739
 20
161.25228983223801
 30
0.0
 11
160.64504548544861
 21
161.25228983223801
 31
0.0
  0
LINE
  5
F2E8
  8
3
 10
160.51772519414959
 20
161.24774267897729
 30
0.0
 11
160.3904049028508
 21
161.238648372456
 31
0.0
  0
LINE
  5
F2E9
  8
3
 10
160.64504548544861
 20
161.25228983223801
 30
0.0
 11
160.51772519414959
 21
161.24774267897729
 31
0.0
  0
LINE
  5
F2EA
  8
3
 10
161.1588738039047
 20
161.25228983223801
 30
0.0
 11
161.03155351260571
 21
161.25228983223801
 31
0.0
  0
LINE
  5
F2EB
  8
3
 10
161.03155351260571
 20
161.25228983223801
 30
0.0
 11
160.89968606804621
 21
161.25228983223801
 31
0.0
  0
LINE
  5
F2EC
  8
3
 10
160.89968606804621
 20
161.25228983223801
 30
0.0
 11
160.77236577674739
 21
161.25228983223801
 31
0.0
  0
LINE
  5
F2ED
  8
3
 10
161.28164694194291
 20
161.26138413875941
 30
0.0
 11
161.1588738039047
 21
161.25228983223801
 31
0.0
  0
LINE
  5
F2EE
  8
3
 10
162.55030270167069
 20
167.18177768415629
 30
0.0
 11
162.3638694179831
 21
167.1772305308956
 31
0.0
  0
LINE
  5
F2EF
  8
3
 10
162.35022795820109
 20
167.9843502346651
 30
0.0
 11
163.25554589846939
 21
167.99906266533881
 31
0.0
  0
LINE
  5
F2F0
  8
3
 10
161.6363248962754
 20
166.99079724720801
 30
0.0
 11
161.64996635605729
 21
166.98170294068669
 31
0.0
  0
LINE
  5
F2F1
  8
3
 10
160.4313292821968
 20
166.9953444004687
 30
0.0
 11
160.39495205611149
 21
166.98170294068669
 31
0.0
  0
LINE
  5
F2F2
  8
3
 10
160.74508285718329
 20
166.96806148090471
 30
0.0
 11
160.8041958495721
 21
166.99079724720801
 31
0.0
  0
LINE
  5
F2F3
  8
3
 10
162.02283292343259
 20
164.68993769730719
 30
0.0
 11
162.0637573027785
 21
164.66265477774311
 31
0.0
  0
LINE
  5
F2F4
  8
3
 10
161.97736139082579
 20
164.72631492339261
 30
0.0
 11
161.97736139082579
 21
164.72176777013189
 31
0.0
  0
LINE
  5
F2F5
  8
3
 10
161.9728142375651
 20
164.72631492339261
 30
0.0
 11
161.97736139082579
 21
164.72631492339261
 31
0.0
  0
LINE
  5
F2F6
  8
3
 10
161.9682670843045
 20
164.7308620766533
 30
0.0
 11
161.9728142375651
 21
164.72631492339261
 31
0.0
  0
LINE
  5
F2F7
  8
3
 10
161.96371993104381
 20
164.7308620766533
 30
0.0
 11
161.9682670843045
 21
164.7308620766533
 31
0.0
  0
LINE
  5
F2F8
  8
3
 10
161.95917277778321
 20
164.7308620766533
 30
0.0
 11
161.96371993104381
 21
164.7308620766533
 31
0.0
  0
LINE
  5
F2F9
  8
3
 10
161.95462562452241
 20
164.7308620766533
 30
0.0
 11
161.95917277778321
 21
164.7308620766533
 31
0.0
  0
LINE
  5
F2FA
  8
3
 10
161.95007847126169
 20
164.7308620766533
 30
0.0
 11
161.95462562452241
 21
164.7308620766533
 31
0.0
  0
LINE
  5
F2FB
  8
3
 10
161.94553131800109
 20
164.7354092299139
 30
0.0
 11
161.95007847126169
 21
164.7308620766533
 31
0.0
  0
LINE
  5
F2FC
  8
3
 10
161.94098416474051
 20
164.7354092299139
 30
0.0
 11
161.94553131800109
 21
164.7354092299139
 31
0.0
  0
LINE
  5
F2FD
  8
3
 10
161.93643701147971
 20
164.7354092299139
 30
0.0
 11
161.94098416474051
 21
164.7354092299139
 31
0.0
  0
LINE
  5
F2FE
  8
3
 10
161.93188985821911
 20
164.7354092299139
 30
0.0
 11
161.93643701147971
 21
164.7354092299139
 31
0.0
  0
LINE
  5
F2FF
  8
3
 10
161.92734270495839
 20
164.7354092299139
 30
0.0
 11
161.93188985821911
 21
164.7354092299139
 31
0.0
  0
LINE
  5
F300
  8
3
 10
161.92279555169779
 20
164.7354092299139
 30
0.0
 11
161.92734270495839
 21
164.7354092299139
 31
0.0
  0
LINE
  5
F301
  8
3
 10
161.9000597853944
 20
164.74905068969599
 30
0.0
 11
161.92279555169779
 21
164.7354092299139
 31
0.0
  0
LINE
  5
F302
  8
3
 10
161.88187117235171
 20
164.75814499621731
 30
0.0
 11
161.8909654788732
 21
164.75359784295659
 31
0.0
  0
LINE
  5
F303
  8
3
 10
161.8909654788732
 20
164.75359784295659
 30
0.0
 11
161.9000597853944
 21
164.74905068969599
 31
0.0
  0
LINE
  5
F304
  8
3
 10
161.88187117235171
 20
164.99914411903299
 30
0.0
 11
161.83639963974491
 21
164.9945969657723
 31
0.0
  0
LINE
  5
F305
  8
3
 10
161.83185248648431
 20
164.77178645599929
 30
0.0
 11
161.84549394626629
 21
164.76723930273869
 31
0.0
  0
LINE
  5
F306
  8
3
 10
161.68634358214271
 20
165.0628042646824
 30
0.0
 11
161.681796428882
 21
165.1401058701139
 31
0.0
  0
LINE
  5
F307
  8
3
 10
161.29983555498549
 20
165.07644572446441
 30
0.0
 11
161.2680054821607
 21
165.0718985712038
 31
0.0
  0
LINE
  5
F308
  8
3
 10
161.3316656278102
 20
165.07644572446441
 30
0.0
 11
161.29983555498549
 21
165.07644572446441
 31
0.0
  0
LINE
  5
F309
  8
3
 10
161.36804285389559
 20
165.07644572446441
 30
0.0
 11
161.3316656278102
 21
165.07644572446441
 31
0.0
  0
LINE
  5
F30A
  8
3
 10
161.40442007998101
 20
165.08099287772521
 30
0.0
 11
161.36804285389559
 21
165.07644572446441
 31
0.0
  0
LINE
  5
F30B
  8
3
 10
161.44534445932709
 20
165.08099287772521
 30
0.0
 11
161.40442007998101
 21
165.08099287772521
 31
0.0
  0
LINE
  5
F30C
  8
3
 10
161.4908159919338
 20
165.08099287772521
 30
0.0
 11
161.44534445932709
 21
165.08099287772521
 31
0.0
  0
LINE
  5
F30D
  8
3
 10
161.695437888664
 20
164.98550265925101
 30
0.0
 11
161.68634358214271
 21
165.0628042646824
 31
0.0
  0
LINE
  5
F30E
  8
3
 10
161.78638095387751
 20
164.9945969657723
 30
0.0
 11
161.695437888664
 21
164.98550265925101
 31
0.0
  0
LINE
  5
F30F
  8
3
 10
161.83639963974491
 20
164.9945969657723
 30
0.0
 11
161.78638095387751
 21
164.9945969657723
 31
0.0
  0
LINE
  5
F310
  8
3
 10
161.8182110267023
 20
164.77178645599929
 30
0.0
 11
161.83185248648431
 21
164.77178645599929
 31
0.0
  0
LINE
  5
F311
  8
3
 10
161.8091167201809
 20
164.77633360926001
 30
0.0
 11
161.8182110267023
 21
164.77178645599929
 31
0.0
  0
LINE
  5
F312
  8
3
 10
161.79547526039889
 20
164.7808807625207
 30
0.0
 11
161.8091167201809
 21
164.77633360926001
 31
0.0
  0
LINE
  5
F313
  8
3
 10
161.78183380061691
 20
164.7808807625207
 30
0.0
 11
161.79547526039889
 21
164.7808807625207
 31
0.0
  0
LINE
  5
F314
  8
3
 10
161.76819234083479
 20
164.78542791578141
 30
0.0
 11
161.78183380061691
 21
164.7808807625207
 31
0.0
  0
LINE
  5
F315
  8
3
 10
161.75455088105281
 20
164.78997506904199
 30
0.0
 11
161.76819234083479
 21
164.78542791578141
 31
0.0
  0
LINE
  5
F316
  8
3
 10
161.7409094212708
 20
164.7945222223027
 30
0.0
 11
161.75455088105281
 21
164.78997506904199
 31
0.0
  0
LINE
  5
F317
  8
3
 10
161.72726796148879
 20
164.79906937556339
 30
0.0
 11
161.7409094212708
 21
164.7945222223027
 31
0.0
  0
LINE
  5
F318
  8
3
 10
161.62723058975399
 20
164.81725798860609
 30
0.0
 11
161.72726796148879
 21
164.79906937556339
 31
0.0
  0
LINE
  5
F319
  8
3
 10
161.57721190388651
 20
164.81725798860609
 30
0.0
 11
161.62723058975399
 21
164.81725798860609
 31
0.0
  0
LINE
  5
F31A
  8
3
 10
161.52719321801919
 20
164.81725798860609
 30
0.0
 11
161.57721190388651
 21
164.81725798860609
 31
0.0
  0
LINE
  5
F31B
  8
3
 10
161.47717453215179
 20
164.8127108353454
 30
0.0
 11
161.52719321801919
 21
164.81725798860609
 31
0.0
  0
LINE
  5
F31C
  8
3
 10
161.42715584628431
 20
164.80816368208471
 30
0.0
 11
161.47717453215179
 21
164.8127108353454
 31
0.0
  0
LINE
  5
F31D
  8
3
 10
161.37713716041691
 20
164.79906937556339
 30
0.0
 11
161.42715584628431
 21
164.80816368208471
 31
0.0
  0
LINE
  5
F31E
  8
3
 10
161.32711847454951
 20
164.78997506904199
 30
0.0
 11
161.37713716041691
 21
164.79906937556339
 31
0.0
  0
LINE
  5
F31F
  8
3
 10
161.28164694194291
 20
164.77633360926001
 30
0.0
 11
161.32711847454951
 21
164.78997506904199
 31
0.0
  0
LINE
  5
F320
  8
3
 10
161.8682297125697
 20
164.762692149478
 30
0.0
 11
161.88187117235171
 21
164.75814499621731
 31
0.0
  0
LINE
  5
F321
  8
3
 10
161.85913540604821
 20
164.76723930273869
 30
0.0
 11
161.8682297125697
 21
164.762692149478
 31
0.0
  0
LINE
  5
F322
  8
3
 10
161.84549394626629
 20
164.76723930273869
 30
0.0
 11
161.85913540604821
 21
164.76723930273869
 31
0.0
  0
LINE
  5
F323
  8
3
 10
162.450265329936
 20
165.00369127229371
 30
0.0
 11
162.40024664406849
 21
164.99914411903299
 31
0.0
  0
LINE
  5
F324
  8
3
 10
161.97736139082579
 20
164.9945969657723
 30
0.0
 11
161.93188985821911
 21
164.9945969657723
 31
0.0
  0
LINE
  5
F325
  8
3
 10
162.02738007669319
 20
164.9945969657723
 30
0.0
 11
161.97736139082579
 21
164.9945969657723
 31
0.0
  0
LINE
  5
F326
  8
3
 10
162.0728516092999
 20
164.9945969657723
 30
0.0
 11
162.02738007669319
 21
164.9945969657723
 31
0.0
  0
LINE
  5
F327
  8
3
 10
162.11832314190681
 20
164.9900498125117
 30
0.0
 11
162.0728516092999
 21
164.9945969657723
 31
0.0
  0
LINE
  5
F328
  8
3
 10
162.1683418277741
 20
164.9900498125117
 30
0.0
 11
162.11832314190681
 21
164.9900498125117
 31
0.0
  0
LINE
  5
F329
  8
3
 10
162.21381336038081
 20
164.9900498125117
 30
0.0
 11
162.1683418277741
 21
164.9900498125117
 31
0.0
  0
LINE
  5
F32A
  8
3
 10
162.25928489298749
 20
164.9900498125117
 30
0.0
 11
162.21381336038081
 21
164.9900498125117
 31
0.0
  0
LINE
  5
F32B
  8
3
 10
162.30930357885501
 20
164.9945969657723
 30
0.0
 11
162.25928489298749
 21
164.9900498125117
 31
0.0
  0
LINE
  5
F32C
  8
3
 10
162.35477511146181
 20
164.9945969657723
 30
0.0
 11
162.30930357885501
 21
164.9945969657723
 31
0.0
  0
LINE
  5
F32D
  8
3
 10
162.40024664406849
 20
164.99914411903299
 30
0.0
 11
162.35477511146181
 21
164.9945969657723
 31
0.0
  0
LINE
  5
F32E
  8
3
 10
161.93188985821911
 20
164.9945969657723
 30
0.0
 11
161.88187117235171
 21
164.99914411903299
 31
0.0
  0
LINE
  5
F32F
  8
3
 10
161.98645569734711
 20
164.7172206168712
 30
0.0
 11
162.02283292343259
 21
164.68993769730719
 31
0.0
  0
LINE
  5
F330
  8
3
 10
161.97736139082579
 20
164.72176777013189
 30
0.0
 11
161.98645569734711
 21
164.7172206168712
 31
0.0
  0
LINE
  5
F331
  8
3
 10
162.33203934515839
 20
164.3670898157994
 30
0.0
 11
162.35477511146181
 21
164.32161828319269
 31
0.0
  0
LINE
  5
F332
  8
3
 10
162.44117102341451
 20
163.57588514844221
 30
0.0
 11
161.64996635605729
 21
163.57588514844221
 31
0.0
  0
LINE
  5
F333
  8
3
 10
161.6317777430146
 20
163.61680952778829
 30
0.0
 11
161.6317777430146
 21
163.65318675387371
 31
0.0
  0
LINE
  5
F334
  8
3
 10
161.6317777430146
 20
163.68501682669839
 30
0.0
 11
161.6317777430146
 21
163.71684689952309
 31
0.0
  0
LINE
  5
F335
  8
3
 10
161.6317777430146
 20
163.65318675387371
 30
0.0
 11
161.6317777430146
 21
163.68501682669839
 31
0.0
  0
LINE
  5
F336
  8
3
 10
161.6363248962754
 20
163.57588514844221
 30
0.0
 11
161.6317777430146
 21
163.61680952778829
 31
0.0
  0
LINE
  5
F337
  8
3
 10
161.64087204953589
 20
163.53041361583541
 30
0.0
 11
161.6363248962754
 21
163.57588514844221
 31
0.0
  0
LINE
  5
F338
  8
3
 10
161.681796428882
 20
163.54405507561751
 30
0.0
 11
161.7181736549675
 21
163.52586646257481
 31
0.0
  0
LINE
  5
F339
  8
3
 10
161.64996635605729
 20
163.5622436886602
 30
0.0
 11
161.681796428882
 21
163.54405507561751
 31
0.0
  0
LINE
  5
F33A
  8
3
 10
161.64541920279669
 20
163.57133799518149
 30
0.0
 11
161.64996635605729
 21
163.5622436886602
 31
0.0
  0
LINE
  5
F33B
  8
3
 10
161.64541920279669
 20
163.57588514844221
 30
0.0
 11
161.64541920279669
 21
163.57133799518149
 31
0.0
  0
LINE
  5
F33C
  8
3
 10
161.64996635605729
 20
163.57588514844221
 30
0.0
 11
161.64541920279669
 21
163.57588514844221
 31
0.0
  0
LINE
  5
F33D
  8
3
 10
161.30438270824621
 20
163.8759972636467
 30
0.0
 11
161.24981686911801
 21
163.85326149734331
 31
0.0
  0
LINE
  5
F33E
  8
3
 10
161.32711847454951
 20
163.89873302994999
 30
0.0
 11
161.30438270824621
 21
163.8759972636467
 31
0.0
  0
LINE
  5
F33F
  8
3
 10
161.3362127810708
 20
163.9078273364714
 30
0.0
 11
161.32711847454951
 21
163.89873302994999
 31
0.0
  0
LINE
  5
F340
  8
3
 10
161.34985424085289
 20
163.91237448973209
 30
0.0
 11
161.3362127810708
 21
163.9078273364714
 31
0.0
  0
LINE
  5
F341
  8
3
 10
161.36349570063501
 20
163.92146879625341
 30
0.0
 11
161.34985424085289
 21
163.91237448973209
 31
0.0
  0
LINE
  5
F342
  8
3
 10
161.3725900071563
 20
163.93056310277481
 30
0.0
 11
161.36349570063501
 21
163.92146879625341
 31
0.0
  0
LINE
  5
F343
  8
3
 10
161.38623146693831
 20
163.9396574092961
 30
0.0
 11
161.3725900071563
 21
163.93056310277481
 31
0.0
  0
LINE
  5
F344
  8
3
 10
161.39987292672041
 20
163.94875171581751
 30
0.0
 11
161.38623146693831
 21
163.9396574092961
 31
0.0
  0
LINE
  5
F345
  8
3
 10
161.40896723324161
 20
163.9578460223388
 30
0.0
 11
161.39987292672041
 21
163.94875171581751
 31
0.0
  0
LINE
  5
F346
  8
3
 10
161.42260869302359
 20
163.96694032886009
 30
0.0
 11
161.40896723324161
 21
163.9578460223388
 31
0.0
  0
LINE
  5
F347
  8
3
 10
161.431702999545
 20
163.9760346353815
 30
0.0
 11
161.42260869302359
 21
163.96694032886009
 31
0.0
  0
LINE
  5
F348
  8
3
 10
161.6363248962754
 20
163.91237448973209
 30
0.0
 11
161.6317777430146
 21
163.93511025603539
 31
0.0
  0
LINE
  5
F349
  8
3
 10
161.6363248962754
 20
163.8896387234287
 30
0.0
 11
161.6363248962754
 21
163.91237448973209
 31
0.0
  0
LINE
  5
F34A
  8
3
 10
161.6363248962754
 20
163.86690295712529
 30
0.0
 11
161.6363248962754
 21
163.8896387234287
 31
0.0
  0
LINE
  5
F34B
  8
3
 10
161.6363248962754
 20
163.84416719082191
 30
0.0
 11
161.6363248962754
 21
163.86690295712529
 31
0.0
  0
LINE
  5
F34C
  8
3
 10
161.6363248962754
 20
163.82143142451861
 30
0.0
 11
161.6363248962754
 21
163.84416719082191
 31
0.0
  0
LINE
  5
F34D
  8
3
 10
161.6363248962754
 20
163.79414850495459
 30
0.0
 11
161.6363248962754
 21
163.82143142451861
 31
0.0
  0
LINE
  5
F34E
  8
3
 10
161.6363248962754
 20
163.77141273865121
 30
0.0
 11
161.6363248962754
 21
163.79414850495459
 31
0.0
  0
LINE
  5
F34F
  8
3
 10
161.6317777430146
 20
163.74412981908711
 30
0.0
 11
161.6363248962754
 21
163.77141273865121
 31
0.0
  0
LINE
  5
F350
  8
3
 10
161.6317777430146
 20
163.71684689952309
 30
0.0
 11
161.6317777430146
 21
163.74412981908711
 31
0.0
  0
LINE
  5
F351
  8
3
 10
161.45443876584841
 20
163.9896760951635
 30
0.0
 11
161.44534445932709
 21
163.98512894190279
 31
0.0
  0
LINE
  5
F352
  8
3
 10
161.4635330723697
 20
163.99877040168479
 30
0.0
 11
161.45443876584841
 21
163.9896760951635
 31
0.0
  0
LINE
  5
F353
  8
3
 10
161.4726273788911
 20
164.0078647082062
 30
0.0
 11
161.4635330723697
 21
163.99877040168479
 31
0.0
  0
LINE
  5
F354
  8
3
 10
161.48626883867311
 20
164.01695901472749
 30
0.0
 11
161.4726273788911
 21
164.0078647082062
 31
0.0
  0
LINE
  5
F355
  8
3
 10
161.50445745171569
 20
164.0260533212489
 30
0.0
 11
161.48626883867311
 21
164.01695901472749
 31
0.0
  0
LINE
  5
F356
  8
3
 10
161.5135517582371
 20
164.0260533212489
 30
0.0
 11
161.50445745171569
 21
164.0260533212489
 31
0.0
  0
LINE
  5
F357
  8
3
 10
161.52264606475839
 20
164.03060047450961
 30
0.0
 11
161.5135517582371
 21
164.0260533212489
 31
0.0
  0
LINE
  5
F358
  8
3
 10
161.53628752454051
 20
164.03060047450961
 30
0.0
 11
161.52264606475839
 21
164.03060047450961
 31
0.0
  0
LINE
  5
F359
  8
3
 10
161.5453818310618
 20
164.03060047450961
 30
0.0
 11
161.53628752454051
 21
164.03060047450961
 31
0.0
  0
LINE
  5
F35A
  8
3
 10
161.55447613758321
 20
164.0260533212489
 30
0.0
 11
161.5453818310618
 21
164.03060047450961
 31
0.0
  0
LINE
  5
F35B
  8
3
 10
161.56357044410461
 20
164.0260533212489
 30
0.0
 11
161.55447613758321
 21
164.0260533212489
 31
0.0
  0
LINE
  5
F35C
  8
3
 10
161.5726647506259
 20
164.02150616798821
 30
0.0
 11
161.56357044410461
 21
164.0260533212489
 31
0.0
  0
LINE
  5
F35D
  8
3
 10
161.58175905714731
 20
164.02150616798821
 30
0.0
 11
161.5726647506259
 21
164.02150616798821
 31
0.0
  0
LINE
  5
F35E
  8
3
 10
161.5908533636686
 20
164.01695901472749
 30
0.0
 11
161.58175905714731
 21
164.02150616798821
 31
0.0
  0
LINE
  5
F35F
  8
3
 10
161.59994767018989
 20
164.01241186146689
 30
0.0
 11
161.5908533636686
 21
164.01695901472749
 31
0.0
  0
LINE
  5
F360
  8
3
 10
161.60904197671121
 20
164.0078647082062
 30
0.0
 11
161.59994767018989
 21
164.01241186146689
 31
0.0
  0
LINE
  5
F361
  8
3
 10
161.6135891299719
 20
163.99877040168479
 30
0.0
 11
161.60904197671121
 21
164.0078647082062
 31
0.0
  0
LINE
  5
F362
  8
3
 10
161.61813628323259
 20
163.99422324842419
 30
0.0
 11
161.6135891299719
 21
163.99877040168479
 31
0.0
  0
LINE
  5
F363
  8
3
 10
161.62723058975399
 20
163.98512894190279
 30
0.0
 11
161.61813628323259
 21
163.99422324842419
 31
0.0
  0
LINE
  5
F364
  8
3
 10
161.44534445932709
 20
163.98512894190279
 30
0.0
 11
161.431702999545
 21
163.9760346353815
 31
0.0
  0
LINE
  5
F365
  8
3
 10
161.6317777430146
 20
163.93511025603539
 30
0.0
 11
161.62723058975399
 21
163.98512894190279
 31
0.0
  0
LINE
  5
F366
  8
3
 10
162.44117102341451
 20
163.67137536691641
 30
0.0
 11
162.44117102341451
 21
163.63954529409159
 31
0.0
  0
LINE
  5
F367
  8
3
 10
162.44117102341451
 20
163.703205439741
 30
0.0
 11
162.44117102341451
 21
163.67137536691641
 31
0.0
  0
LINE
  5
F368
  8
3
 10
162.44117102341451
 20
163.7304883593051
 30
0.0
 11
162.44117102341451
 21
163.703205439741
 31
0.0
  0
LINE
  5
F369
  8
3
 10
162.44117102341451
 20
163.63954529409159
 30
0.0
 11
162.44117102341451
 21
163.57588514844221
 31
0.0
  0
LINE
  5
F36A
  8
3
 10
162.44117102341451
 20
163.79414850495459
 30
0.0
 11
162.44117102341451
 21
163.7623184321298
 31
0.0
  0
LINE
  5
F36B
  8
3
 10
162.44117102341451
 20
163.82597857777921
 30
0.0
 11
162.44117102341451
 21
163.79414850495459
 31
0.0
  0
LINE
  5
F36C
  8
3
 10
162.44117102341451
 20
163.85326149734331
 30
0.0
 11
162.44117102341451
 21
163.82597857777921
 31
0.0
  0
LINE
  5
F36D
  8
3
 10
162.44117102341451
 20
163.88509157016799
 30
0.0
 11
162.44117102341451
 21
163.85326149734331
 31
0.0
  0
LINE
  5
F36E
  8
3
 10
162.44117102341451
 20
163.91692164299269
 30
0.0
 11
162.44117102341451
 21
163.88509157016799
 31
0.0
  0
LINE
  5
F36F
  8
3
 10
162.44117102341451
 20
163.94875171581751
 30
0.0
 11
162.44117102341451
 21
163.91692164299269
 31
0.0
  0
LINE
  5
F370
  8
3
 10
162.44117102341451
 20
163.9805817886421
 30
0.0
 11
162.44117102341451
 21
163.94875171581751
 31
0.0
  0
LINE
  5
F371
  8
3
 10
162.44117102341451
 20
163.7623184321298
 30
0.0
 11
162.44117102341451
 21
163.7304883593051
 31
0.0
  0
LINE
  5
F372
  8
3
 10
162.4138881038505
 20
164.17610937885109
 30
0.0
 11
162.44117102341451
 21
164.07152485385561
 31
0.0
  0
LINE
  5
F373
  8
3
 10
162.40024664406849
 20
164.22612806471849
 30
0.0
 11
162.4138881038505
 21
164.17610937885109
 31
0.0
  0
LINE
  5
F374
  8
3
 10
162.3775108777651
 20
164.27614675058589
 30
0.0
 11
162.40024664406849
 21
164.22612806471849
 31
0.0
  0
LINE
  5
F375
  8
3
 10
162.35477511146181
 20
164.32161828319269
 30
0.0
 11
162.3775108777651
 21
164.27614675058589
 31
0.0
  0
LINE
  5
F376
  8
3
 10
162.44117102341451
 20
164.04424193429159
 30
0.0
 11
162.44117102341451
 21
164.01241186146689
 31
0.0
  0
LINE
  5
F377
  8
3
 10
162.44117102341451
 20
164.07152485385561
 30
0.0
 11
162.44117102341451
 21
164.04424193429159
 31
0.0
  0
LINE
  5
F378
  8
3
 10
162.44117102341451
 20
164.01241186146689
 30
0.0
 11
162.44117102341451
 21
163.9805817886421
 31
0.0
  0
LINE
  5
F379
  8
3
 10
162.30475642559429
 20
164.4080141951454
 30
0.0
 11
162.33203934515839
 21
164.3670898157994
 31
0.0
  0
LINE
  5
F37A
  8
3
 10
162.27292635276959
 20
164.44893857449151
 30
0.0
 11
162.30475642559429
 21
164.4080141951454
 31
0.0
  0
LINE
  5
F37B
  8
3
 10
162.24109627994491
 20
164.48986295383759
 30
0.0
 11
162.27292635276959
 21
164.44893857449151
 31
0.0
  0
LINE
  5
F37C
  8
3
 10
162.20926620712009
 20
164.52624017992301
 30
0.0
 11
162.24109627994491
 21
164.48986295383759
 31
0.0
  0
LINE
  5
F37D
  8
3
 10
162.14105890821011
 20
164.59899463209379
 30
0.0
 11
162.17743613429539
 21
164.56261740600829
 31
0.0
  0
LINE
  5
F37E
  8
3
 10
162.100134528864
 20
164.6308247049185
 30
0.0
 11
162.14105890821011
 21
164.59899463209379
 31
0.0
  0
LINE
  5
F37F
  8
3
 10
162.17743613429539
 20
164.56261740600829
 30
0.0
 11
162.20926620712009
 21
164.52624017992301
 31
0.0
  0
LINE
  5
F380
  8
3
 10
162.0637573027785
 20
164.66265477774311
 30
0.0
 11
162.100134528864
 21
164.6308247049185
 31
0.0
  0
LINE
  5
F381
  8
3
 10
160.72234709087991
 20
164.53988163970499
 30
0.0
 11
160.7314413974012
 21
164.53988163970499
 31
0.0
  0
LINE
  5
F382
  8
3
 10
160.74963001044401
 20
163.7577712788692
 30
0.0
 11
160.6905170180552
 21
163.76686558539049
 31
0.0
  0
LINE
  5
F383
  8
3
 10
160.64504548544861
 20
163.6122623745276
 30
0.0
 11
160.77236577674739
 21
163.63499814083099
 31
0.0
  0
LINE
  5
F384
  8
3
 10
160.69961132457661
 20
164.7126734636106
 30
0.0
 11
160.72234709087991
 21
164.54442879296559
 31
0.0
  0
LINE
  5
F385
  8
3
 10
160.68142271153391
 20
164.8809181342555
 30
0.0
 11
160.6905170180552
 21
164.79906937556339
 31
0.0
  0
LINE
  5
F386
  8
3
 10
160.6905170180552
 20
164.79906937556339
 30
0.0
 11
160.69961132457661
 21
164.7126734636106
 31
0.0
  0
LINE
  5
F387
  8
3
 10
160.72234709087991
 20
164.54442879296559
 30
0.0
 11
160.72234709087991
 21
164.53988163970499
 31
0.0
  0
LINE
  5
F388
  8
3
 10
160.66778125175179
 20
165.12646441033189
 30
0.0
 11
160.66778125175179
 21
165.04461565163979
 31
0.0
  0
LINE
  5
F389
  8
3
 10
160.66778125175179
 20
165.04461565163979
 30
0.0
 11
160.6768755582732
 21
164.9627668929476
 31
0.0
  0
LINE
  5
F38A
  8
3
 10
160.6768755582732
 20
164.94912543316559
 30
0.0
 11
160.6768755582732
 21
164.9627668929476
 31
0.0
  0
LINE
  5
F38B
  8
3
 10
160.58623619982629
 20
165.02942472890791
 30
0.0
 11
160.5313666539316
 21
165.03552134511841
 31
0.0
  0
LINE
  5
F38C
  8
3
 10
160.44497074197889
 20
165.04006849837899
 30
0.0
 11
160.4040463626327
 21
165.04461565163979
 31
0.0
  0
LINE
  5
F38D
  8
3
 10
160.4904422745856
 20
165.04006849837899
 30
0.0
 11
160.44497074197889
 21
165.04006849837899
 31
0.0
  0
LINE
  5
F38E
  8
3
 10
160.41768782241479
 20
164.94003112664419
 30
0.0
 11
160.4904422745856
 21
164.9445782799049
 31
0.0
  0
LINE
  5
F38F
  8
3
 10
160.5313666539316
 20
165.03552134511841
 30
0.0
 11
160.4904422745856
 21
165.04006849837899
 31
0.0
  0
LINE
  5
F390
  8
3
 10
160.4904422745856
 20
164.9445782799049
 30
0.0
 11
160.6768755582732
 21
164.94912543316559
 31
0.0
  0
LINE
  5
F391
  8
3
 10
160.526819500671
 20
163.5804323017029
 30
0.0
 11
160.58593249305969
 21
163.5986209147456
 31
0.0
  0
LINE
  5
F392
  8
3
 10
160.581385339799
 20
163.78505419843319
 30
0.0
 11
160.526819500671
 21
163.79869565821519
 31
0.0
  0
LINE
  5
F393
  8
3
 10
160.41768782241479
 20
163.53496076909619
 30
0.0
 11
160.47225366154291
 21
163.55769653539949
 31
0.0
  0
LINE
  5
F394
  8
3
 10
160.42678212893611
 20
163.8396200375613
 30
0.0
 11
160.38585774959009
 21
163.8623558038646
 31
0.0
  0
LINE
  5
F395
  8
3
 10
160.47225366154291
 20
163.55769653539949
 30
0.0
 11
160.526819500671
 21
163.5804323017029
 31
0.0
  0
LINE
  5
F396
  8
3
 10
160.526819500671
 20
163.79869565821519
 30
0.0
 11
160.42678212893611
 21
163.8396200375613
 31
0.0
  0
LINE
  5
F397
  8
3
 10
160.58593249305969
 20
163.5986209147456
 30
0.0
 11
160.64504548544861
 21
163.6122623745276
 31
0.0
  0
LINE
  5
F398
  8
3
 10
160.6359511789272
 20
163.77141273865121
 30
0.0
 11
160.581385339799
 21
163.78505419843319
 31
0.0
  0
LINE
  5
F399
  8
3
 10
160.6768755582732
 20
164.9627668929476
 30
0.0
 11
160.68142271153391
 21
164.8809181342555
 31
0.0
  0
ARC
  5
F39A
  8
3
 10
160.5773101321081
 20
164.9280441616888
 30
0.0
 40
0.1017727571333202
 50
11.954837379829909
 51
84.968359139189019
  0
LINE
  5
F39B
  8
3
 10
160.6905170180552
 20
163.76686558539049
 30
0.0
 11
160.6359511789272
 21
163.77141273865121
 31
0.0
  0
LINE
  5
F39C
  8
3
 10
161.02245920608439
 20
164.65356047122179
 30
0.0
 11
161.05883643216981
 21
164.6808433907859
 31
0.0
  0
LINE
  5
F39D
  8
3
 10
160.94515760065289
 20
165.0718985712038
 30
0.0
 11
160.9406104473924
 21
165.0718985712038
 31
0.0
  0
LINE
  5
F39E
  8
3
 10
160.94970475391361
 20
165.0718985712038
 30
0.0
 11
160.94515760065289
 21
165.0718985712038
 31
0.0
  0
LINE
  5
F39F
  8
3
 10
160.9542519071743
 20
165.0718985712038
 30
0.0
 11
160.94970475391361
 21
165.0718985712038
 31
0.0
  0
LINE
  5
F3A0
  8
3
 10
160.9587990604349
 20
165.0718985712038
 30
0.0
 11
160.9542519071743
 21
165.0718985712038
 31
0.0
  0
LINE
  5
F3A1
  8
3
 10
160.9587990604349
 20
165.06735141794309
 30
0.0
 11
160.9587990604349
 21
165.0718985712038
 31
0.0
  0
LINE
  5
F3A2
  8
3
 10
160.96334621369559
 20
165.06735141794309
 30
0.0
 11
160.9587990604349
 21
165.06735141794309
 31
0.0
  0
LINE
  5
F3A3
  8
3
 10
160.96789336695619
 20
165.06735141794309
 30
0.0
 11
160.96334621369559
 21
165.06735141794309
 31
0.0
  0
LINE
  5
F3A4
  8
3
 10
160.97244052021699
 20
165.06735141794309
 30
0.0
 11
160.96789336695619
 21
165.06735141794309
 31
0.0
  0
LINE
  5
F3A5
  8
3
 10
160.97698767347759
 20
165.06735141794309
 30
0.0
 11
160.97244052021699
 21
165.06735141794309
 31
0.0
  0
LINE
  5
F3A6
  8
3
 10
160.9815348267384
 20
165.06735141794309
 30
0.0
 11
160.97698767347759
 21
165.06735141794309
 31
0.0
  0
LINE
  5
F3A7
  8
3
 10
160.986081979999
 20
165.06735141794309
 30
0.0
 11
160.9815348267384
 21
165.06735141794309
 31
0.0
  0
LINE
  5
F3A8
  8
3
 10
160.99062913325969
 20
165.0628042646824
 30
0.0
 11
160.986081979999
 21
165.06735141794309
 31
0.0
  0
LINE
  5
F3A9
  8
3
 10
161.0451949723878
 20
165.06735141794309
 30
0.0
 11
160.99062913325969
 21
165.0628042646824
 31
0.0
  0
LINE
  5
F3AA
  8
3
 10
161.07247789195179
 20
165.06735141794309
 30
0.0
 11
161.0451949723878
 21
165.06735141794309
 31
0.0
  0
LINE
  5
F3AB
  8
3
 10
161.09976081151589
 20
165.0718985712038
 30
0.0
 11
161.07247789195179
 21
165.06735141794309
 31
0.0
  0
LINE
  5
F3AC
  8
3
 10
161.12704373107991
 20
165.0718985712038
 30
0.0
 11
161.09976081151589
 21
165.0718985712038
 31
0.0
  0
LINE
  5
F3AD
  8
3
 10
161.15432665064401
 20
165.0718985712038
 30
0.0
 11
161.12704373107991
 21
165.0718985712038
 31
0.0
  0
LINE
  5
F3AE
  8
3
 10
161.181609570208
 20
165.0718985712038
 30
0.0
 11
161.15432665064401
 21
165.0718985712038
 31
0.0
  0
LINE
  5
F3AF
  8
3
 10
161.20889248977201
 20
165.0718985712038
 30
0.0
 11
161.181609570208
 21
165.0718985712038
 31
0.0
  0
LINE
  5
F3B0
  8
3
 10
161.236175409336
 20
165.0718985712038
 30
0.0
 11
161.20889248977201
 21
165.0718985712038
 31
0.0
  0
LINE
  5
F3B1
  8
3
 10
161.1861567234686
 20
164.7445035364353
 30
0.0
 11
161.236175409336
 21
164.762692149478
 31
0.0
  0
LINE
  5
F3B2
  8
3
 10
161.1452323441226
 20
164.72631492339261
 30
0.0
 11
161.1861567234686
 21
164.7445035364353
 31
0.0
  0
LINE
  5
F3B3
  8
3
 10
161.09976081151589
 20
164.70357915708931
 30
0.0
 11
161.1452323441226
 21
164.72631492339261
 31
0.0
  0
LINE
  5
F3B4
  8
3
 10
161.05883643216981
 20
164.6808433907859
 30
0.0
 11
161.09976081151589
 21
164.70357915708931
 31
0.0
  0
LINE
  5
F3B5
  8
3
 10
160.86330884196079
 20
163.63499814083099
 30
0.0
 11
160.90878037456761
 21
163.6304509875703
 31
0.0
  0
LINE
  5
F3B6
  8
3
 10
160.91787468108899
 20
163.7623184321298
 30
0.0
 11
160.86330884196079
 21
163.7577712788692
 31
0.0
  0
LINE
  5
F3B7
  8
3
 10
160.8860446082642
 20
164.53988163970499
 30
0.0
 11
160.9133275278283
 21
164.54442879296559
 31
0.0
  0
LINE
  5
F3B8
  8
3
 10
160.87240314848219
 20
164.5353344864443
 30
0.0
 11
160.8860446082642
 21
164.53988163970499
 31
0.0
  0
LINE
  5
F3B9
  8
3
 10
160.9133275278283
 20
164.54442879296559
 30
0.0
 11
160.986081979999
 21
164.62627755165781
 31
0.0
  0
LINE
  5
F3BA
  8
3
 10
160.90878037456761
 20
163.6304509875703
 30
0.0
 11
160.9542519071743
 21
163.62590383430961
 31
0.0
  0
LINE
  5
F3BB
  8
3
 10
160.97698767347759
 20
163.77141273865121
 30
0.0
 11
160.91787468108899
 21
163.7623184321298
 31
0.0
  0
LINE
  5
F3BC
  8
3
 10
160.82238446261471
 20
164.53078733318361
 30
0.0
 11
160.8405730756574
 21
164.53078733318361
 31
0.0
  0
LINE
  5
F3BD
  8
3
 10
160.8087430028327
 20
164.53078733318361
 30
0.0
 11
160.82238446261471
 21
164.53078733318361
 31
0.0
  0
LINE
  5
F3BE
  8
3
 10
160.8405730756574
 20
164.53078733318361
 30
0.0
 11
160.8587616887001
 21
164.5353344864443
 31
0.0
  0
LINE
  5
F3BF
  8
3
 10
160.81783730935399
 20
163.63499814083099
 30
0.0
 11
160.86330884196079
 21
163.63499814083099
 31
0.0
  0
LINE
  5
F3C0
  8
3
 10
160.86330884196079
 20
163.7577712788692
 30
0.0
 11
160.8041958495721
 21
163.7577712788692
 31
0.0
  0
LINE
  5
F3C1
  8
3
 10
160.8587616887001
 20
164.5353344864443
 30
0.0
 11
160.87240314848219
 21
164.5353344864443
 31
0.0
  0
LINE
  5
F3C2
  8
3
 10
160.776912930008
 20
164.53078733318361
 30
0.0
 11
160.79055438979009
 21
164.53078733318361
 31
0.0
  0
LINE
  5
F3C3
  8
3
 10
160.76327147022599
 20
164.53078733318361
 30
0.0
 11
160.776912930008
 21
164.53078733318361
 31
0.0
  0
LINE
  5
F3C4
  8
3
 10
160.7405357039226
 20
164.5353344864443
 30
0.0
 11
160.74963001044401
 21
164.5353344864443
 31
0.0
  0
LINE
  5
F3C5
  8
3
 10
160.7314413974012
 20
164.53988163970499
 30
0.0
 11
160.7405357039226
 21
164.5353344864443
 31
0.0
  0
LINE
  5
F3C6
  8
3
 10
160.74963001044401
 20
164.5353344864443
 30
0.0
 11
160.76327147022599
 21
164.53078733318361
 31
0.0
  0
LINE
  5
F3C7
  8
3
 10
160.77236577674739
 20
163.63499814083099
 30
0.0
 11
160.81783730935399
 21
163.63499814083099
 31
0.0
  0
LINE
  5
F3C8
  8
3
 10
160.8041958495721
 20
163.7577712788692
 30
0.0
 11
160.74963001044401
 21
163.7577712788692
 31
0.0
  0
LINE
  5
F3C9
  8
3
 10
160.79055438979009
 20
164.53078733318361
 30
0.0
 11
160.8087430028327
 21
164.53078733318361
 31
0.0
  0
LINE
  5
F3CA
  8
3
 10
161.17706241694731
 20
163.57133799518149
 30
0.0
 11
161.21798679629339
 21
163.55314938213891
 31
0.0
  0
LINE
  5
F3CB
  8
3
 10
161.1361380376012
 20
163.5849794549635
 30
0.0
 11
161.17706241694731
 21
163.57133799518149
 31
0.0
  0
LINE
  5
F3CC
  8
3
 10
161.0906665049944
 20
163.5986209147456
 30
0.0
 11
161.1361380376012
 21
163.5849794549635
 31
0.0
  0
LINE
  5
F3CD
  8
3
 10
161.0451949723878
 20
163.607715221267
 30
0.0
 11
161.0906665049944
 21
163.5986209147456
 31
0.0
  0
LINE
  5
F3CE
  8
3
 10
160.99972343978101
 20
163.61680952778829
 30
0.0
 11
161.0451949723878
 21
163.607715221267
 31
0.0
  0
LINE
  5
F3CF
  8
3
 10
160.9542519071743
 20
163.62590383430961
 30
0.0
 11
160.99972343978101
 21
163.61680952778829
 31
0.0
  0
LINE
  5
F3D0
  8
3
 10
161.03155351260571
 20
163.7805070451725
 30
0.0
 11
160.97698767347759
 21
163.77141273865121
 31
0.0
  0
LINE
  5
F3D1
  8
3
 10
161.0861193517338
 20
163.79414850495459
 30
0.0
 11
161.03155351260571
 21
163.7805070451725
 31
0.0
  0
LINE
  5
F3D2
  8
3
 10
161.14068519086189
 20
163.80778996473649
 30
0.0
 11
161.0861193517338
 21
163.79414850495459
 31
0.0
  0
LINE
  5
F3D3
  8
3
 10
161.19525102999
 20
163.8305257310399
 30
0.0
 11
161.14068519086189
 21
163.80778996473649
 31
0.0
  0
LINE
  5
F3D4
  8
3
 10
160.986081979999
 20
164.62627755165781
 30
0.0
 11
161.02245920608439
 21
164.65356047122179
 31
0.0
  0
LINE
  5
F3D5
  8
3
 10
161.2680054821607
 20
165.0718985712038
 30
0.0
 11
161.236175409336
 21
165.0718985712038
 31
0.0
  0
LINE
  5
F3D6
  8
3
 10
161.236175409336
 20
164.762692149478
 30
0.0
 11
161.28164694194291
 21
164.77633360926001
 31
0.0
  0
LINE
  5
F3D7
  8
3
 10
161.21798679629339
 20
163.55314938213891
 30
0.0
 11
161.25891117563941
 21
163.53950792235679
 31
0.0
  0
LINE
  5
F3D8
  8
3
 10
161.24981686911801
 20
163.85326149734331
 30
0.0
 11
161.19525102999
 21
163.8305257310399
 31
0.0
  0
LINE
  5
F3D9
  8
3
 10
161.681796428882
 20
165.2128603222846
 30
0.0
 11
161.681796428882
 21
165.2901619277161
 31
0.0
  0
LINE
  5
F3DA
  8
3
 10
161.83185248648431
 20
166.89075987547321
 30
0.0
 11
161.850041099527
 21
166.8816655689518
 31
0.0
  0
LINE
  5
F3DB
  8
3
 10
161.81366387344161
 20
166.8998541819945
 30
0.0
 11
161.83185248648431
 21
166.89075987547321
 31
0.0
  0
LINE
  5
F3DC
  8
3
 10
161.79547526039889
 20
166.9089484885159
 30
0.0
 11
161.81366387344161
 21
166.8998541819945
 31
0.0
  0
LINE
  5
F3DD
  8
3
 10
161.77728664735619
 20
166.91804279503719
 30
0.0
 11
161.79547526039889
 21
166.9089484885159
 31
0.0
  0
LINE
  5
F3DE
  8
3
 10
161.75909803431341
 20
166.92713710155849
 30
0.0
 11
161.77728664735619
 21
166.91804279503719
 31
0.0
  0
LINE
  5
F3DF
  8
3
 10
161.7409094212708
 20
166.93623140807989
 30
0.0
 11
161.75909803431341
 21
166.92713710155849
 31
0.0
  0
LINE
  5
F3E0
  8
3
 10
161.7227208082281
 20
166.94532571460121
 30
0.0
 11
161.7409094212708
 21
166.93623140807989
 31
0.0
  0
LINE
  5
F3E1
  8
3
 10
161.70453219518541
 20
166.95442002112259
 30
0.0
 11
161.7227208082281
 21
166.94532571460121
 31
0.0
  0
LINE
  5
F3E2
  8
3
 10
161.68634358214271
 20
166.96351432764399
 30
0.0
 11
161.70453219518541
 21
166.95442002112259
 31
0.0
  0
LINE
  5
F3E3
  8
3
 10
161.66815496909999
 20
166.97260863416531
 30
0.0
 11
161.68634358214271
 21
166.96351432764399
 31
0.0
  0
LINE
  5
F3E4
  8
3
 10
161.64996635605729
 20
166.98170294068669
 30
0.0
 11
161.66815496909999
 21
166.97260863416531
 31
0.0
  0
LINE
  5
F3E5
  8
3
 10
161.4908159919338
 20
166.09046090159461
 30
0.0
 11
161.4908159919338
 21
166.08136659507329
 31
0.0
  0
LINE
  5
F3E6
  8
3
 10
161.4908159919338
 20
166.0950080548553
 30
0.0
 11
161.4908159919338
 21
166.09046090159461
 31
0.0
  0
LINE
  5
F3E7
  8
3
 10
161.4953631451944
 20
166.0950080548553
 30
0.0
 11
161.4908159919338
 21
166.0950080548553
 31
0.0
  0
LINE
  5
F3E8
  8
3
 10
161.4953631451944
 20
166.09955520811599
 30
0.0
 11
161.4953631451944
 21
166.0950080548553
 31
0.0
  0
LINE
  5
F3E9
  8
3
 10
161.49991029845509
 20
166.09955520811599
 30
0.0
 11
161.4953631451944
 21
166.09955520811599
 31
0.0
  0
LINE
  5
F3EA
  8
3
 10
161.49991029845509
 20
166.1041023613767
 30
0.0
 11
161.49991029845509
 21
166.09955520811599
 31
0.0
  0
LINE
  5
F3EB
  8
3
 10
161.50445745171569
 20
166.1041023613767
 30
0.0
 11
161.49991029845509
 21
166.1041023613767
 31
0.0
  0
LINE
  5
F3EC
  8
3
 10
161.5090046049765
 20
166.1041023613767
 30
0.0
 11
161.50445745171569
 21
166.1041023613767
 31
0.0
  0
LINE
  5
F3ED
  8
3
 10
161.5135517582371
 20
166.1041023613767
 30
0.0
 11
161.5090046049765
 21
166.1041023613767
 31
0.0
  0
LINE
  5
F3EE
  8
3
 10
161.51809891149779
 20
166.1041023613767
 30
0.0
 11
161.5135517582371
 21
166.1041023613767
 31
0.0
  0
LINE
  5
F3EF
  8
3
 10
161.59994767018989
 20
165.99951783638119
 30
0.0
 11
161.51809891149779
 21
166.1041023613767
 31
0.0
  0
LINE
  5
F3F0
  8
3
 10
161.62723058975399
 20
165.93585769073181
 30
0.0
 11
161.59994767018989
 21
165.99951783638119
 31
0.0
  0
LINE
  5
F3F1
  8
3
 10
162.4366238701538
 20
165.92221623094969
 30
0.0
 11
162.4366238701538
 21
165.91766907768911
 31
0.0
  0
LINE
  5
F3F2
  8
3
 10
162.2001719005988
 20
166.55881768744399
 30
0.0
 11
162.23654912668431
 21
166.5042518483159
 31
0.0
  0
LINE
  5
F3F3
  8
3
 10
161.8682297125697
 20
166.87257126243051
 30
0.0
 11
161.8864183256124
 21
166.86347695590911
 31
0.0
  0
LINE
  5
F3F4
  8
3
 10
161.850041099527
 20
166.8816655689518
 30
0.0
 11
161.8682297125697
 21
166.87257126243051
 31
0.0
  0
LINE
  5
F3F5
  8
3
 10
162.15924752125281
 20
166.60883637331139
 30
0.0
 11
162.2001719005988
 21
166.55881768744399
 31
0.0
  0
LINE
  5
F3F6
  8
3
 10
161.92279555169779
 20
166.84074118960581
 30
0.0
 11
161.97736139082579
 21
166.7998168102597
 31
0.0
  0
LINE
  5
F3F7
  8
3
 10
161.8864183256124
 20
166.86347695590911
 30
0.0
 11
161.92279555169779
 21
166.84074118960581
 31
0.0
  0
LINE
  5
F3F8
  8
3
 10
162.11832314190681
 20
166.65885505917879
 30
0.0
 11
162.15924752125281
 21
166.60883637331139
 31
0.0
  0
LINE
  5
F3F9
  8
3
 10
162.0728516092999
 20
166.7088737450463
 30
0.0
 11
162.11832314190681
 21
166.65885505917879
 31
0.0
  0
LINE
  5
F3FA
  8
3
 10
162.02738007669319
 20
166.75434527765299
 30
0.0
 11
162.0728516092999
 21
166.7088737450463
 31
0.0
  0
LINE
  5
F3FB
  8
3
 10
161.97736139082579
 20
166.7998168102597
 30
0.0
 11
162.02738007669319
 21
166.75434527765299
 31
0.0
  0
LINE
  5
F3FC
  8
3
 10
162.44117102341451
 20
165.94949915051379
 30
0.0
 11
162.4366238701538
 21
165.9449519972531
 31
0.0
  0
LINE
  5
F3FD
  8
3
 10
162.40934095058989
 20
166.08591374833401
 30
0.0
 11
162.44117102341451
 21
165.94949915051379
 31
0.0
  0
LINE
  5
F3FE
  8
3
 10
162.4366238701538
 20
165.93131053747109
 30
0.0
 11
162.4366238701538
 21
165.92221623094969
 31
0.0
  0
LINE
  5
F3FF
  8
3
 10
162.4366238701538
 20
165.93585769073181
 30
0.0
 11
162.4366238701538
 21
165.93131053747109
 31
0.0
  0
LINE
  5
F400
  8
3
 10
162.4366238701538
 20
165.94040484399241
 30
0.0
 11
162.4366238701538
 21
165.93585769073181
 31
0.0
  0
LINE
  5
F401
  8
3
 10
162.4366238701538
 20
165.9449519972531
 30
0.0
 11
162.4366238701538
 21
165.94040484399241
 31
0.0
  0
LINE
  5
F402
  8
3
 10
162.39115233754711
 20
166.14957389398339
 30
0.0
 11
162.40934095058989
 21
166.08591374833401
 31
0.0
  0
LINE
  5
F403
  8
3
 10
162.37296372450439
 20
166.21323403963291
 30
0.0
 11
162.39115233754711
 21
166.14957389398339
 31
0.0
  0
LINE
  5
F404
  8
3
 10
162.30020927233369
 20
166.39512017005981
 30
0.0
 11
162.32749219189759
 21
166.33600717767101
 31
0.0
  0
LINE
  5
F405
  8
3
 10
162.2683791995089
 20
166.4496860091879
 30
0.0
 11
162.30020927233369
 21
166.39512017005981
 31
0.0
  0
LINE
  5
F406
  8
3
 10
162.23654912668431
 20
166.5042518483159
 30
0.0
 11
162.2683791995089
 21
166.4496860091879
 31
0.0
  0
LINE
  5
F407
  8
3
 10
162.32749219189759
 20
166.33600717767101
 30
0.0
 11
162.35022795820109
 21
166.27689418528229
 31
0.0
  0
LINE
  5
F408
  8
3
 10
162.35022795820109
 20
166.27689418528229
 30
0.0
 11
162.37296372450439
 21
166.21323403963291
 31
0.0
  0
LINE
  5
F409
  8
3
 10
162.4366238701538
 20
165.9131219244284
 30
0.0
 11
162.44117102341451
 21
165.90857477116771
 31
0.0
  0
LINE
  5
F40A
  8
3
 10
162.4366238701538
 20
165.91766907768911
 30
0.0
 11
162.4366238701538
 21
165.9131219244284
 31
0.0
  0
LINE
  5
F40B
  8
3
 10
162.44117102341451
 20
165.89948046464639
 30
0.0
 11
162.4457181766752
 21
165.89948046464639
 31
0.0
  0
LINE
  5
F40C
  8
3
 10
162.44117102341451
 20
165.90402761790699
 30
0.0
 11
162.44117102341451
 21
165.89948046464639
 31
0.0
  0
LINE
  5
F40D
  8
3
 10
162.44117102341451
 20
165.90857477116771
 30
0.0
 11
162.44117102341451
 21
165.90402761790699
 31
0.0
  0
LINE
  5
F40E
  8
3
 10
161.64996635605729
 20
165.8721975450824
 30
0.0
 11
161.62723058975399
 21
165.93585769073181
 31
0.0
  0
LINE
  5
F40F
  8
3
 10
162.4457181766752
 20
165.89948046464639
 30
0.0
 11
162.4457181766752
 21
165.8949333113857
 31
0.0
  0
LINE
  5
F410
  8
3
 10
161.68634358214271
 20
165.3674635331476
 30
0.0
 11
161.68634358214271
 21
165.44476513857899
 31
0.0
  0
LINE
  5
F411
  8
3
 10
161.681796428882
 20
165.2901619277161
 30
0.0
 11
161.68634358214271
 21
165.3674635331476
 31
0.0
  0
LINE
  5
F412
  8
3
 10
161.68634358214271
 20
165.44476513857899
 30
0.0
 11
161.68634358214271
 21
165.52206674401049
 31
0.0
  0
LINE
  5
F413
  8
3
 10
161.66815496909999
 20
165.80853739943291
 30
0.0
 11
161.64996635605729
 21
165.8721975450824
 31
0.0
  0
LINE
  5
F414
  8
3
 10
161.67724927562139
 20
165.74033010052281
 30
0.0
 11
161.66815496909999
 21
165.80853739943291
 31
0.0
  0
LINE
  5
F415
  8
3
 10
161.68634358214271
 20
165.667575648352
 30
0.0
 11
161.67724927562139
 21
165.74033010052281
 31
0.0
  0
LINE
  5
F416
  8
3
 10
161.68634358214271
 20
165.59482119618119
 30
0.0
 11
161.68634358214271
 21
165.667575648352
 31
0.0
  0
LINE
  5
F417
  8
3
 10
161.68634358214271
 20
165.52206674401049
 30
0.0
 11
161.68634358214271
 21
165.59482119618119
 31
0.0
  0
LINE
  5
F418
  8
3
 10
162.450265329936
 20
165.876744698343
 30
0.0
 11
162.450265329936
 21
165.876744698343
 31
0.0
  0
LINE
  5
F419
  8
3
 10
162.4457181766752
 20
165.88583900486429
 30
0.0
 11
162.450265329936
 21
165.876744698343
 31
0.0
  0
LINE
  5
F41A
  8
3
 10
162.4457181766752
 20
165.8903861581251
 30
0.0
 11
162.4457181766752
 21
165.88583900486429
 31
0.0
  0
LINE
  5
F41B
  8
3
 10
162.4457181766752
 20
165.8949333113857
 30
0.0
 11
162.4457181766752
 21
165.8903861581251
 31
0.0
  0
LINE
  5
F41C
  8
3
 10
160.7314413974012
 20
165.9131219244284
 30
0.0
 11
160.7177999376193
 21
165.89948046464639
 31
0.0
  0
LINE
  5
F41D
  8
3
 10
160.6905170180552
 20
166.94532571460121
 30
0.0
 11
160.74508285718329
 21
166.96806148090471
 31
0.0
  0
LINE
  5
F41E
  8
3
 10
160.66323409849119
 20
165.2901619277161
 30
0.0
 11
160.66323409849119
 21
165.208313169024
 31
0.0
  0
LINE
  5
F41F
  8
3
 10
160.6905170180552
 20
165.79034878639021
 30
0.0
 11
160.68596986479449
 21
165.70395287443739
 31
0.0
  0
LINE
  5
F420
  8
3
 10
160.70415847783721
 20
165.8721975450824
 30
0.0
 11
160.6905170180552
 21
165.79034878639021
 31
0.0
  0
LINE
  5
F421
  8
3
 10
160.7177999376193
 20
165.89948046464639
 30
0.0
 11
160.70415847783721
 21
165.8721975450824
 31
0.0
  0
LINE
  5
F422
  8
3
 10
160.66778125175179
 20
165.45385944510031
 30
0.0
 11
160.66778125175179
 21
165.3720106864082
 31
0.0
  0
LINE
  5
F423
  8
3
 10
160.66778125175179
 20
165.3720106864082
 30
0.0
 11
160.66323409849119
 21
165.2901619277161
 31
0.0
  0
LINE
  5
F424
  8
3
 10
160.67232840501259
 20
165.5357082037925
 30
0.0
 11
160.66778125175179
 21
165.45385944510031
 31
0.0
  0
LINE
  5
F425
  8
3
 10
160.6768755582732
 20
165.62210411574529
 30
0.0
 11
160.67232840501259
 21
165.5357082037925
 31
0.0
  0
LINE
  5
F426
  8
3
 10
160.5313666539316
 20
166.8589298026485
 30
0.0
 11
160.58593249305969
 21
166.89075987547321
 31
0.0
  0
LINE
  5
F427
  8
3
 10
160.43587643545749
 20
166.79072250373841
 30
0.0
 11
160.485895121325
 21
166.82255257656311
 31
0.0
  0
LINE
  5
F428
  8
3
 10
160.3904049028508
 20
166.7497981243923
 30
0.0
 11
160.43587643545749
 21
166.79072250373841
 31
0.0
  0
LINE
  5
F429
  8
3
 10
160.485895121325
 20
166.82255257656311
 30
0.0
 11
160.5313666539316
 21
166.8589298026485
 31
0.0
  0
LINE
  5
F42A
  8
3
 10
160.58593249305969
 20
166.89075987547321
 30
0.0
 11
160.6359511789272
 21
166.91804279503719
 31
0.0
  0
LINE
  5
F42B
  8
3
 10
160.68596986479449
 20
165.70395287443739
 30
0.0
 11
160.6768755582732
 21
165.62210411574529
 31
0.0
  0
LINE
  5
F42C
  8
3
 10
160.6359511789272
 20
166.91804279503719
 30
0.0
 11
160.6905170180552
 21
166.94532571460121
 31
0.0
  0
LINE
  5
F42D
  8
3
 10
160.9360632941316
 20
166.11319666789799
 30
0.0
 11
160.92242183434959
 21
166.11319666789799
 31
0.0
  0
LINE
  5
F42E
  8
3
 10
160.89059176152489
 20
166.09955520811599
 30
0.0
 11
160.87240314848219
 21
166.08591374833401
 31
0.0
  0
LINE
  5
F42F
  8
3
 10
160.9042332213069
 20
166.10864951463731
 30
0.0
 11
160.89059176152489
 21
166.09955520811599
 31
0.0
  0
LINE
  5
F430
  8
3
 10
160.92242183434959
 20
166.11319666789799
 30
0.0
 11
160.9042332213069
 21
166.10864951463731
 31
0.0
  0
LINE
  5
F431
  8
3
 10
160.82238446261471
 20
166.03134790920589
 30
0.0
 11
160.8041958495721
 21
166.0131592961632
 31
0.0
  0
LINE
  5
F432
  8
3
 10
160.8405730756574
 20
166.0540836755093
 30
0.0
 11
160.82238446261471
 21
166.03134790920589
 31
0.0
  0
LINE
  5
F433
  8
3
 10
160.8542145354395
 20
166.06772513529131
 30
0.0
 11
160.8405730756574
 21
166.0540836755093
 31
0.0
  0
LINE
  5
F434
  8
3
 10
160.87240314848219
 20
166.08591374833401
 30
0.0
 11
160.8542145354395
 21
166.06772513529131
 31
0.0
  0
LINE
  5
F435
  8
3
 10
160.7405357039226
 20
165.93131053747109
 30
0.0
 11
160.7314413974012
 21
165.9131219244284
 31
0.0
  0
LINE
  5
F436
  8
3
 10
160.7541771637047
 20
165.9540463037745
 30
0.0
 11
160.7405357039226
 21
165.93131053747109
 31
0.0
  0
LINE
  5
F437
  8
3
 10
160.77236577674739
 20
165.97223491681709
 30
0.0
 11
160.7541771637047
 21
165.9540463037745
 31
0.0
  0
LINE
  5
F438
  8
3
 10
160.7860072365294
 20
165.9949706831205
 30
0.0
 11
160.77236577674739
 21
165.97223491681709
 31
0.0
  0
LINE
  5
F439
  8
3
 10
160.8041958495721
 20
166.0131592961632
 30
0.0
 11
160.7860072365294
 21
165.9949706831205
 31
0.0
  0
LINE
  5
F43A
  8
3
 10
160.66323409849119
 20
165.208313169024
 30
0.0
 11
160.66778125175179
 21
165.12646441033189
 31
0.0
  0
LINE
  5
F43B
  8
3
 10
160.9406104473924
 20
165.0718985712038
 30
0.0
 11
160.9360632941316
 21
166.11319666789799
 31
0.0
  0
LINE
  5
F43C
  8
3
 10
161.4908159919338
 20
166.08136659507329
 30
0.0
 11
161.4908159919338
 21
165.08099287772521
 31
0.0
  0
LINE
  5
F43D
  8
3
 10
162.450265329936
 20
165.876744698343
 30
0.0
 11
162.450265329936
 21
165.00369127229371
 31
0.0
  0
LINE
  5
F43E
  8
3
 10
161.681796428882
 20
165.1401058701139
 30
0.0
 11
161.681796428882
 21
165.2128603222846
 31
0.0
  0
POINT
  5
F43F
  8
3
 10
161.20661891314171
 20
170.1738045296795
 30
0.0
  0
LINE
  5
F440
  8
3
 10
162.35022795820109
 20
169.5190144601425
 30
0.0
 11
162.35932226472241
 21
169.50537300036041
 31
0.0
  0
LINE
  5
F441
  8
3
 10
162.33658649841911
 20
169.54629737970649
 30
0.0
 11
162.34113365167971
 21
169.53265591992451
 31
0.0
  0
LINE
  5
F442
  8
3
 10
162.3183978853763
 20
169.58267460579191
 30
0.0
 11
162.33658649841911
 21
169.54629737970649
 31
0.0
  0
LINE
  5
F443
  8
3
 10
162.30475642559429
 20
169.596316065574
 30
0.0
 11
162.3183978853763
 21
169.58267460579191
 31
0.0
  0
LINE
  5
F444
  8
3
 10
162.295662119073
 20
169.61450467861661
 30
0.0
 11
162.30475642559429
 21
169.596316065574
 31
0.0
  0
LINE
  5
F445
  8
3
 10
162.2865678125516
 20
169.62814613839859
 30
0.0
 11
162.295662119073
 21
169.61450467861661
 31
0.0
  0
LINE
  5
F446
  8
3
 10
162.2774735060303
 20
169.64178759818071
 30
0.0
 11
162.2865678125516
 21
169.62814613839859
 31
0.0
  0
LINE
  5
F447
  8
3
 10
162.34113365167971
 20
169.53265591992451
 30
0.0
 11
162.35022795820109
 21
169.5190144601425
 31
0.0
  0
LINE
  5
F448
  8
3
 10
161.65451350931809
 20
169.1097706666819
 30
0.0
 11
161.57721190388651
 21
169.21890234493799
 31
0.0
  0
LINE
  5
F449
  8
3
 10
162.48209540276059
 20
169.17797796559199
 30
0.0
 11
162.48664255602131
 21
169.15524219928861
 31
0.0
  0
LINE
  5
F44A
  8
3
 10
161.54992898432261
 20
169.2098080384167
 30
0.0
 11
161.5453818310618
 21
168.21398147432919
 31
0.0
  0
LINE
  5
F44B
  8
3
 10
161.54992898432261
 20
169.21435519167741
 30
0.0
 11
161.54992898432261
 21
169.2098080384167
 31
0.0
  0
LINE
  5
F44C
  8
3
 10
161.55447613758321
 20
169.21435519167741
 30
0.0
 11
161.54992898432261
 21
169.21435519167741
 31
0.0
  0
LINE
  5
F44D
  8
3
 10
161.55447613758321
 20
169.21890234493799
 30
0.0
 11
161.55447613758321
 21
169.21435519167741
 31
0.0
  0
LINE
  5
F44E
  8
3
 10
161.55902329084381
 20
169.21890234493799
 30
0.0
 11
161.55447613758321
 21
169.21890234493799
 31
0.0
  0
LINE
  5
F44F
  8
3
 10
161.56357044410461
 20
169.21890234493799
 30
0.0
 11
161.55902329084381
 21
169.21890234493799
 31
0.0
  0
LINE
  5
F450
  8
3
 10
161.56811759736519
 20
169.21890234493799
 30
0.0
 11
161.56357044410461
 21
169.21890234493799
 31
0.0
  0
LINE
  5
F451
  8
3
 10
161.5726647506259
 20
169.21890234493799
 30
0.0
 11
161.56811759736519
 21
169.21890234493799
 31
0.0
  0
LINE
  5
F452
  8
3
 10
161.57721190388651
 20
169.21890234493799
 30
0.0
 11
161.5726647506259
 21
169.21890234493799
 31
0.0
  0
LINE
  5
F453
  8
3
 10
162.47754824949999
 20
169.20526088515601
 30
0.0
 11
162.48209540276059
 21
169.17797796559199
 31
0.0
  0
LINE
  5
F454
  8
3
 10
162.4730010962393
 20
169.22799665145939
 30
0.0
 11
162.47754824949999
 21
169.20526088515601
 31
0.0
  0
LINE
  5
F455
  8
3
 10
162.4684539429785
 20
169.2507324177628
 30
0.0
 11
162.4730010962393
 21
169.22799665145939
 31
0.0
  0
LINE
  5
F456
  8
3
 10
162.4639067897179
 20
169.2734681840661
 30
0.0
 11
162.4684539429785
 21
169.2507324177628
 31
0.0
  0
LINE
  5
F457
  8
3
 10
162.45935963645729
 20
169.29620395036949
 30
0.0
 11
162.4639067897179
 21
169.2734681840661
 31
0.0
  0
LINE
  5
F458
  8
3
 10
162.45481248319649
 20
169.31893971667279
 30
0.0
 11
162.45935963645729
 21
169.29620395036949
 31
0.0
  0
LINE
  5
F459
  8
3
 10
162.4366238701538
 20
169.34622263623689
 30
0.0
 11
162.45481248319649
 21
169.31893971667279
 31
0.0
  0
LINE
  5
F45A
  8
3
 10
162.4275295636325
 20
169.3598640960189
 30
0.0
 11
162.4366238701538
 21
169.34622263623689
 31
0.0
  0
LINE
  5
F45B
  8
3
 10
162.41843525711121
 20
169.37350555580099
 30
0.0
 11
162.4275295636325
 21
169.3598640960189
 31
0.0
  0
LINE
  5
F45C
  8
3
 10
162.4138881038505
 20
169.38714701558291
 30
0.0
 11
162.41843525711121
 21
169.37350555580099
 31
0.0
  0
LINE
  5
F45D
  8
3
 10
162.40479379732909
 20
169.400788475365
 30
0.0
 11
162.4138881038505
 21
169.38714701558291
 31
0.0
  0
LINE
  5
F45E
  8
3
 10
162.40024664406849
 20
169.4189770884077
 30
0.0
 11
162.40479379732909
 21
169.400788475365
 31
0.0
  0
LINE
  5
F45F
  8
3
 10
162.3956994908078
 20
169.43261854818971
 30
0.0
 11
162.40024664406849
 21
169.4189770884077
 31
0.0
  0
LINE
  5
F460
  8
3
 10
162.38205803102579
 20
169.4599014677537
 30
0.0
 11
162.38660518428651
 21
169.44626000797169
 31
0.0
  0
LINE
  5
F461
  8
3
 10
162.37296372450439
 20
169.47354292753579
 30
0.0
 11
162.38205803102579
 21
169.4599014677537
 31
0.0
  0
LINE
  5
F462
  8
3
 10
162.3684165712437
 20
169.49173154057851
 30
0.0
 11
162.37296372450439
 21
169.47354292753579
 31
0.0
  0
LINE
  5
F463
  8
3
 10
162.35932226472241
 20
169.50537300036041
 30
0.0
 11
162.3684165712437
 21
169.49173154057851
 31
0.0
  0
LINE
  5
F464
  8
3
 10
162.38660518428651
 20
169.44626000797169
 30
0.0
 11
162.3956994908078
 21
169.43261854818971
 31
0.0
  0
LINE
  5
F465
  8
3
 10
161.72726796148879
 20
168.12303840911571
 30
0.0
 11
161.71362650170681
 21
168.1912457080258
 31
0.0
  0
LINE
  5
F466
  8
3
 10
162.50937832232461
 20
168.95516745581889
 30
0.0
 11
162.51392547558541
 21
168.1139441025943
 31
0.0
  0
LINE
  5
F467
  8
3
 10
161.28164694194291
 20
168.1912457080258
 30
0.0
 11
161.2452697158574
 21
168.1912457080258
 31
0.0
  0
LINE
  5
F468
  8
3
 10
161.3134770147675
 20
168.1912457080258
 30
0.0
 11
161.28164694194291
 21
168.1912457080258
 31
0.0
  0
LINE
  5
F469
  8
3
 10
161.34985424085289
 20
168.1912457080258
 30
0.0
 11
161.3134770147675
 21
168.1912457080258
 31
0.0
  0
LINE
  5
F46A
  8
3
 10
161.3816843136776
 20
168.1912457080258
 30
0.0
 11
161.34985424085289
 21
168.1912457080258
 31
0.0
  0
LINE
  5
F46B
  8
3
 10
161.41806153976299
 20
168.19579286128649
 30
0.0
 11
161.3816843136776
 21
168.1912457080258
 31
0.0
  0
LINE
  5
F46C
  8
3
 10
161.44989161258769
 20
168.19579286128649
 30
0.0
 11
161.41806153976299
 21
168.19579286128649
 31
0.0
  0
LINE
  5
F46D
  8
3
 10
161.4817216854124
 20
168.20034001454721
 30
0.0
 11
161.44989161258769
 21
168.19579286128649
 31
0.0
  0
LINE
  5
F46E
  8
3
 10
161.5135517582371
 20
168.2094343210685
 30
0.0
 11
161.4817216854124
 21
168.20034001454721
 31
0.0
  0
LINE
  5
F46F
  8
3
 10
161.5453818310618
 20
168.21398147432919
 30
0.0
 11
161.5135517582371
 21
168.2094343210685
 31
0.0
  0
LINE
  5
F470
  8
3
 10
161.71362650170681
 20
168.1912457080258
 30
0.0
 11
161.70453219518541
 21
168.2594530069359
 31
0.0
  0
LINE
  5
F471
  8
3
 10
161.70453219518541
 20
168.33220745910671
 30
0.0
 11
161.70453219518541
 21
168.4049619112775
 31
0.0
  0
LINE
  5
F472
  8
3
 10
161.7090793484461
 20
168.47771636344831
 30
0.0
 11
161.7090793484461
 21
168.55047081561901
 31
0.0
  0
LINE
  5
F473
  8
3
 10
161.70453219518541
 20
168.4049619112775
 30
0.0
 11
161.7090793484461
 21
168.47771636344831
 31
0.0
  0
LINE
  5
F474
  8
3
 10
161.7181736549675
 20
168.84148862430209
 30
0.0
 11
161.7090793484461
 21
168.9142430764729
 31
0.0
  0
LINE
  5
F475
  8
3
 10
161.7090793484461
 20
168.9142430764729
 30
0.0
 11
161.69998504192469
 21
168.982450375383
 31
0.0
  0
LINE
  5
F476
  8
3
 10
162.50937832232461
 20
168.95516745581889
 30
0.0
 11
162.50937832232461
 21
168.95516745581889
 31
0.0
  0
LINE
  5
F477
  8
3
 10
161.681796428882
 20
169.0461105210324
 30
0.0
 11
161.65451350931809
 21
169.1097706666819
 31
0.0
  0
LINE
  5
F478
  8
3
 10
162.50483116906389
 20
169.0233747547291
 30
0.0
 11
162.50483116906389
 21
169.00063898842569
 31
0.0
  0
LINE
  5
F479
  8
3
 10
162.50028401580329
 20
169.0461105210324
 30
0.0
 11
162.50483116906389
 21
169.0233747547291
 31
0.0
  0
LINE
  5
F47A
  8
3
 10
162.4957368625426
 20
169.0642991340751
 30
0.0
 11
162.50028401580329
 21
169.0461105210324
 31
0.0
  0
LINE
  5
F47B
  8
3
 10
162.4957368625426
 20
169.08703490037851
 30
0.0
 11
162.4957368625426
 21
169.0642991340751
 31
0.0
  0
LINE
  5
F47C
  8
3
 10
162.491189709282
 20
169.1097706666819
 30
0.0
 11
162.4957368625426
 21
169.08703490037851
 31
0.0
  0
LINE
  5
F47D
  8
3
 10
162.48664255602131
 20
169.1325064329852
 30
0.0
 11
162.491189709282
 21
169.1097706666819
 31
0.0
  0
LINE
  5
F47E
  8
3
 10
162.48664255602131
 20
169.15524219928861
 30
0.0
 11
162.48664255602131
 21
169.1325064329852
 31
0.0
  0
LINE
  5
F47F
  8
3
 10
161.69998504192469
 20
168.982450375383
 30
0.0
 11
161.681796428882
 21
169.0461105210324
 31
0.0
  0
LINE
  5
F480
  8
3
 10
162.50483116906389
 20
169.00063898842569
 30
0.0
 11
162.50937832232461
 21
168.95516745581889
 31
0.0
  0
LINE
  5
F481
  8
3
 10
161.7181736549675
 20
168.77328132539211
 30
0.0
 11
161.7181736549675
 21
168.84148862430209
 31
0.0
  0
LINE
  5
F482
  8
3
 10
161.7181736549675
 20
168.70052687322129
 30
0.0
 11
161.7181736549675
 21
168.77328132539211
 31
0.0
  0
LINE
  5
F483
  8
3
 10
161.71362650170681
 20
168.62322526778979
 30
0.0
 11
161.7181736549675
 21
168.70052687322129
 31
0.0
  0
LINE
  5
F484
  8
3
 10
161.7090793484461
 20
168.55047081561901
 30
0.0
 11
161.71362650170681
 21
168.62322526778979
 31
0.0
  0
LINE
  5
F485
  8
3
 10
161.70453219518541
 20
168.2594530069359
 30
0.0
 11
161.70453219518541
 21
168.33220745910671
 31
0.0
  0
LINE
  5
F486
  8
3
 10
161.55447613758321
 20
167.01353301351139
 30
0.0
 11
161.6363248962754
 21
166.99079724720801
 31
0.0
  0
LINE
  5
F487
  8
3
 10
161.98645569734711
 20
167.172683377635
 30
0.0
 11
161.8000224136596
 21
167.172683377635
 31
0.0
  0
LINE
  5
F488
  8
3
 10
161.4589859191091
 20
167.16813622437419
 30
0.0
 11
161.3089298615069
 21
167.16813622437419
 31
0.0
  0
LINE
  5
F489
  8
3
 10
161.62723058975399
 20
167.16813622437419
 30
0.0
 11
161.4589859191091
 21
167.16813622437419
 31
0.0
  0
LINE
  5
F48A
  8
3
 10
161.8000224136596
 20
167.172683377635
 30
0.0
 11
161.62723058975399
 21
167.16813622437419
 31
0.0
  0
LINE
  5
F48B
  8
3
 10
162.1728889810349
 20
167.1772305308956
 30
0.0
 11
161.98645569734711
 21
167.172683377635
 31
0.0
  0
LINE
  5
F48C
  8
3
 10
162.3638694179831
 20
167.1772305308956
 30
0.0
 11
162.1728889810349
 21
167.1772305308956
 31
0.0
  0
LINE
  5
F48D
  8
3
 10
161.81366387344161
 20
168.0002652710775
 30
0.0
 11
162.0182857701719
 21
167.9911709645562
 31
0.0
  0
LINE
  5
F48E
  8
3
 10
162.51392547558541
 20
168.1139441025943
 30
0.0
 11
161.72726796148879
 21
168.12303840911571
 31
0.0
  0
LINE
  5
F48F
  8
3
 10
161.6226834364933
 20
168.00481242433821
 30
0.0
 11
161.81366387344161
 21
168.0002652710775
 31
0.0
  0
LINE
  5
F490
  8
3
 10
161.431702999545
 20
168.0093595775989
 30
0.0
 11
161.6226834364933
 21
168.00481242433821
 31
0.0
  0
LINE
  5
F491
  8
3
 10
161.2543640223787
 20
168.00481242433821
 30
0.0
 11
161.431702999545
 21
168.0093595775989
 31
0.0
  0
LINE
  5
F492
  8
3
 10
162.23654912668431
 20
167.98662381129549
 30
0.0
 11
162.350227958201
 21
167.9843502346651
 31
0.0
  0
LINE
  5
F493
  8
3
 10
162.0182857701719
 20
167.9911709645562
 30
0.0
 11
162.23654912668431
 21
167.98662381129549
 31
0.0
  0
LINE
  5
F494
  8
3
 10
161.51809891149779
 20
167.02262732003271
 30
0.0
 11
161.55447613758321
 21
167.01353301351139
 31
0.0
  0
LINE
  5
F495
  8
3
 10
161.47717453215179
 20
167.03172162655409
 30
0.0
 11
161.51809891149779
 21
167.02262732003271
 31
0.0
  0
LINE
  5
F496
  8
3
 10
161.43625015280571
 20
167.0362687798148
 30
0.0
 11
161.47717453215179
 21
167.03172162655409
 31
0.0
  0
LINE
  5
F497
  8
3
 10
161.3953257734596
 20
167.0453630863361
 30
0.0
 11
161.43625015280571
 21
167.0362687798148
 31
0.0
  0
LINE
  5
F498
  8
3
 10
161.35440139411349
 20
167.04991023959681
 30
0.0
 11
161.3953257734596
 21
167.0453630863361
 31
0.0
  0
LINE
  5
F499
  8
3
 10
161.31802416802819
 20
167.04991023959681
 30
0.0
 11
161.35440139411349
 21
167.04991023959681
 31
0.0
  0
LINE
  5
F49A
  8
3
 10
161.27709978868211
 20
167.05445739285739
 30
0.0
 11
161.31802416802819
 21
167.04991023959681
 31
0.0
  0
LINE
  5
F49B
  8
3
 10
162.25473773972689
 20
169.66452336448401
 30
0.0
 11
162.2683791995089
 21
169.65542905796269
 31
0.0
  0
LINE
  5
F49C
  8
3
 10
162.2456434332056
 20
169.6781648242661
 30
0.0
 11
162.25473773972689
 21
169.66452336448401
 31
0.0
  0
LINE
  5
F49D
  8
3
 10
162.23654912668431
 20
169.69180628404811
 30
0.0
 11
162.2456434332056
 21
169.6781648242661
 31
0.0
  0
LINE
  5
F49E
  8
3
 10
162.22290766690219
 20
169.70544774383009
 30
0.0
 11
162.23654912668431
 21
169.69180628404811
 31
0.0
  0
LINE
  5
F49F
  8
3
 10
162.21381336038081
 20
169.7190892036121
 30
0.0
 11
162.22290766690219
 21
169.70544774383009
 31
0.0
  0
LINE
  5
F4A0
  8
3
 10
162.1956247473382
 20
169.74182496991551
 30
0.0
 11
162.20471905385949
 21
169.7281835101335
 31
0.0
  0
LINE
  5
F4A1
  8
3
 10
162.1865304408168
 20
169.75546642969749
 30
0.0
 11
162.1956247473382
 21
169.74182496991551
 31
0.0
  0
LINE
  5
F4A2
  8
3
 10
162.17743613429539
 20
169.7691078894795
 30
0.0
 11
162.1865304408168
 21
169.75546642969749
 31
0.0
  0
LINE
  5
F4A3
  8
3
 10
162.03192722995391
 20
169.90097533403909
 30
0.0
 11
162.17743613429539
 21
169.7691078894795
 31
0.0
  0
LINE
  5
F4A4
  8
3
 10
162.00009715712909
 20
169.9191639470817
 30
0.0
 11
162.03192722995391
 21
169.90097533403909
 31
0.0
  0
LINE
  5
F4A5
  8
3
 10
161.98645569734711
 20
169.92371110034239
 30
0.0
 11
162.00009715712909
 21
169.9191639470817
 31
0.0
  0
LINE
  5
F4A6
  8
3
 10
161.97736139082579
 20
169.93280540686379
 30
0.0
 11
161.98645569734711
 21
169.92371110034239
 31
0.0
  0
LINE
  5
F4A7
  8
3
 10
161.96371993104381
 20
169.9418997133852
 30
0.0
 11
161.97736139082579
 21
169.93280540686379
 31
0.0
  0
LINE
  5
F4A8
  8
3
 10
161.95007847126169
 20
169.95099401990649
 30
0.0
 11
161.96371993104381
 21
169.9418997133852
 31
0.0
  0
LINE
  5
F4A9
  8
3
 10
161.94098416474051
 20
169.95554117316709
 30
0.0
 11
161.95007847126169
 21
169.95099401990649
 31
0.0
  0
LINE
  5
F4AA
  8
3
 10
161.92734270495839
 20
169.9646354796885
 30
0.0
 11
161.94098416474051
 21
169.95554117316709
 31
0.0
  0
LINE
  5
F4AB
  8
3
 10
161.91370124517641
 20
169.97372978620979
 30
0.0
 11
161.92734270495839
 21
169.9646354796885
 31
0.0
  0
LINE
  5
F4AC
  8
3
 10
161.9000597853944
 20
169.98282409273119
 30
0.0
 11
161.91370124517641
 21
169.97372978620979
 31
0.0
  0
LINE
  5
F4AD
  8
3
 10
161.8909654788732
 20
169.99191839925251
 30
0.0
 11
161.9000597853944
 21
169.98282409273119
 31
0.0
  0
LINE
  5
F4AE
  8
3
 10
161.87732401909099
 20
170.00101270577389
 30
0.0
 11
161.8909654788732
 21
169.99191839925251
 31
0.0
  0
LINE
  5
F4AF
  8
3
 10
161.83639963974491
 20
170.0282956253379
 30
0.0
 11
161.850041099527
 21
170.01920131881661
 31
0.0
  0
LINE
  5
F4B0
  8
3
 10
161.8227581799629
 20
170.0373899318592
 30
0.0
 11
161.83639963974491
 21
170.0282956253379
 31
0.0
  0
LINE
  5
F4B1
  8
3
 10
161.681796428882
 20
170.096502924248
 30
0.0
 11
161.8227581799629
 21
170.0373899318592
 31
0.0
  0
LINE
  5
F4B2
  8
3
 10
161.60904197671121
 20
170.11923869055141
 30
0.0
 11
161.681796428882
 21
170.096502924248
 31
0.0
  0
LINE
  5
F4B3
  8
3
 10
161.5408346778012
 20
170.13742730359411
 30
0.0
 11
161.60904197671121
 21
170.11923869055141
 31
0.0
  0
LINE
  5
F4B4
  8
3
 10
161.4635330723697
 20
170.1556159166368
 30
0.0
 11
161.5408346778012
 21
170.13742730359411
 31
0.0
  0
LINE
  5
F4B5
  8
3
 10
161.39077862019889
 20
170.1647102231581
 30
0.0
 11
161.4635330723697
 21
170.1556159166368
 31
0.0
  0
LINE
  5
F4B6
  8
3
 10
161.31802416802819
 20
170.1738045296795
 30
0.0
 11
161.39077862019889
 21
170.1647102231581
 31
0.0
  0
LINE
  5
F4B7
  8
3
 10
161.2452697158574
 20
170.1738045296795
 30
0.0
 11
161.31802416802819
 21
170.1738045296795
 31
0.0
  0
LINE
  5
F4B8
  8
3
 10
161.850041099527
 20
170.01920131881661
 30
0.0
 11
161.86368255930901
 21
170.01010701229521
 31
0.0
  0
LINE
  5
F4B9
  8
3
 10
161.86368255930901
 20
170.01010701229521
 30
0.0
 11
161.87732401909099
 21
170.00101270577389
 31
0.0
  0
LINE
  5
F4BA
  8
3
 10
162.20471905385949
 20
169.7281835101335
 30
0.0
 11
162.21381336038081
 21
169.7190892036121
 31
0.0
  0
LINE
  5
F4BB
  8
3
 10
162.2683791995089
 20
169.65542905796269
 30
0.0
 11
162.2774735060303
 21
169.64178759818071
 31
0.0
  0
LINE
  5
F4BC
  8
3
 10
160.7587243169653
 20
168.0093595775989
 30
0.0
 11
160.72234709087991
 21
168.01845388412019
 31
0.0
  0
LINE
  5
F4BD
  8
3
 10
160.74508285718329
 20
167.11811753850691
 30
0.0
 11
160.71325278435859
 21
167.10902323198559
 31
0.0
  0
LINE
  5
F4BE
  8
3
 10
160.5586495734957
 20
167.9093222058641
 30
0.0
 11
160.7314413974012
 21
167.9502465852101
 31
0.0
  0
LINE
  5
F4BF
  8
3
 10
160.71325278435859
 20
167.10902323198559
 30
0.0
 11
160.68596986479449
 21
167.09992892546421
 31
0.0
  0
LINE
  5
F4C0
  8
3
 10
160.72234709087991
 20
168.01845388412019
 30
0.0
 11
160.68596986479449
 21
168.02300103738091
 31
0.0
  0
LINE
  5
F4C1
  8
3
 10
160.6586869452305
 20
167.09083461894281
 30
0.0
 11
160.63140402566651
 21
167.08174031242149
 31
0.0
  0
LINE
  5
F4C2
  8
3
 10
160.64959263870921
 20
168.0320953439022
 30
0.0
 11
160.61321541262379
 21
168.03664249716289
 31
0.0
  0
LINE
  5
F4C3
  8
3
 10
160.5768381865384
 20
167.06355169937879
 30
0.0
 11
160.54955526697441
 21
167.05445739285739
 31
0.0
  0
LINE
  5
F4C4
  8
3
 10
160.6041211061023
 20
167.07264600590011
 30
0.0
 11
160.5768381865384
 21
167.06355169937879
 31
0.0
  0
LINE
  5
F4C5
  8
3
 10
160.38585774959009
 20
167.85930351999659
 30
0.0
 11
160.5586495734957
 21
167.9093222058641
 31
0.0
  0
LINE
  5
F4C6
  8
3
 10
160.44497074197889
 20
168.0593782634663
 30
0.0
 11
160.39949920937221
 21
168.06392541672699
 31
0.0
  0
LINE
  5
F4C7
  8
3
 10
160.485895121325
 20
168.05483111020561
 30
0.0
 11
160.44497074197889
 21
168.0593782634663
 31
0.0
  0
LINE
  5
F4C8
  8
3
 10
160.5313666539316
 20
168.0502839569449
 30
0.0
 11
160.485895121325
 21
168.05483111020561
 31
0.0
  0
LINE
  5
F4C9
  8
3
 10
160.57229103327779
 20
168.0411896504236
 30
0.0
 11
160.5313666539316
 21
168.0502839569449
 31
0.0
  0
LINE
  5
F4CA
  8
3
 10
160.47225366154291
 20
167.02262732003271
 30
0.0
 11
160.4313292821968
 21
166.9953444004687
 31
0.0
  0
LINE
  5
F4CB
  8
3
 10
160.49953658110701
 20
167.03172162655409
 30
0.0
 11
160.47225366154291
 21
167.02262732003271
 31
0.0
  0
LINE
  5
F4CC
  8
3
 10
160.52227234741031
 20
167.04081593307541
 30
0.0
 11
160.49953658110701
 21
167.03172162655409
 31
0.0
  0
LINE
  5
F4CD
  8
3
 10
160.54955526697441
 20
167.05445739285739
 30
0.0
 11
160.52227234741031
 21
167.04081593307541
 31
0.0
  0
LINE
  5
F4CE
  8
3
 10
160.63140402566651
 20
167.08174031242149
 30
0.0
 11
160.6041211061023
 21
167.07264600590011
 31
0.0
  0
LINE
  5
F4CF
  8
3
 10
160.61321541262379
 20
168.03664249716289
 30
0.0
 11
160.57229103327779
 21
168.0411896504236
 31
0.0
  0
LINE
  5
F4D0
  8
3
 10
160.68596986479449
 20
167.09992892546421
 30
0.0
 11
160.6586869452305
 21
167.09083461894281
 31
0.0
  0
LINE
  5
F4D1
  8
3
 10
160.68596986479449
 20
168.02300103738091
 30
0.0
 11
160.64959263870921
 21
168.0320953439022
 31
0.0
  0
LINE
  5
F4D2
  8
3
 10
161.00881774630241
 20
169.11431781994261
 30
0.0
 11
161.0042705930417
 21
169.2416381112414
 31
0.0
  0
LINE
  5
F4D3
  8
3
 10
160.88149745500351
 20
169.1825251188526
 30
0.0
 11
160.84512022891809
 21
169.1097706666819
 31
0.0
  0
LINE
  5
F4D4
  8
3
 10
160.931516140871
 20
169.2507324177628
 30
0.0
 11
160.92696898761031
 21
169.2416381112414
 31
0.0
  0
LINE
  5
F4D5
  8
3
 10
160.9360632941316
 20
169.2507324177628
 30
0.0
 11
160.931516140871
 21
169.2507324177628
 31
0.0
  0
LINE
  5
F4D6
  8
3
 10
160.94515760065289
 20
169.25527957102341
 30
0.0
 11
160.9360632941316
 21
169.2507324177628
 31
0.0
  0
LINE
  5
F4D7
  8
3
 10
160.94970475391361
 20
169.2598267242841
 30
0.0
 11
160.94515760065289
 21
169.25527957102341
 31
0.0
  0
LINE
  5
F4D8
  8
3
 10
160.9542519071743
 20
169.2598267242841
 30
0.0
 11
160.94970475391361
 21
169.2598267242841
 31
0.0
  0
LINE
  5
F4D9
  8
3
 10
160.9587990604349
 20
169.26437387754481
 30
0.0
 11
160.9542519071743
 21
169.2598267242841
 31
0.0
  0
LINE
  5
F4DA
  8
3
 10
160.96789336695619
 20
169.26437387754481
 30
0.0
 11
160.9587990604349
 21
169.26437387754481
 31
0.0
  0
LINE
  5
F4DB
  8
3
 10
160.97244052021699
 20
169.2689210308055
 30
0.0
 11
160.96789336695619
 21
169.26437387754481
 31
0.0
  0
LINE
  5
F4DC
  8
3
 10
160.97698767347759
 20
169.2689210308055
 30
0.0
 11
160.97244052021699
 21
169.2689210308055
 31
0.0
  0
LINE
  5
F4DD
  8
3
 10
160.9815348267384
 20
169.2689210308055
 30
0.0
 11
160.97698767347759
 21
169.2689210308055
 31
0.0
  0
LINE
  5
F4DE
  8
3
 10
160.99062913325969
 20
169.26437387754481
 30
0.0
 11
160.9815348267384
 21
169.2689210308055
 31
0.0
  0
LINE
  5
F4DF
  8
3
 10
160.99517628652029
 20
169.26437387754481
 30
0.0
 11
160.99062913325969
 21
169.26437387754481
 31
0.0
  0
LINE
  5
F4E0
  8
3
 10
160.99517628652029
 20
169.2598267242841
 30
0.0
 11
160.99517628652029
 21
169.26437387754481
 31
0.0
  0
LINE
  5
F4E1
  8
3
 10
160.99972343978101
 20
169.2507324177628
 30
0.0
 11
160.99517628652029
 21
169.2598267242841
 31
0.0
  0
LINE
  5
F4E2
  8
3
 10
161.0042705930417
 20
169.2416381112414
 30
0.0
 11
160.99972343978101
 21
169.2507324177628
 31
0.0
  0
LINE
  5
F4E3
  8
3
 10
160.92696898761031
 20
169.2416381112414
 30
0.0
 11
160.88149745500351
 21
169.1825251188526
 31
0.0
  0
LINE
  5
F4E4
  8
3
 10
160.78146008326871
 20
168.15032132867969
 30
0.0
 11
160.7860072365294
 21
168.08666118303029
 31
0.0
  0
LINE
  5
F4E5
  8
3
 10
161.00881774630241
 20
168.24581154715389
 30
0.0
 11
161.0042705930417
 21
168.3094716928033
 31
0.0
  0
LINE
  5
F4E6
  8
3
 10
161.01336489956299
 20
168.18215140150451
 30
0.0
 11
161.00881774630241
 21
168.24581154715389
 31
0.0
  0
LINE
  5
F4E7
  8
3
 10
161.07702504521251
 20
168.1912457080258
 30
0.0
 11
161.01336489956299
 21
168.18215140150451
 31
0.0
  0
LINE
  5
F4E8
  8
3
 10
161.10885511803721
 20
168.1912457080258
 30
0.0
 11
161.07702504521251
 21
168.1912457080258
 31
0.0
  0
LINE
  5
F4E9
  8
3
 10
161.14068519086189
 20
168.1912457080258
 30
0.0
 11
161.10885511803721
 21
168.1912457080258
 31
0.0
  0
LINE
  5
F4EA
  8
3
 10
161.17706241694731
 20
168.1912457080258
 30
0.0
 11
161.14068519086189
 21
168.1912457080258
 31
0.0
  0
LINE
  5
F4EB
  8
3
 10
161.2134396430327
 20
168.1912457080258
 30
0.0
 11
161.17706241694731
 21
168.1912457080258
 31
0.0
  0
LINE
  5
F4EC
  8
3
 10
160.776912930008
 20
168.22307578085051
 30
0.0
 11
160.78146008326871
 21
168.15032132867969
 31
0.0
  0
LINE
  5
F4ED
  8
3
 10
160.77236577674739
 20
168.30037738628201
 30
0.0
 11
160.776912930008
 21
168.22307578085051
 31
0.0
  0
LINE
  5
F4EE
  8
3
 10
161.0042705930417
 20
168.5049992830123
 30
0.0
 11
161.0042705930417
 21
168.57320658192239
 31
0.0
  0
LINE
  5
F4EF
  8
3
 10
161.0042705930417
 20
168.44133913736289
 30
0.0
 11
161.0042705930417
 21
168.5049992830123
 31
0.0
  0
LINE
  5
F4F0
  8
3
 10
161.0042705930417
 20
168.37313183845271
 30
0.0
 11
161.0042705930417
 21
168.44133913736289
 31
0.0
  0
LINE
  5
F4F1
  8
3
 10
160.76327147022599
 20
168.47771636344831
 30
0.0
 11
160.7678186234867
 21
168.3867732982348
 31
0.0
  0
LINE
  5
F4F2
  8
3
 10
160.76327147022599
 20
168.5686594286617
 30
0.0
 11
160.76327147022599
 21
168.47771636344831
 31
0.0
  0
LINE
  5
F4F3
  8
3
 10
161.00881774630241
 20
168.8460357775628
 30
0.0
 11
161.00881774630241
 21
168.9142430764729
 31
0.0
  0
LINE
  5
F4F4
  8
3
 10
161.00881774630241
 20
168.9142430764729
 30
0.0
 11
161.00881774630241
 21
168.982450375383
 31
0.0
  0
LINE
  5
F4F5
  8
3
 10
161.00881774630241
 20
169.0461105210324
 30
0.0
 11
161.00881774630241
 21
169.11431781994261
 31
0.0
  0
LINE
  5
F4F6
  8
3
 10
161.00881774630241
 20
168.982450375383
 30
0.0
 11
161.00881774630241
 21
169.0461105210324
 31
0.0
  0
LINE
  5
F4F7
  8
3
 10
160.84512022891809
 20
169.1097706666819
 30
0.0
 11
160.81329015609339
 21
169.02792190798971
 31
0.0
  0
LINE
  5
F4F8
  8
3
 10
160.81329015609339
 20
169.02792190798971
 30
0.0
 11
160.79510154305081
 21
168.94152599603689
 31
0.0
  0
LINE
  5
F4F9
  8
3
 10
161.0042705930417
 20
168.77782847865271
 30
0.0
 11
161.00881774630241
 21
168.8460357775628
 31
0.0
  0
LINE
  5
F4FA
  8
3
 10
161.0042705930417
 20
168.70962117974261
 30
0.0
 11
161.0042705930417
 21
168.77782847865271
 31
0.0
  0
LINE
  5
F4FB
  8
3
 10
161.0042705930417
 20
168.64141388083249
 30
0.0
 11
161.0042705930417
 21
168.70962117974261
 31
0.0
  0
LINE
  5
F4FC
  8
3
 10
160.7678186234867
 20
168.75963986561001
 30
0.0
 11
160.76327147022599
 21
168.6641496471359
 31
0.0
  0
LINE
  5
F4FD
  8
3
 10
160.776912930008
 20
168.85058293082349
 30
0.0
 11
160.7678186234867
 21
168.75963986561001
 31
0.0
  0
LINE
  5
F4FE
  8
3
 10
160.79510154305081
 20
168.94152599603689
 30
0.0
 11
160.776912930008
 21
168.85058293082349
 31
0.0
  0
LINE
  5
F4FF
  8
3
 10
161.0042705930417
 20
168.57320658192239
 30
0.0
 11
161.0042705930417
 21
168.64141388083249
 31
0.0
  0
LINE
  5
F500
  8
3
 10
160.76327147022599
 20
168.6641496471359
 30
0.0
 11
160.76327147022599
 21
168.5686594286617
 31
0.0
  0
LINE
  5
F501
  8
3
 10
161.0042705930417
 20
168.3094716928033
 30
0.0
 11
161.0042705930417
 21
168.37313183845271
 31
0.0
  0
LINE
  5
F502
  8
3
 10
160.7678186234867
 20
168.3867732982348
 30
0.0
 11
160.77236577674739
 21
168.30037738628201
 31
0.0
  0
LINE
  5
F503
  8
3
 10
160.8041958495721
 20
166.99079724720801
 30
0.0
 11
160.86330884196079
 21
167.0089858602507
 31
0.0
  0
LINE
  5
F504
  8
3
 10
161.05883643216981
 20
167.1590419178529
 30
0.0
 11
160.96789336695619
 21
167.1590419178529
 31
0.0
  0
LINE
  5
F505
  8
3
 10
161.17251526368671
 20
167.16358907111359
 30
0.0
 11
161.05883643216981
 21
167.1590419178529
 31
0.0
  0
LINE
  5
F506
  8
3
 10
160.96789336695619
 20
167.1590419178529
 30
0.0
 11
160.86330884196079
 21
167.14994761133161
 31
0.0
  0
LINE
  5
F507
  8
3
 10
160.83147876913611
 20
167.1454004580709
 30
0.0
 11
160.8041958495721
 21
167.1363061515496
 31
0.0
  0
LINE
  5
F508
  8
3
 10
160.86330884196079
 20
167.14994761133161
 30
0.0
 11
160.83147876913611
 21
167.1454004580709
 31
0.0
  0
LINE
  5
F509
  8
3
 10
160.9042332213069
 20
167.9775295047742
 30
0.0
 11
161.07702504521251
 21
167.99571811781681
 31
0.0
  0
LINE
  5
F50A
  8
3
 10
160.77236577674739
 20
167.1272118450282
 30
0.0
 11
160.74508285718329
 21
167.11811753850691
 31
0.0
  0
LINE
  5
F50B
  8
3
 10
160.79055438979009
 20
167.99571811781681
 30
0.0
 11
160.7587243169653
 21
168.0093595775989
 31
0.0
  0
LINE
  5
F50C
  8
3
 10
160.7860072365294
 20
168.08666118303029
 30
0.0
 11
160.79055438979009
 21
167.99571811781681
 31
0.0
  0
LINE
  5
F50D
  8
3
 10
160.8041958495721
 20
167.1363061515496
 30
0.0
 11
160.77236577674739
 21
167.1272118450282
 31
0.0
  0
LINE
  5
F50E
  8
3
 10
160.7314413974012
 20
167.9502465852101
 30
0.0
 11
160.9042332213069
 21
167.9775295047742
 31
0.0
  0
LINE
  5
F50F
  8
3
 10
160.86330884196079
 20
167.0089858602507
 30
0.0
 11
160.986081979999
 21
167.04081593307541
 31
0.0
  0
LINE
  5
F510
  8
3
 10
161.19525102999
 20
167.05445739285739
 30
0.0
 11
161.236175409336
 21
167.05445739285739
 31
0.0
  0
LINE
  5
F511
  8
3
 10
161.14977949738321
 20
167.05445739285739
 30
0.0
 11
161.19525102999
 21
167.05445739285739
 31
0.0
  0
LINE
  5
F512
  8
3
 10
161.10885511803721
 20
167.05445739285739
 30
0.0
 11
161.14977949738321
 21
167.05445739285739
 31
0.0
  0
LINE
  5
F513
  8
3
 10
161.06793073869119
 20
167.04991023959681
 30
0.0
 11
161.10885511803721
 21
167.05445739285739
 31
0.0
  0
LINE
  5
F514
  8
3
 10
161.02700635934511
 20
167.04991023959681
 30
0.0
 11
161.06793073869119
 21
167.04991023959681
 31
0.0
  0
LINE
  5
F515
  8
3
 10
160.986081979999
 20
167.04081593307541
 30
0.0
 11
161.02700635934511
 21
167.04991023959681
 31
0.0
  0
LINE
  5
F516
  8
3
 10
160.66778125175179
 20
170.0373899318592
 30
0.0
 11
160.735988550662
 21
170.07376715794459
 31
0.0
  0
LINE
  5
F517
  8
3
 10
160.6359511789272
 20
170.01920131881661
 30
0.0
 11
160.64504548544861
 21
170.0237484720773
 31
0.0
  0
LINE
  5
F518
  8
3
 10
160.62230971914511
 20
170.01010701229521
 30
0.0
 11
160.6359511789272
 21
170.01920131881661
 31
0.0
  0
LINE
  5
F519
  8
3
 10
160.61321541262379
 20
170.00555985903461
 30
0.0
 11
160.62230971914511
 21
170.01010701229521
 31
0.0
  0
LINE
  5
F51A
  8
3
 10
160.64504548544861
 20
170.0237484720773
 30
0.0
 11
160.66778125175179
 21
170.0373899318592
 31
0.0
  0
LINE
  5
F51B
  8
3
 10
160.5904796463204
 20
169.99191839925251
 30
0.0
 11
160.59957395284169
 21
170.00101270577389
 31
0.0
  0
LINE
  5
F51C
  8
3
 10
160.5768381865384
 20
169.9873712459918
 30
0.0
 11
160.5904796463204
 21
169.99191839925251
 31
0.0
  0
LINE
  5
F51D
  8
3
 10
160.56319672675639
 20
169.98282409273119
 30
0.0
 11
160.5768381865384
 21
169.9873712459918
 31
0.0
  0
LINE
  5
F51E
  8
3
 10
160.55410242023501
 20
169.97372978620979
 30
0.0
 11
160.56319672675639
 21
169.98282409273119
 31
0.0
  0
LINE
  5
F51F
  8
3
 10
160.54500811371369
 20
169.96918263294921
 30
0.0
 11
160.55410242023501
 21
169.97372978620979
 31
0.0
  0
LINE
  5
F520
  8
3
 10
160.5359138071924
 20
169.96008832642781
 30
0.0
 11
160.54500811371369
 21
169.96918263294921
 31
0.0
  0
LINE
  5
F521
  8
3
 10
160.52227234741031
 20
169.95099401990649
 30
0.0
 11
160.5359138071924
 21
169.96008832642781
 31
0.0
  0
LINE
  5
F522
  8
3
 10
160.51772519414959
 20
169.9464468666458
 30
0.0
 11
160.52227234741031
 21
169.95099401990649
 31
0.0
  0
LINE
  5
F523
  8
3
 10
160.50863088762819
 20
169.93735256012451
 30
0.0
 11
160.51772519414959
 21
169.9464468666458
 31
0.0
  0
LINE
  5
F524
  8
3
 10
160.50408373436761
 20
169.92371110034239
 30
0.0
 11
160.50863088762819
 21
169.93735256012451
 31
0.0
  0
LINE
  5
F525
  8
3
 10
160.45406504850021
 20
169.8964281807784
 30
0.0
 11
160.50408373436761
 21
169.92371110034239
 31
0.0
  0
LINE
  5
F526
  8
3
 10
160.4313292821968
 20
169.8782395677357
 30
0.0
 11
160.45406504850021
 21
169.8964281807784
 31
0.0
  0
LINE
  5
F527
  8
3
 10
160.40859351589339
 20
169.86005095469301
 30
0.0
 11
160.4313292821968
 21
169.8782395677357
 31
0.0
  0
LINE
  5
F528
  8
3
 10
160.38585774959009
 20
169.84186234165031
 30
0.0
 11
160.40859351589339
 21
169.86005095469301
 31
0.0
  0
LINE
  5
F529
  8
3
 10
160.59957395284169
 20
170.00101270577389
 30
0.0
 11
160.61321541262379
 21
170.00555985903461
 31
0.0
  0
LINE
  5
F52A
  8
3
 10
161.0952136582552
 20
170.16925737641881
 30
0.0
 11
161.16796811042599
 21
170.1738045296795
 31
0.0
  0
LINE
  5
F52B
  8
3
 10
161.02245920608439
 20
170.1556159166368
 30
0.0
 11
161.0952136582552
 21
170.16925737641881
 31
0.0
  0
LINE
  5
F52C
  8
3
 10
160.94515760065289
 20
170.14197445685471
 30
0.0
 11
161.02245920608439
 21
170.1556159166368
 31
0.0
  0
LINE
  5
F52D
  8
3
 10
160.8769503017428
 20
170.12378584381199
 30
0.0
 11
160.94515760065289
 21
170.14197445685471
 31
0.0
  0
LINE
  5
F52E
  8
3
 10
160.8041958495721
 20
170.10105007750869
 30
0.0
 11
160.8769503017428
 21
170.12378584381199
 31
0.0
  0
LINE
  5
F52F
  8
3
 10
160.735988550662
 20
170.07376715794459
 30
0.0
 11
160.8041958495721
 21
170.10105007750869
 31
0.0
  0
LINE
  5
F530
  8
3
 10
161.16796811042599
 20
170.1738045296795
 30
0.0
 11
161.2452697158574
 21
170.1738045296795
 31
0.0
  0
LINE
  5
F531
  8
3
 10
161.2452697158574
 20
168.1912457080258
 30
0.0
 11
161.2134396430327
 21
168.1912457080258
 31
0.0
  0
LINE
  5
F532
  8
3
 10
161.3089298615069
 20
167.16813622437419
 30
0.0
 11
161.17251526368671
 21
167.16358907111359
 31
0.0
  0
LINE
  5
F533
  8
3
 10
161.07702504521251
 20
167.99571811781681
 30
0.0
 11
161.2543640223787
 21
168.00481242433821
 31
0.0
  0
LINE
  5
F534
  8
3
 10
161.236175409336
 20
167.05445739285739
 30
0.0
 11
161.27709978868211
 21
167.05445739285739
 31
0.0
  0
LINE
  5
F535
  8
3
 10
163.25554589846939
 20
167.186324837417
 30
0.0
 11
163.1009426876065
 21
167.186324837417
 31
0.0
  0
LINE
  5
F536
  8
3
 10
162.73673598535831
 20
167.18177768415629
 30
0.0
 11
162.55030270167069
 21
167.18177768415629
 31
0.0
  0
LINE
  5
F537
  8
3
 10
162.90952780926381
 20
167.18177768415629
 30
0.0
 11
162.73673598535831
 21
167.18177768415629
 31
0.0
  0
LINE
  5
F538
  8
3
 10
163.1009426876065
 20
167.186324837417
 30
0.0
 11
162.90952780926381
 21
167.18177768415629
 31
0.0
  0
LINE
  5
F539
  8
3
 10
163.25554589846939
 20
167.186324837417
 30
0.0
 11
163.25554589846939
 21
167.99906266533881
 31
0.0
  0
LINE
  5
F53A
  8
3
 10
160.9133275278283
 20
162.82105770717041
 30
0.0
 11
160.9133275278283
 21
162.18445625067611
 31
0.0
  0
LINE
  5
F53B
  8
3
 10
160.9133275278283
 20
162.18445625067611
 30
0.0
 11
160.9042332213069
 21
162.1799090974155
 31
0.0
  0
LINE
  5
F53C
  8
3
 10
160.9042332213069
 20
162.1799090974155
 30
0.0
 11
160.89513891478549
 21
162.1753619441547
 31
0.0
  0
LINE
  5
F53D
  8
3
 10
160.89513891478549
 20
162.1753619441547
 30
0.0
 11
160.89059176152489
 21
162.1753619441547
 31
0.0
  0
LINE
  5
F53E
  8
3
 10
160.89059176152489
 20
162.1753619441547
 30
0.0
 11
160.88149745500351
 21
162.1753619441547
 31
0.0
  0
LINE
  5
F53F
  8
3
 10
160.88149745500351
 20
162.1753619441547
 30
0.0
 11
160.8769503017428
 21
162.1799090974155
 31
0.0
  0
LINE
  5
F540
  8
3
 10
160.8769503017428
 20
162.1799090974155
 30
0.0
 11
160.86785599522159
 21
162.18445625067611
 31
0.0
  0
LINE
  5
F541
  8
3
 10
160.86785599522159
 20
162.18445625067611
 30
0.0
 11
160.8587616887001
 21
162.18900340393679
 31
0.0
  0
LINE
  5
F542
  8
3
 10
160.8587616887001
 20
162.18900340393679
 30
0.0
 11
160.84966738217881
 21
162.19809771045809
 31
0.0
  0
LINE
  5
F543
  8
3
 10
160.84966738217881
 20
162.19809771045809
 30
0.0
 11
160.84512022891809
 21
162.20719201697949
 31
0.0
  0
LINE
  5
F544
  8
3
 10
160.84512022891809
 20
162.20719201697949
 30
0.0
 11
160.8360259223968
 21
162.21628632350081
 31
0.0
  0
LINE
  5
F545
  8
3
 10
160.8360259223968
 20
162.21628632350081
 30
0.0
 11
160.8269316158754
 21
162.22538063002219
 31
0.0
  0
LINE
  5
F546
  8
3
 10
160.8269316158754
 20
162.22538063002219
 30
0.0
 11
160.81783730935399
 21
162.23447493654351
 31
0.0
  0
LINE
  5
F547
  8
3
 10
160.81783730935399
 20
162.23447493654351
 30
0.0
 11
160.81329015609339
 21
162.24356924306491
 31
0.0
  0
LINE
  5
F548
  8
3
 10
160.81329015609339
 20
162.24356924306491
 30
0.0
 11
160.8041958495721
 21
162.2526635495862
 31
0.0
  0
LINE
  5
F549
  8
3
 10
160.8041958495721
 20
162.2526635495862
 30
0.0
 11
160.79055438979009
 21
162.26630500936821
 31
0.0
  0
LINE
  5
F54A
  8
3
 10
160.79055438979009
 20
162.26630500936821
 30
0.0
 11
160.77236577674739
 21
162.29358792893231
 31
0.0
  0
LINE
  5
F54B
  8
3
 10
160.77236577674739
 20
162.29358792893231
 30
0.0
 11
160.7541771637047
 21
162.32541800175699
 31
0.0
  0
LINE
  5
F54C
  8
3
 10
160.7541771637047
 20
162.32541800175699
 30
0.0
 11
160.7405357039226
 21
162.352700921321
 31
0.0
  0
LINE
  5
F54D
  8
3
 10
160.7405357039226
 20
162.352700921321
 30
0.0
 11
160.7314413974012
 21
162.37998384088499
 31
0.0
  0
LINE
  5
F54E
  8
3
 10
160.7314413974012
 20
162.37998384088499
 30
0.0
 11
160.72234709087991
 21
162.41181391370981
 31
0.0
  0
LINE
  5
F54F
  8
3
 10
160.72234709087991
 20
162.41181391370981
 30
0.0
 11
160.71325278435859
 21
162.43909683327391
 31
0.0
  0
LINE
  5
F550
  8
3
 10
160.71325278435859
 20
162.43909683327391
 30
0.0
 11
160.70415847783721
 21
162.4709269060985
 31
0.0
  0
LINE
  5
F551
  8
3
 10
160.70415847783721
 20
162.4709269060985
 30
0.0
 11
160.69961132457661
 21
162.50275697892329
 31
0.0
  0
LINE
  5
F552
  8
3
 10
160.69961132457661
 20
162.50275697892329
 30
0.0
 11
160.69506417131589
 21
162.53458705174791
 31
0.0
  0
LINE
  5
F553
  8
3
 10
160.69506417131589
 20
162.53458705174791
 30
0.0
 11
160.69506417131589
 21
162.56641712457269
 31
0.0
  0
LINE
  5
F554
  8
3
 10
160.69506417131589
 20
162.56641712457269
 30
0.0
 11
160.69506417131589
 21
162.5982471973974
 31
0.0
  0
LINE
  5
F555
  8
3
 10
160.69506417131589
 20
162.5982471973974
 30
0.0
 11
160.69506417131589
 21
162.6300772702221
 31
0.0
  0
LINE
  5
F556
  8
3
 10
160.69506417131589
 20
162.6300772702221
 30
0.0
 11
160.69961132457661
 21
162.65736018978609
 31
0.0
  0
LINE
  5
F557
  8
3
 10
160.69961132457661
 20
162.65736018978609
 30
0.0
 11
160.70415847783721
 21
162.68919026261091
 31
0.0
  0
LINE
  5
F558
  8
3
 10
160.70415847783721
 20
162.68919026261091
 30
0.0
 11
160.7177999376193
 21
162.7483032549996
 31
0.0
  0
LINE
  5
F559
  8
3
 10
160.7177999376193
 20
162.7483032549996
 30
0.0
 11
160.72234709087991
 21
162.76194471478169
 31
0.0
  0
LINE
  5
F55A
  8
3
 10
160.72234709087991
 20
162.76194471478169
 30
0.0
 11
160.7268942441406
 21
162.77103902130301
 31
0.0
  0
LINE
  5
F55B
  8
3
 10
160.7268942441406
 20
162.77103902130301
 30
0.0
 11
160.7314413974012
 21
162.78468048108499
 31
0.0
  0
LINE
  5
F55C
  8
3
 10
160.7314413974012
 20
162.78468048108499
 30
0.0
 11
160.7405357039226
 21
162.79377478760631
 31
0.0
  0
LINE
  5
F55D
  8
3
 10
160.7405357039226
 20
162.79377478760631
 30
0.0
 11
160.74508285718329
 21
162.80286909412769
 31
0.0
  0
LINE
  5
F55E
  8
3
 10
160.74508285718329
 20
162.80286909412769
 30
0.0
 11
160.7541771637047
 21
162.81196340064901
 31
0.0
  0
LINE
  5
F55F
  8
3
 10
160.7541771637047
 20
162.81196340064901
 30
0.0
 11
160.76327147022599
 21
162.82105770717041
 31
0.0
  0
LINE
  5
F560
  8
3
 10
160.76327147022599
 20
162.82105770717041
 30
0.0
 11
160.77236577674739
 21
162.8256048604311
 31
0.0
  0
LINE
  5
F561
  8
3
 10
160.77236577674739
 20
162.8256048604311
 30
0.0
 11
160.78146008326871
 21
162.83469916695239
 31
0.0
  0
LINE
  5
F562
  8
3
 10
160.78146008326871
 20
162.83469916695239
 30
0.0
 11
160.79055438979009
 21
162.83924632021311
 31
0.0
  0
LINE
  5
F563
  8
3
 10
160.79055438979009
 20
162.83924632021311
 30
0.0
 11
160.79964869631141
 21
162.8437934734738
 31
0.0
  0
LINE
  5
F564
  8
3
 10
160.79964869631141
 20
162.8437934734738
 30
0.0
 11
160.8087430028327
 21
162.8483406267344
 31
0.0
  0
LINE
  5
F565
  8
3
 10
160.8087430028327
 20
162.8483406267344
 30
0.0
 11
160.81783730935399
 21
162.85288777999509
 31
0.0
  0
LINE
  5
F566
  8
3
 10
160.81783730935399
 20
162.85288777999509
 30
0.0
 11
160.83147876913611
 21
162.8574349332558
 31
0.0
  0
LINE
  5
F567
  8
3
 10
160.83147876913611
 20
162.8574349332558
 30
0.0
 11
160.8542145354395
 21
162.86198208651649
 31
0.0
  0
LINE
  5
F568
  8
3
 10
160.8542145354395
 20
162.86198208651649
 30
0.0
 11
160.90878037456761
 21
162.8301520136917
 31
0.0
  0
LINE
  5
F569
  8
3
 10
160.90878037456761
 20
162.8301520136917
 30
0.0
 11
160.90878037456761
 21
162.8256048604311
 31
0.0
  0
LINE
  5
F56A
  8
3
 10
160.90878037456761
 20
162.8256048604311
 30
0.0
 11
160.9133275278283
 21
162.82105770717041
 31
0.0
  0
LINE
  5
F56B
  8
3
 10
160.9133275278283
 20
162.82105770717041
 30
0.0
 11
160.9133275278283
 21
162.82105770717041
 31
0.0
  0
ARC
  5
F56C
  8
0
 10
178.05662041314091
 20
156.03574964706971
 30
0.0
 40
2.0
 50
180.0
 51
270.0
  0
LINE
  5
F56D
  8
0
 10
189.55662041314091
 20
157.6357496470697
 30
0.0
 11
176.05662041314091
 21
157.6357496470697
 31
0.0
  0
LINE
  5
F56E
  8
0
 10
173.55662041314091
 20
166.80174964706961
 30
0.0
 11
195.55662041314091
 21
166.80174964706961
 31
0.0
  0
LINE
  5
F56F
  8
0
 10
176.05662041314091
 20
157.6357496470697
 30
0.0
 11
211.55662041314091
 21
157.6357496470697
 31
0.0
  0
LINE
  5
F570
  8
0
 10
212.55662041314091
 20
158.6357496470697
 30
0.0
 11
212.55662041314091
 21
211.6357496470697
 31
0.0
  0
LINE
  5
F571
  8
0
 10
190.05662041314091
 20
167.30174964706961
 30
0.0
 11
190.05662041314091
 21
175.46775064706969
 31
0.0
  0
LINE
  5
F572
  8
0
 10
192.55662041314091
 20
166.80174964706961
 30
0.0
 11
192.55662041314091
 21
175.96775064706969
 31
0.0
  0
LINE
  5
F573
  8
0
 10
195.55662041314091
 20
166.80174964706961
 30
0.0
 11
195.55662041314091
 21
175.96775064706969
 31
0.0
  0
CIRCLE
  5
F574
  8
0
 10
204.9066209131409
 20
165.63575014706959
 30
0.0
 40
6.0
  0
CIRCLE
  5
F575
  8
0
 10
204.9066209131409
 20
165.63575014706959
 30
0.0
 40
5.0
  0
LINE
  5
F576
  8
1
 10
183.05661941314261
 20
151.86339720670071
 30
0.0
 11
183.0566194131392
 21
218.3017851961763
 31
0.0
  0
LINE
  5
F577
  8
1
 10
204.9066199131409
 20
158.73574714706959
 30
0.0
 11
204.9066199131409
 21
172.53575014706959
 31
0.0
  0
ARC
  5
F578
  8
0
 10
154.55662041314091
 20
211.6357496470697
 30
0.0
 40
1.0
 50
90.0
 51
180.0
  0
LINE
  5
F579
  8
3
 10
160.22216023220579
 20
163.412187631058
 30
0.0
 11
160.26763176481259
 21
163.44401770388271
 31
0.0
  0
LINE
  5
F57A
  8
3
 10
160.26763176481259
 20
161.22500691267399
 30
0.0
 11
160.14940578003501
 21
161.19772399311
 31
0.0
  0
LINE
  5
F57B
  8
3
 10
160.1039342474283
 20
163.29396164628039
 30
0.0
 11
160.14031147351369
 21
163.3348860256265
 31
0.0
  0
LINE
  5
F57C
  8
3
 10
160.1812358528598
 20
163.3758104049725
 30
0.0
 11
160.22216023220579
 21
163.412187631058
 31
0.0
  0
LINE
  5
F57D
  8
3
 10
160.14031147351369
 20
163.3348860256265
 30
0.0
 11
160.1812358528598
 21
163.3758104049725
 31
0.0
  0
LINE
  5
F57E
  8
3
 10
159.926595270262
 20
161.09768662137509
 30
0.0
 11
159.926595270262
 21
161.7433823843908
 31
0.0
  0
LINE
  5
F57F
  8
3
 10
159.926595270262
 20
162.8256048604311
 30
0.0
 11
159.9311424235226
 21
162.8756235462985
 31
0.0
  0
LINE
  5
F580
  8
3
 10
159.94023673004409
 20
162.9256422321659
 30
0.0
 11
159.95387818982621
 21
162.9756609180333
 31
0.0
  0
LINE
  5
F581
  8
3
 10
159.9311424235226
 20
162.8756235462985
 30
0.0
 11
159.94023673004409
 21
162.9256422321659
 31
0.0
  0
LINE
  5
F582
  8
3
 10
159.926595270262
 20
161.7433823843908
 30
0.0
 11
159.926595270262
 21
161.9707400474245
 31
0.0
  0
LINE
  5
F583
  8
3
 10
159.95842534308679
 20
162.00711727350981
 30
0.0
 11
159.96297249634739
 21
162.01166442677049
 31
0.0
  0
LINE
  5
F584
  8
3
 10
159.94933103656541
 20
162.00257012024909
 30
0.0
 11
159.95842534308679
 21
162.00711727350981
 31
0.0
  0
LINE
  5
F585
  8
3
 10
159.94478388330481
 20
161.99802296698849
 30
0.0
 11
159.94933103656541
 21
162.00257012024909
 31
0.0
  0
LINE
  5
F586
  8
3
 10
159.94023673004409
 20
161.9934758137278
 30
0.0
 11
159.94478388330481
 21
161.99802296698849
 31
0.0
  0
LINE
  5
F587
  8
3
 10
159.9356895767834
 20
161.98438150720651
 30
0.0
 11
159.94023673004409
 21
161.9934758137278
 31
0.0
  0
LINE
  5
F588
  8
3
 10
159.926595270262
 20
161.97983435394579
 30
0.0
 11
159.9356895767834
 21
161.98438150720651
 31
0.0
  0
LINE
  5
F589
  8
3
 10
159.926595270262
 20
161.9707400474245
 30
0.0
 11
159.926595270262
 21
161.97983435394579
 31
0.0
  0
LINE
  5
F58A
  8
3
 10
159.96297249634739
 20
162.01166442677049
 30
0.0
 11
159.9720668028688
 21
162.01621158003121
 31
0.0
  0
LINE
  5
F58B
  8
3
 10
159.96297249634739
 20
162.30722938871429
 30
0.0
 11
159.94933103656541
 21
162.36179522784229
 31
0.0
  0
LINE
  5
F58C
  8
3
 10
159.9766139561294
 20
162.2526635495862
 30
0.0
 11
159.96297249634739
 21
162.30722938871429
 31
0.0
  0
LINE
  5
F58D
  8
3
 10
159.9857082626508
 20
162.23902208980419
 30
0.0
 11
159.9766139561294
 21
162.2526635495862
 31
0.0
  0
LINE
  5
F58E
  8
3
 10
159.99025541591149
 20
162.22992778328279
 30
0.0
 11
159.9857082626508
 21
162.23902208980419
 31
0.0
  0
LINE
  5
F58F
  8
3
 10
159.99480256917221
 20
162.2208334767615
 30
0.0
 11
159.99025541591149
 21
162.22992778328279
 31
0.0
  0
LINE
  5
F590
  8
3
 10
159.9993497224329
 20
162.21173917024009
 30
0.0
 11
159.99480256917221
 21
162.2208334767615
 31
0.0
  0
LINE
  5
F591
  8
3
 10
160.0038968756935
 20
162.2026448637188
 30
0.0
 11
159.9993497224329
 21
162.21173917024009
 31
0.0
  0
LINE
  5
F592
  8
3
 10
160.00844402895419
 20
162.1935505571974
 30
0.0
 11
160.0038968756935
 21
162.2026448637188
 31
0.0
  0
LINE
  5
F593
  8
3
 10
160.0129911822149
 20
162.1799090974155
 30
0.0
 11
160.00844402895419
 21
162.1935505571974
 31
0.0
  0
LINE
  5
F594
  8
3
 10
160.01753833547559
 20
162.1708147908941
 30
0.0
 11
160.0129911822149
 21
162.1799090974155
 31
0.0
  0
LINE
  5
F595
  8
3
 10
160.0220854887362
 20
162.16172048437281
 30
0.0
 11
160.01753833547559
 21
162.1708147908941
 31
0.0
  0
LINE
  5
F596
  8
3
 10
160.0266326419968
 20
162.1526261778514
 30
0.0
 11
160.0220854887362
 21
162.16172048437281
 31
0.0
  0
LINE
  5
F597
  8
3
 10
160.0357269485182
 20
162.14353187133011
 30
0.0
 11
160.0266326419968
 21
162.1526261778514
 31
0.0
  0
LINE
  5
F598
  8
3
 10
160.04027410177889
 20
162.12989041154799
 30
0.0
 11
160.0357269485182
 21
162.14353187133011
 31
0.0
  0
LINE
  5
F599
  8
3
 10
160.04482125503949
 20
162.12079610502661
 30
0.0
 11
160.04027410177889
 21
162.12989041154799
 31
0.0
  0
LINE
  5
F59A
  8
3
 10
160.04936840830021
 20
162.11170179850529
 30
0.0
 11
160.04482125503949
 21
162.12079610502661
 31
0.0
  0
LINE
  5
F59B
  8
3
 10
160.05846271482159
 20
162.102607491984
 30
0.0
 11
160.04936840830021
 21
162.11170179850529
 31
0.0
  0
LINE
  5
F59C
  8
3
 10
160.05391556156101
 20
162.09806033872329
 30
0.0
 11
160.05846271482159
 21
162.102607491984
 31
0.0
  0
LINE
  5
F59D
  8
3
 10
160.05391556156101
 20
162.0935131854626
 30
0.0
 11
160.05391556156101
 21
162.09806033872329
 31
0.0
  0
LINE
  5
F59E
  8
3
 10
160.05391556156101
 20
162.08896603220199
 30
0.0
 11
160.05391556156101
 21
162.0935131854626
 31
0.0
  0
LINE
  5
F59F
  8
3
 10
160.05391556156101
 20
162.08441887894131
 30
0.0
 11
160.05391556156101
 21
162.08896603220199
 31
0.0
  0
LINE
  5
F5A0
  8
3
 10
160.05391556156101
 20
162.07987172568059
 30
0.0
 11
160.05391556156101
 21
162.08441887894131
 31
0.0
  0
LINE
  5
F5A1
  8
3
 10
160.05391556156101
 20
162.0753245724199
 30
0.0
 11
160.05391556156101
 21
162.07987172568059
 31
0.0
  0
LINE
  5
F5A2
  8
3
 10
160.05391556156101
 20
162.0707774191593
 30
0.0
 11
160.05391556156101
 21
162.0753245724199
 31
0.0
  0
LINE
  5
F5A3
  8
3
 10
160.05391556156101
 20
162.06623026589861
 30
0.0
 11
160.05391556156101
 21
162.0707774191593
 31
0.0
  0
LINE
  5
F5A4
  8
3
 10
160.05391556156101
 20
162.06168311263789
 30
0.0
 11
160.05391556156101
 21
162.06623026589861
 31
0.0
  0
LINE
  5
F5A5
  8
3
 10
160.04936840830021
 20
162.05713595937721
 30
0.0
 11
160.05391556156101
 21
162.06168311263789
 31
0.0
  0
LINE
  5
F5A6
  8
3
 10
160.04936840830021
 20
162.0525888061166
 30
0.0
 11
160.04936840830021
 21
162.05713595937721
 31
0.0
  0
LINE
  5
F5A7
  8
3
 10
160.04482125503949
 20
162.0525888061166
 30
0.0
 11
160.04936840830021
 21
162.0525888061166
 31
0.0
  0
LINE
  5
F5A8
  8
3
 10
160.04482125503949
 20
162.04804165285589
 30
0.0
 11
160.04482125503949
 21
162.0525888061166
 31
0.0
  0
LINE
  5
F5A9
  8
3
 10
160.04482125503949
 20
162.0434944995952
 30
0.0
 11
160.04482125503949
 21
162.04804165285589
 31
0.0
  0
LINE
  5
F5AA
  8
3
 10
160.0220854887362
 20
162.03894734633451
 30
0.0
 11
160.04482125503949
 21
162.0434944995952
 31
0.0
  0
LINE
  5
F5AB
  8
3
 10
160.0129911822149
 20
162.03440019307391
 30
0.0
 11
160.0220854887362
 21
162.03894734633451
 31
0.0
  0
LINE
  5
F5AC
  8
3
 10
160.0038968756935
 20
162.02985303981319
 30
0.0
 11
160.0129911822149
 21
162.03440019307391
 31
0.0
  0
LINE
  5
F5AD
  8
3
 10
159.99480256917221
 20
162.02985303981319
 30
0.0
 11
160.0038968756935
 21
162.02985303981319
 31
0.0
  0
LINE
  5
F5AE
  8
3
 10
159.9857082626508
 20
162.02530588655259
 30
0.0
 11
159.99480256917221
 21
162.02985303981319
 31
0.0
  0
LINE
  5
F5AF
  8
3
 10
159.9811611093902
 20
162.02075873329181
 30
0.0
 11
159.9857082626508
 21
162.02530588655259
 31
0.0
  0
LINE
  5
F5B0
  8
3
 10
159.9720668028688
 20
162.01621158003121
 30
0.0
 11
159.9811611093902
 21
162.02075873329181
 31
0.0
  0
LINE
  5
F5B1
  8
3
 10
159.9311424235226
 20
162.4663797528379
 30
0.0
 11
159.926595270262
 21
162.52094559196601
 31
0.0
  0
LINE
  5
F5B2
  8
3
 10
159.94023673004409
 20
162.41636106697041
 30
0.0
 11
159.9311424235226
 21
162.4663797528379
 31
0.0
  0
LINE
  5
F5B3
  8
3
 10
159.94933103656541
 20
162.36179522784229
 30
0.0
 11
159.94023673004409
 21
162.41636106697041
 31
0.0
  0
LINE
  5
F5B4
  8
3
 10
159.92204811700131
 20
162.5709642778333
 30
0.0
 11
159.91750096374071
 21
162.62098296370081
 31
0.0
  0
LINE
  5
F5B5
  8
3
 10
159.91750096374071
 20
162.67100164956821
 30
0.0
 11
159.91750096374071
 21
162.72556748869621
 31
0.0
  0
LINE
  5
F5B6
  8
3
 10
159.91750096374071
 20
162.62098296370081
 30
0.0
 11
159.91750096374071
 21
162.67100164956821
 31
0.0
  0
LINE
  5
F5B7
  8
3
 10
159.92204811700131
 20
162.7755861745637
 30
0.0
 11
159.926595270262
 21
162.8256048604311
 31
0.0
  0
LINE
  5
F5B8
  8
3
 10
159.91750096374071
 20
162.72556748869621
 30
0.0
 11
159.92204811700131
 21
162.7755861745637
 31
0.0
  0
LINE
  5
F5B9
  8
3
 10
159.926595270262
 20
162.52094559196601
 30
0.0
 11
159.92204811700131
 21
162.5709642778333
 31
0.0
  0
LINE
  5
F5BA
  8
3
 10
160.14940578003501
 20
161.19772399311
 30
0.0
 11
159.926595270262
 21
161.09768662137509
 31
0.0
  0
LINE
  5
F5BB
  8
3
 10
159.99025541591149
 20
163.1029812093322
 30
0.0
 11
159.99480256917221
 21
163.1075283625928
 31
0.0
  0
LINE
  5
F5BC
  8
3
 10
160.00844402895419
 20
163.13481128215679
 30
0.0
 11
160.00844402895419
 21
163.13935843541751
 31
0.0
  0
LINE
  5
F5BD
  8
3
 10
160.00844402895419
 20
163.13935843541751
 30
0.0
 11
160.0129911822149
 21
163.14845274193891
 31
0.0
  0
LINE
  5
F5BE
  8
3
 10
160.00844402895419
 20
163.13026412889619
 30
0.0
 11
160.00844402895419
 21
163.13481128215679
 31
0.0
  0
LINE
  5
F5BF
  8
3
 10
160.0038968756935
 20
163.13026412889619
 30
0.0
 11
160.00844402895419
 21
163.13026412889619
 31
0.0
  0
LINE
  5
F5C0
  8
3
 10
160.0038968756935
 20
163.1257169756355
 30
0.0
 11
160.0038968756935
 21
163.13026412889619
 31
0.0
  0
LINE
  5
F5C1
  8
3
 10
160.0038968756935
 20
163.1211698223749
 30
0.0
 11
160.0038968756935
 21
163.1257169756355
 31
0.0
  0
LINE
  5
F5C2
  8
3
 10
159.9993497224329
 20
163.11662266911421
 30
0.0
 11
160.0038968756935
 21
163.1211698223749
 31
0.0
  0
LINE
  5
F5C3
  8
3
 10
159.9993497224329
 20
163.11207551585349
 30
0.0
 11
159.9993497224329
 21
163.11662266911421
 31
0.0
  0
LINE
  5
F5C4
  8
3
 10
159.99480256917221
 20
163.1075283625928
 30
0.0
 11
159.9993497224329
 21
163.11207551585349
 31
0.0
  0
LINE
  5
F5C5
  8
3
 10
159.99025541591149
 20
163.09843405607151
 30
0.0
 11
159.99025541591149
 21
163.1029812093322
 31
0.0
  0
LINE
  5
F5C6
  8
3
 10
159.9857082626508
 20
163.09388690281079
 30
0.0
 11
159.99025541591149
 21
163.09843405607151
 31
0.0
  0
LINE
  5
F5C7
  8
3
 10
159.9857082626508
 20
163.08933974955011
 30
0.0
 11
159.9857082626508
 21
163.09388690281079
 31
0.0
  0
LINE
  5
F5C8
  8
3
 10
159.9811611093902
 20
163.0847925962895
 30
0.0
 11
159.9857082626508
 21
163.08933974955011
 31
0.0
  0
LINE
  5
F5C9
  8
3
 10
159.9811611093902
 20
163.0756982897681
 30
0.0
 11
159.9811611093902
 21
163.0847925962895
 31
0.0
  0
LINE
  5
F5CA
  8
3
 10
159.95387818982621
 20
162.9756609180333
 30
0.0
 11
159.9811611093902
 21
163.0756982897681
 31
0.0
  0
LINE
  5
F5CB
  8
3
 10
160.04027410177889
 20
163.19847142780631
 30
0.0
 11
160.0721041746036
 21
163.24849011367371
 31
0.0
  0
LINE
  5
F5CC
  8
3
 10
160.0721041746036
 20
163.24849011367371
 30
0.0
 11
160.1039342474283
 21
163.29396164628039
 31
0.0
  0
LINE
  5
F5CD
  8
3
 10
160.0129911822149
 20
163.14845274193891
 30
0.0
 11
160.04027410177889
 21
163.19847142780631
 31
0.0
  0
LINE
  5
F5CE
  8
3
 10
160.26763176481259
 20
163.44401770388271
 30
0.0
 11
160.31765045067999
 21
163.47584777670741
 31
0.0
  0
LINE
  5
F5CF
  8
3
 10
160.31765045067999
 20
163.47584777670741
 30
0.0
 11
160.3631219832867
 21
163.50767784953209
 31
0.0
  0
LINE
  5
F5D0
  8
3
 10
159.9766139561294
 20
166.66340221243951
 30
0.0
 11
159.9766139561294
 21
167.6546816232663
 31
0.0
  0
LINE
  5
F5D1
  8
3
 10
160.276726071334
 20
165.05370995816111
 30
0.0
 11
160.23580169198789
 21
165.05825711142171
 31
0.0
  0
LINE
  5
F5D2
  8
3
 10
160.2312545387272
 20
164.94003112664419
 30
0.0
 11
160.26763176481259
 21
164.94003112664419
 31
0.0
  0
LINE
  5
F5D3
  8
3
 10
160.27217891807331
 20
163.93511025603539
 30
0.0
 11
160.23580169198789
 21
163.9623931755994
 31
0.0
  0
LINE
  5
F5D4
  8
3
 10
160.26763176481259
 20
166.9089484885159
 30
0.0
 11
160.23580169198789
 21
166.88621272221249
 31
0.0
  0
LINE
  5
F5D5
  8
3
 10
160.22670738546651
 20
166.5679119939654
 30
0.0
 11
160.2630846115519
 21
166.6179306798328
 31
0.0
  0
LINE
  5
F5D6
  8
3
 10
159.9356895767834
 20
164.64901331796111
 30
0.0
 11
159.9356895767834
 21
164.6853905440465
 31
0.0
  0
LINE
  5
F5D7
  8
3
 10
159.94023673004409
 20
164.82180514186669
 30
0.0
 11
159.94023673004409
 21
164.85818236795211
 31
0.0
  0
LINE
  5
F5D8
  8
3
 10
159.94023673004409
 20
164.85818236795211
 30
0.0
 11
159.94023673004409
 21
164.92638966686229
 31
0.0
  0
LINE
  5
F5D9
  8
3
 10
160.08119848112489
 20
165.09918149076779
 30
0.0
 11
160.0129911822149
 21
165.13555871685321
 31
0.0
  0
LINE
  5
F5DA
  8
3
 10
159.94023673004409
 20
164.92638966686229
 30
0.0
 11
159.9857082626508
 21
164.93093682012289
 31
0.0
  0
LINE
  5
F5DB
  8
3
 10
160.11757570721039
 20
165.08554003098581
 30
0.0
 11
160.08119848112489
 21
165.09918149076779
 31
0.0
  0
LINE
  5
F5DC
  8
3
 10
160.15850008655639
 20
165.0718985712038
 30
0.0
 11
160.11757570721039
 21
165.08554003098581
 31
0.0
  0
LINE
  5
F5DD
  8
3
 10
160.19487731264181
 20
165.0628042646824
 30
0.0
 11
160.15850008655639
 21
165.0718985712038
 31
0.0
  0
LINE
  5
F5DE
  8
3
 10
160.23580169198789
 20
165.05825711142171
 30
0.0
 11
160.19487731264181
 21
165.0628042646824
 31
0.0
  0
LINE
  5
F5DF
  8
3
 10
160.1994244659025
 20
164.94003112664419
 30
0.0
 11
160.2312545387272
 21
164.94003112664419
 31
0.0
  0
LINE
  5
F5E0
  8
3
 10
160.17214154633839
 20
164.94003112664419
 30
0.0
 11
160.1994244659025
 21
164.94003112664419
 31
0.0
  0
LINE
  5
F5E1
  8
3
 10
160.14485862677441
 20
164.94003112664419
 30
0.0
 11
160.17214154633839
 21
164.94003112664419
 31
0.0
  0
LINE
  5
F5E2
  8
3
 10
160.11757570721039
 20
164.94003112664419
 30
0.0
 11
160.14485862677441
 21
164.94003112664419
 31
0.0
  0
LINE
  5
F5E3
  8
3
 10
160.09029278764629
 20
164.94003112664419
 30
0.0
 11
160.11757570721039
 21
164.94003112664419
 31
0.0
  0
LINE
  5
F5E4
  8
3
 10
160.0630098680823
 20
164.94003112664419
 30
0.0
 11
160.09029278764629
 21
164.94003112664419
 31
0.0
  0
LINE
  5
F5E5
  8
3
 10
160.0266326419968
 20
164.93548397338361
 30
0.0
 11
160.0630098680823
 21
164.94003112664419
 31
0.0
  0
LINE
  5
F5E6
  8
3
 10
159.9857082626508
 20
164.93093682012289
 30
0.0
 11
160.0266326419968
 21
164.93548397338361
 31
0.0
  0
LINE
  5
F5E7
  8
3
 10
159.9356895767834
 20
164.78997506904199
 30
0.0
 11
159.94023673004409
 21
164.82180514186669
 31
0.0
  0
LINE
  5
F5E8
  8
3
 10
159.9356895767834
 20
164.75359784295659
 30
0.0
 11
159.9356895767834
 21
164.78997506904199
 31
0.0
  0
LINE
  5
F5E9
  8
3
 10
159.9356895767834
 20
164.7172206168712
 30
0.0
 11
159.9356895767834
 21
164.75359784295659
 31
0.0
  0
LINE
  5
F5EA
  8
3
 10
159.9356895767834
 20
164.6853905440465
 30
0.0
 11
159.9356895767834
 21
164.7172206168712
 31
0.0
  0
LINE
  5
F5EB
  8
3
 10
160.0220854887362
 20
164.2397695245005
 30
0.0
 11
160.0038968756935
 21
164.28069390384661
 31
0.0
  0
LINE
  5
F5EC
  8
3
 10
160.04482125503949
 20
164.20339229841511
 30
0.0
 11
160.0220854887362
 21
164.2397695245005
 31
0.0
  0
LINE
  5
F5ED
  8
3
 10
160.0630098680823
 20
164.16246791906909
 30
0.0
 11
160.04482125503949
 21
164.20339229841511
 31
0.0
  0
LINE
  5
F5EE
  8
3
 10
160.09029278764629
 20
164.12609069298369
 30
0.0
 11
160.0630098680823
 21
164.16246791906909
 31
0.0
  0
LINE
  5
F5EF
  8
3
 10
160.1130285539497
 20
164.0897134668983
 30
0.0
 11
160.09029278764629
 21
164.12609069298369
 31
0.0
  0
LINE
  5
F5F0
  8
3
 10
160.14485862677441
 20
164.0578833940736
 30
0.0
 11
160.1130285539497
 21
164.0897134668983
 31
0.0
  0
LINE
  5
F5F1
  8
3
 10
160.17214154633839
 20
164.0260533212489
 30
0.0
 11
160.14485862677441
 21
164.0578833940736
 31
0.0
  0
LINE
  5
F5F2
  8
3
 10
160.20397161916321
 20
163.99422324842419
 30
0.0
 11
160.17214154633839
 21
164.0260533212489
 31
0.0
  0
LINE
  5
F5F3
  8
3
 10
160.23580169198789
 20
163.9623931755994
 30
0.0
 11
160.20397161916321
 21
163.99422324842419
 31
0.0
  0
LINE
  5
F5F4
  8
3
 10
159.9766139561294
 20
164.3625426625388
 30
0.0
 11
159.96297249634739
 21
164.39891988862411
 31
0.0
  0
LINE
  5
F5F5
  8
3
 10
159.96297249634739
 20
164.39891988862411
 30
0.0
 11
159.95842534308679
 21
164.4352971147095
 31
0.0
  0
LINE
  5
F5F6
  8
3
 10
159.94933103656541
 20
164.47167434079489
 30
0.0
 11
159.94478388330481
 21
164.50805156688031
 31
0.0
  0
LINE
  5
F5F7
  8
3
 10
159.95842534308679
 20
164.4352971147095
 30
0.0
 11
159.94933103656541
 21
164.47167434079489
 31
0.0
  0
LINE
  5
F5F8
  8
3
 10
159.94023673004409
 20
164.57625886579041
 30
0.0
 11
159.94023673004409
 21
164.6126360918758
 31
0.0
  0
LINE
  5
F5F9
  8
3
 10
159.94478388330481
 20
164.54442879296559
 30
0.0
 11
159.94023673004409
 21
164.57625886579041
 31
0.0
  0
LINE
  5
F5FA
  8
3
 10
159.94478388330481
 20
164.50805156688031
 30
0.0
 11
159.94478388330481
 21
164.54442879296559
 31
0.0
  0
LINE
  5
F5FB
  8
3
 10
160.0038968756935
 20
164.28069390384661
 30
0.0
 11
159.9766139561294
 21
164.3625426625388
 31
0.0
  0
LINE
  5
F5FC
  8
3
 10
159.94023673004409
 20
164.6126360918758
 30
0.0
 11
159.9356895767834
 21
164.64901331796111
 31
0.0
  0
LINE
  5
F5FD
  8
3
 10
159.9720668028688
 20
165.25378470163071
 30
0.0
 11
159.95387818982621
 21
165.30835054075879
 31
0.0
  0
LINE
  5
F5FE
  8
3
 10
159.94478388330481
 20
165.3720106864082
 30
0.0
 11
159.9356895767834
 21
165.43112367879701
 31
0.0
  0
LINE
  5
F5FF
  8
3
 10
159.95387818982621
 20
165.30835054075879
 30
0.0
 11
159.94478388330481
 21
165.3720106864082
 31
0.0
  0
LINE
  5
F600
  8
3
 10
159.9356895767834
 20
165.49478382444639
 30
0.0
 11
159.9311424235226
 21
165.55389681683519
 31
0.0
  0
LINE
  5
F601
  8
3
 10
159.9356895767834
 20
165.43112367879701
 30
0.0
 11
159.9356895767834
 21
165.49478382444639
 31
0.0
  0
LINE
  5
F602
  8
3
 10
159.94478388330481
 20
165.80399024617219
 30
0.0
 11
159.95387818982621
 21
165.86765039182171
 31
0.0
  0
LINE
  5
F603
  8
3
 10
159.94023673004409
 20
165.74033010052281
 30
0.0
 11
159.94478388330481
 21
165.80399024617219
 31
0.0
  0
LINE
  5
F604
  8
3
 10
159.9356895767834
 20
165.68121710813401
 30
0.0
 11
159.94023673004409
 21
165.74033010052281
 31
0.0
  0
LINE
  5
F605
  8
3
 10
159.9311424235226
 20
165.6175569624846
 30
0.0
 11
159.9356895767834
 21
165.68121710813401
 31
0.0
  0
LINE
  5
F606
  8
3
 10
159.9311424235226
 20
165.55389681683519
 30
0.0
 11
159.9311424235226
 21
165.6175569624846
 31
0.0
  0
LINE
  5
F607
  8
3
 10
160.0266326419968
 20
166.71342089830691
 30
0.0
 11
159.9766139561294
 21
166.66340221243951
 31
0.0
  0
LINE
  5
F608
  8
3
 10
160.05391556156101
 20
166.73615666461029
 30
0.0
 11
160.0266326419968
 21
166.71342089830691
 31
0.0
  0
LINE
  5
F609
  8
3
 10
160.08119848112489
 20
166.7588924309137
 30
0.0
 11
160.05391556156101
 21
166.73615666461029
 31
0.0
  0
LINE
  5
F60A
  8
3
 10
160.1039342474283
 20
166.781628197217
 30
0.0
 11
160.08119848112489
 21
166.7588924309137
 31
0.0
  0
LINE
  5
F60B
  8
3
 10
160.1312171669924
 20
166.80436396352039
 30
0.0
 11
160.1039342474283
 21
166.781628197217
 31
0.0
  0
LINE
  5
F60C
  8
3
 10
160.15850008655639
 20
166.8270997298238
 30
0.0
 11
160.1312171669924
 21
166.80436396352039
 31
0.0
  0
LINE
  5
F60D
  8
3
 10
160.1812358528598
 20
166.84528834286641
 30
0.0
 11
160.15850008655639
 21
166.8270997298238
 31
0.0
  0
LINE
  5
F60E
  8
3
 10
160.2085187724239
 20
166.8680241091698
 30
0.0
 11
160.1812358528598
 21
166.84528834286641
 31
0.0
  0
LINE
  5
F60F
  8
3
 10
160.23580169198789
 20
166.88621272221249
 30
0.0
 11
160.2085187724239
 21
166.8680241091698
 31
0.0
  0
LINE
  5
F610
  8
3
 10
160.19033015938109
 20
166.51334615483731
 30
0.0
 11
160.22670738546651
 21
166.5679119939654
 31
0.0
  0
LINE
  5
F611
  8
3
 10
160.01753833547559
 20
166.1904982733295
 30
0.0
 11
160.0266326419968
 21
166.21778119289351
 31
0.0
  0
LINE
  5
F612
  8
3
 10
160.0038968756935
 20
166.16321535376539
 30
0.0
 11
160.01753833547559
 21
166.1904982733295
 31
0.0
  0
LINE
  5
F613
  8
3
 10
159.99480256917221
 20
166.13593243420141
 30
0.0
 11
160.0038968756935
 21
166.16321535376539
 31
0.0
  0
LINE
  5
F614
  8
3
 10
159.99025541591149
 20
166.1041023613767
 30
0.0
 11
159.99480256917221
 21
166.13593243420141
 31
0.0
  0
LINE
  5
F615
  8
3
 10
159.9720668028688
 20
165.98587637659921
 30
0.0
 11
159.99025541591149
 21
166.1041023613767
 31
0.0
  0
LINE
  5
F616
  8
3
 10
159.96297249634739
 20
165.9267633842104
 30
0.0
 11
159.9720668028688
 21
165.98587637659921
 31
0.0
  0
LINE
  5
F617
  8
3
 10
160.0357269485182
 20
166.24506411245761
 30
0.0
 11
160.04936840830021
 21
166.2723470320216
 31
0.0
  0
LINE
  5
F618
  8
3
 10
160.15850008655639
 20
166.46787462223051
 30
0.0
 11
160.19033015938109
 21
166.51334615483731
 31
0.0
  0
LINE
  5
F619
  8
3
 10
160.14031147351369
 20
166.44513885592721
 30
0.0
 11
160.15850008655639
 21
166.46787462223051
 31
0.0
  0
LINE
  5
F61A
  8
3
 10
160.12667001373171
 20
166.4178559363632
 30
0.0
 11
160.14031147351369
 21
166.44513885592721
 31
0.0
  0
LINE
  5
F61B
  8
3
 10
160.1130285539497
 20
166.39512017005981
 30
0.0
 11
160.12667001373171
 21
166.4178559363632
 31
0.0
  0
LINE
  5
F61C
  8
3
 10
160.09938709416761
 20
166.3723844037564
 30
0.0
 11
160.1130285539497
 21
166.39512017005981
 31
0.0
  0
LINE
  5
F61D
  8
3
 10
160.0857456343856
 20
166.34510148419241
 30
0.0
 11
160.09938709416761
 21
166.3723844037564
 31
0.0
  0
LINE
  5
F61E
  8
3
 10
160.0721041746036
 20
166.322365717889
 30
0.0
 11
160.0857456343856
 21
166.34510148419241
 31
0.0
  0
LINE
  5
F61F
  8
3
 10
160.05846271482159
 20
166.29508279832501
 30
0.0
 11
160.0721041746036
 21
166.322365717889
 31
0.0
  0
LINE
  5
F620
  8
3
 10
160.04936840830021
 20
166.2723470320216
 30
0.0
 11
160.05846271482159
 21
166.29508279832501
 31
0.0
  0
LINE
  5
F621
  8
3
 10
160.0266326419968
 20
166.21778119289351
 30
0.0
 11
160.0357269485182
 21
166.24506411245761
 31
0.0
  0
LINE
  5
F622
  8
3
 10
159.95387818982621
 20
165.86765039182171
 30
0.0
 11
159.96297249634739
 21
165.9267633842104
 31
0.0
  0
LINE
  5
F623
  8
3
 10
159.99025541591149
 20
165.19467170924199
 30
0.0
 11
159.9720668028688
 21
165.25378470163071
 31
0.0
  0
LINE
  5
F624
  8
3
 10
160.0129911822149
 20
165.13555871685321
 30
0.0
 11
159.99025541591149
 21
165.19467170924199
 31
0.0
  0
LINE
  5
F625
  8
3
 10
160.31765045067999
 20
165.04916280490039
 30
0.0
 11
160.276726071334
 21
165.05370995816111
 31
0.0
  0
LINE
  5
F626
  8
3
 10
160.26763176481259
 20
164.94003112664419
 30
0.0
 11
160.30855614415859
 21
164.94003112664419
 31
0.0
  0
LINE
  5
F627
  8
3
 10
160.3631219832867
 20
165.04461565163979
 30
0.0
 11
160.31765045067999
 21
165.04916280490039
 31
0.0
  0
LINE
  5
F628
  8
3
 10
160.30855614415859
 20
164.94003112664419
 30
0.0
 11
160.35857483002599
 21
164.94003112664419
 31
0.0
  0
LINE
  5
F629
  8
3
 10
160.30855614415859
 20
163.9078273364714
 30
0.0
 11
160.27217891807331
 21
163.93511025603539
 31
0.0
  0
LINE
  5
F62A
  8
3
 10
160.34493337024401
 20
163.88509157016799
 30
0.0
 11
160.30855614415859
 21
163.9078273364714
 31
0.0
  0
LINE
  5
F62B
  8
3
 10
160.29491468437661
 20
166.92713710155849
 30
0.0
 11
160.26763176481259
 21
166.9089484885159
 31
0.0
  0
LINE
  5
F62C
  8
3
 10
160.32674475720131
 20
166.94532571460121
 30
0.0
 11
160.29491468437661
 21
166.92713710155849
 31
0.0
  0
LINE
  5
F62D
  8
3
 10
160.35857483002599
 20
166.96351432764399
 30
0.0
 11
160.32674475720131
 21
166.94532571460121
 31
0.0
  0
LINE
  5
F62E
  8
3
 10
160.3040089908979
 20
166.66340221243951
 30
0.0
 11
160.34493337024401
 21
166.7088737450463
 31
0.0
  0
LINE
  5
F62F
  8
3
 10
160.2630846115519
 20
166.6179306798328
 30
0.0
 11
160.3040089908979
 21
166.66340221243951
 31
0.0
  0
LINE
  5
F630
  8
3
 10
160.27217891807331
 20
168.08211402976971
 30
0.0
 11
160.2312545387272
 21
168.091208336291
 31
0.0
  0
LINE
  5
F631
  8
3
 10
160.2403488452486
 20
169.68271197752671
 30
0.0
 11
160.2630846115519
 21
169.70544774383009
 31
0.0
  0
LINE
  5
F632
  8
3
 10
160.09938709416761
 20
169.4508071612324
 30
0.0
 11
160.17668869959911
 21
169.58267460579191
 31
0.0
  0
LINE
  5
F633
  8
3
 10
160.19033015938109
 20
169.60995752535601
 30
0.0
 11
160.2085187724239
 21
169.63269329165931
 31
0.0
  0
LINE
  5
F634
  8
3
 10
160.17668869959911
 20
169.58267460579191
 30
0.0
 11
160.19033015938109
 21
169.60995752535601
 31
0.0
  0
LINE
  5
F635
  8
3
 10
160.00844402895419
 20
169.15524219928861
 30
0.0
 11
160.0266326419968
 21
169.23254380472011
 31
0.0
  0
LINE
  5
F636
  8
3
 10
160.04482125503949
 20
169.3098454101515
 30
0.0
 11
160.0721041746036
 21
169.38259986232231
 31
0.0
  0
LINE
  5
F637
  8
3
 10
160.0266326419968
 20
169.23254380472011
 30
0.0
 11
160.04482125503949
 21
169.3098454101515
 31
0.0
  0
LINE
  5
F638
  8
3
 10
160.0721041746036
 20
169.38259986232231
 30
0.0
 11
160.09938709416761
 21
169.4508071612324
 31
0.0
  0
LINE
  5
F639
  8
3
 10
160.13576432025309
 20
168.12303840911571
 30
0.0
 11
160.11757570721039
 21
168.13213271563711
 31
0.0
  0
LINE
  5
F63A
  8
3
 10
159.9993497224329
 20
168.30037738628201
 30
0.0
 11
159.99025541591149
 21
168.3185659993247
 31
0.0
  0
LINE
  5
F63B
  8
3
 10
160.0038968756935
 20
168.28218877323931
 30
0.0
 11
159.9993497224329
 21
168.30037738628201
 31
0.0
  0
LINE
  5
F63C
  8
3
 10
160.0129911822149
 20
168.2640001601965
 30
0.0
 11
160.0038968756935
 21
168.28218877323931
 31
0.0
  0
LINE
  5
F63D
  8
3
 10
160.0220854887362
 20
168.24581154715389
 30
0.0
 11
160.0129911822149
 21
168.2640001601965
 31
0.0
  0
LINE
  5
F63E
  8
3
 10
160.0311797952576
 20
168.2276229341112
 30
0.0
 11
160.0220854887362
 21
168.24581154715389
 31
0.0
  0
LINE
  5
F63F
  8
3
 10
160.04027410177889
 20
168.21398147432919
 30
0.0
 11
160.0311797952576
 21
168.2276229341112
 31
0.0
  0
LINE
  5
F640
  8
3
 10
160.04936840830021
 20
168.19579286128649
 30
0.0
 11
160.04027410177889
 21
168.21398147432919
 31
0.0
  0
LINE
  5
F641
  8
3
 10
160.0630098680823
 20
168.18215140150451
 30
0.0
 11
160.04936840830021
 21
168.19579286128649
 31
0.0
  0
LINE
  5
F642
  8
3
 10
160.07665132786431
 20
168.16850994172239
 30
0.0
 11
160.0630098680823
 21
168.18215140150451
 31
0.0
  0
LINE
  5
F643
  8
3
 10
160.09029278764629
 20
168.15486848194041
 30
0.0
 11
160.07665132786431
 21
168.16850994172239
 31
0.0
  0
LINE
  5
F644
  8
3
 10
160.1039342474283
 20
168.1412270221584
 30
0.0
 11
160.09029278764629
 21
168.15486848194041
 31
0.0
  0
LINE
  5
F645
  8
3
 10
160.11757570721039
 20
168.13213271563711
 30
0.0
 11
160.1039342474283
 21
168.1412270221584
 31
0.0
  0
LINE
  5
F646
  8
3
 10
159.9857082626508
 20
168.35039607214941
 30
0.0
 11
159.9811611093902
 21
168.4322448308416
 31
0.0
  0
LINE
  5
F647
  8
3
 10
159.9766139561294
 20
168.5140935895337
 30
0.0
 11
159.9766139561294
 21
168.59594234822569
 31
0.0
  0
LINE
  5
F648
  8
3
 10
159.9811611093902
 20
168.4322448308416
 30
0.0
 11
159.9766139561294
 21
168.5140935895337
 31
0.0
  0
LINE
  5
F649
  8
3
 10
159.9766139561294
 20
168.83694147104151
 30
0.0
 11
159.9811611093902
 21
168.91879022973359
 31
0.0
  0
LINE
  5
F64A
  8
3
 10
159.9857082626508
 20
169.00063898842569
 30
0.0
 11
159.99480256917221
 21
169.07794059385719
 31
0.0
  0
LINE
  5
F64B
  8
3
 10
159.99480256917221
 20
169.07794059385719
 30
0.0
 11
160.00844402895419
 21
169.15524219928861
 31
0.0
  0
LINE
  5
F64C
  8
3
 10
159.9811611093902
 20
168.91879022973359
 30
0.0
 11
159.9857082626508
 21
169.00063898842569
 31
0.0
  0
LINE
  5
F64D
  8
3
 10
159.9720668028688
 20
168.75509271234941
 30
0.0
 11
159.9766139561294
 21
168.83694147104151
 31
0.0
  0
LINE
  5
F64E
  8
3
 10
159.9720668028688
 20
168.67779110691779
 30
0.0
 11
159.9720668028688
 21
168.75509271234941
 31
0.0
  0
LINE
  5
F64F
  8
3
 10
159.9766139561294
 20
168.59594234822569
 30
0.0
 11
159.9720668028688
 21
168.67779110691779
 31
0.0
  0
LINE
  5
F650
  8
3
 10
159.99025541591149
 20
168.3185659993247
 30
0.0
 11
159.9857082626508
 21
168.35039607214941
 31
0.0
  0
LINE
  5
F651
  8
3
 10
160.0266326419968
 20
167.7047003091337
 30
0.0
 11
160.2085187724239
 21
167.79109622108649
 31
0.0
  0
LINE
  5
F652
  8
3
 10
160.0220854887362
 20
167.70015315587301
 30
0.0
 11
160.0266326419968
 21
167.7047003091337
 31
0.0
  0
LINE
  5
F653
  8
3
 10
160.0220854887362
 20
167.69560600261241
 30
0.0
 11
160.0220854887362
 21
167.70015315587301
 31
0.0
  0
LINE
  5
F654
  8
3
 10
160.0220854887362
 20
167.69105884935169
 30
0.0
 11
160.0220854887362
 21
167.69560600261241
 31
0.0
  0
LINE
  5
F655
  8
3
 10
160.0220854887362
 20
167.68651169609109
 30
0.0
 11
160.0220854887362
 21
167.69105884935169
 31
0.0
  0
LINE
  5
F656
  8
3
 10
160.01753833547559
 20
167.68651169609109
 30
0.0
 11
160.0220854887362
 21
167.68651169609109
 31
0.0
  0
LINE
  5
F657
  8
3
 10
160.01753833547559
 20
167.6819645428304
 30
0.0
 11
160.01753833547559
 21
167.68651169609109
 31
0.0
  0
LINE
  5
F658
  8
3
 10
160.01753833547559
 20
167.67741738956971
 30
0.0
 11
160.01753833547559
 21
167.6819645428304
 31
0.0
  0
LINE
  5
F659
  8
3
 10
160.01753833547559
 20
167.672870236309
 30
0.0
 11
160.01753833547559
 21
167.67741738956971
 31
0.0
  0
LINE
  5
F65A
  8
3
 10
160.00844402895419
 20
167.672870236309
 30
0.0
 11
160.01753833547559
 21
167.672870236309
 31
0.0
  0
LINE
  5
F65B
  8
3
 10
160.0038968756935
 20
167.672870236309
 30
0.0
 11
160.00844402895419
 21
167.672870236309
 31
0.0
  0
LINE
  5
F65C
  8
3
 10
159.9993497224329
 20
167.66832308304839
 30
0.0
 11
160.0038968756935
 21
167.672870236309
 31
0.0
  0
LINE
  5
F65D
  8
3
 10
159.99480256917221
 20
167.66832308304839
 30
0.0
 11
159.9993497224329
 21
167.66832308304839
 31
0.0
  0
LINE
  5
F65E
  8
3
 10
159.99025541591149
 20
167.66377592978759
 30
0.0
 11
159.99480256917221
 21
167.66832308304839
 31
0.0
  0
LINE
  5
F65F
  8
3
 10
159.9857082626508
 20
167.66377592978759
 30
0.0
 11
159.99025541591149
 21
167.66377592978759
 31
0.0
  0
LINE
  5
F660
  8
3
 10
159.9811611093902
 20
167.66377592978759
 30
0.0
 11
159.9857082626508
 21
167.66377592978759
 31
0.0
  0
LINE
  5
F661
  8
3
 10
159.9766139561294
 20
167.65922877652699
 30
0.0
 11
159.9811611093902
 21
167.66377592978759
 31
0.0
  0
LINE
  5
F662
  8
3
 10
159.9766139561294
 20
167.6546816232663
 30
0.0
 11
159.9766139561294
 21
167.65922877652699
 31
0.0
  0
LINE
  5
F663
  8
3
 10
160.15395293329581
 20
168.1093969493337
 30
0.0
 11
160.13576432025309
 21
168.12303840911571
 31
0.0
  0
LINE
  5
F664
  8
3
 10
160.2312545387272
 20
168.091208336291
 30
0.0
 11
160.15395293329581
 21
168.1093969493337
 31
0.0
  0
LINE
  5
F665
  8
3
 10
160.22216023220579
 20
169.65542905796269
 30
0.0
 11
160.2403488452486
 21
169.68271197752671
 31
0.0
  0
LINE
  5
F666
  8
3
 10
160.2085187724239
 20
169.63269329165931
 30
0.0
 11
160.22216023220579
 21
169.65542905796269
 31
0.0
  0
LINE
  5
F667
  8
3
 10
160.3131032974193
 20
168.077566876509
 30
0.0
 11
160.27217891807331
 21
168.08211402976971
 31
0.0
  0
LINE
  5
F668
  8
3
 10
160.35857483002599
 20
168.06847256998759
 30
0.0
 11
160.3131032974193
 21
168.077566876509
 31
0.0
  0
LINE
  5
F669
  8
3
 10
160.34038621698329
 20
169.7963908090436
 30
0.0
 11
160.3631219832867
 21
169.8191265753469
 31
0.0
  0
LINE
  5
F66A
  8
3
 10
160.32219760394071
 20
169.77365504274019
 30
0.0
 11
160.34038621698329
 21
169.7963908090436
 31
0.0
  0
LINE
  5
F66B
  8
3
 10
160.29946183763721
 20
169.75091927643689
 30
0.0
 11
160.32219760394071
 21
169.77365504274019
 31
0.0
  0
LINE
  5
F66C
  8
3
 10
160.2812732245946
 20
169.7281835101335
 30
0.0
 11
160.29946183763721
 21
169.75091927643689
 31
0.0
  0
LINE
  5
F66D
  8
3
 10
160.2630846115519
 20
169.70544774383009
 30
0.0
 11
160.2812732245946
 21
169.7281835101335
 31
0.0
  0
ARC
  5
F66E
  8
0
 10
154.55662041314091
 20
158.6357496470697
 30
0.0
 40
1.0
 50
180.0
 51
270.0
  0
LINE
  5
F66F
  8
0
 10
153.55662041314091
 20
211.6357496470697
 30
0.0
 11
153.55662041314091
 21
158.6357496470697
 31
0.0
  0
CIRCLE
  5
F670
  8
0
 10
161.20661841313881
 20
204.63574862760549
 30
0.0
 40
5.0
  0
CIRCLE
  5
F671
  8
0
 10
161.20661841313881
 20
204.63574862760549
 30
0.0
 40
2.5
  0
CIRCLE
  5
F672
  8
0
 10
161.20661891314171
 20
178.5357486276055
 30
0.0
 40
2.5
  0
CIRCLE
  5
F673
  8
0
 10
161.20661891314171
 20
178.5357486276055
 30
0.0
 40
5.0
  0
LINE
  5
F674
  8
0
 10
190.05662041314091
 20
212.6357496470697
 30
0.0
 11
154.55662041314091
 21
212.6357496470697
 31
0.0
  0
CIRCLE
  5
F675
  8
0
 10
161.20661891314171
 20
178.5357486276055
 30
0.0
 40
6.0
  0
CIRCLE
  5
F676
  8
0
 10
161.20661841313881
 20
204.63574862760549
 30
0.0
 40
6.0
  0
CIRCLE
  5
F677
  8
0
 10
161.20661891314171
 20
191.5857512121903
 30
0.0
 40
6.25
  0
LINE
  5
F678
  8
0
 10
154.55662041314091
 20
157.6357496470697
 30
0.0
 11
172.55662041314091
 21
157.6357496470697
 31
0.0
  0
LINE
  5
F679
  8
0
 10
172.55662041314091
 20
157.6357496470697
 30
0.0
 11
154.55662041314091
 21
157.6357496470697
 31
0.0
  0
CIRCLE
  5
F67A
  8
0
 10
161.20661891314171
 20
165.63574657552729
 30
0.0
 40
6.25
  0
LINE
  5
F67B
  8
1
 10
148.3316604686749
 20
185.1357496470697
 30
0.0
 11
218.3438990298317
 21
185.1357496470697
 31
0.0
  0
LINE
  5
F67E
  8
3
 10
160.3631219832867
 20
163.50767784953209
 30
0.0
 11
160.41768782241479
 21
163.53496076909619
 31
0.0
  0
LINE
  5
F67F
  8
3
 10
160.3904049028508
 20
161.238648372456
 30
0.0
 11
160.26763176481259
 21
161.22500691267399
 31
0.0
  0
LINE
  5
F680
  8
3
 10
160.4040463626327
 20
165.04461565163979
 30
0.0
 11
160.3631219832867
 21
165.04461565163979
 31
0.0
  0
LINE
  5
F681
  8
3
 10
160.35857483002599
 20
164.94003112664419
 30
0.0
 11
160.41768782241479
 21
164.94003112664419
 31
0.0
  0
LINE
  5
F682
  8
3
 10
160.38585774959009
 20
163.8623558038646
 30
0.0
 11
160.34493337024401
 21
163.88509157016799
 31
0.0
  0
LINE
  5
F683
  8
3
 10
160.39495205611149
 20
166.98170294068669
 30
0.0
 11
160.35857483002599
 21
166.96351432764399
 31
0.0
  0
LINE
  5
F684
  8
3
 10
160.34493337024401
 20
166.7088737450463
 30
0.0
 11
160.3904049028508
 21
166.7497981243923
 31
0.0
  0
LINE
  5
F685
  8
3
 10
160.2085187724239
 20
167.79109622108649
 30
0.0
 11
160.38585774959009
 21
167.85930351999659
 31
0.0
  0
LINE
  5
F686
  8
3
 10
160.39949920937221
 20
168.06392541672699
 30
0.0
 11
160.35857483002599
 21
168.06847256998759
 31
0.0
  0
LINE
  5
F687
  8
3
 10
160.3631219832867
 20
169.8191265753469
 30
0.0
 11
160.38585774959009
 21
169.84186234165031
 31
0.0
  0
LINE
  5
10813
  8
1
 10
161.20661941313949
 20
211.53654831652989
 30
0.0
 11
161.20661941313949
 21
197.73495042746461
 31
0.0
  0
LINE
  5
10816
  8
1
 10
161.20661891314171
 20
185.43654907213821
 30
0.0
 11
161.20661891314171
 21
171.6349511830729
 31
0.0
  0
LINE
  5
10817
  8
1
 10
168.10661876609839
 20
204.63574695738581
 30
0.0
 11
154.30661906017929
 21
204.63574695738581
 31
0.0
  0
LINE
  5
10819
  8
1
 10
168.10661826610061
 20
178.53574771299409
 30
0.0
 11
154.30661856018151
 21
178.53574771299409
 31
0.0
  0
TEXT
  5
10948
  8
0
 62
     3
 10
0.0
 20
0.0
 30
0.0
 40
10.0
  1
EFH6055HH
  7
STANDARD1
  0
ENDSEC
  0
EOF
