  0
SECTION
  2
HEADER
  9
$ACADVER
  1
AC1009
  9
$INSBASE
 10
0.0
 20
0.0
 30
0.0
  9
$EXTMIN
 10
0.0
 20
-2.960436562073669
 30
0.0
  9
$EXTMAX
 10
172.28917103989639
 20
146.4204361990387
 30
0.0
  9
$LIMMIN
 10
0.0
 20
0.0
  9
$LIMMAX
 10
420.0
 20
330.0
  9
$ORTHOMODE
 70
     1
  9
$REGENMODE
 70
     1
  9
$FILLMODE
 70
     1
  9
$QTEXTMODE
 70
     0
  9
$MIRRTEXT
 70
     0
  9
$DRAGMODE
 70
     2
  9
$LTSCALE
 40
5.0
  9
$OSMODE
 70
  3071
  9
$ATTMODE
 70
     1
  9
$TEXTSIZE
 40
0.2
  9
$TRACEWID
 40
0.05
  9
$TEXTSTYLE
  7
STANDARD
  9
$CLAYER
  8
0
  9
$CELTYPE
  6
BYLAYER
  9
$CECOLOR
 62
   256
  9
$DIMSCALE
 40
1.0
  9
$DIMASZ
 40
3.0
  9
$DIMEXO
 40
1.0
  9
$DIMDLI
 40
0.3799999999999999
  9
$DIMRND
 40
0.0
  9
$DIMDLE
 40
0.0
  9
$DIMEXE
 40
1.0
  9
$DIMTP
 40
0.0
  9
$DIMTM
 40
0.0
  9
$DIMTXT
 40
3.0
  9
$DIMCEN
 40
0.09
  9
$DIMTSZ
 40
0.0
  9
$DIMTOL
 70
     0
  9
$DIMLIM
 70
     0
  9
$DIMTIH
 70
     0
  9
$DIMTOH
 70
     0
  9
$DIMSE1
 70
     0
  9
$DIMSE2
 70
     0
  9
$DIMTAD
 70
     1
  9
$DIMZIN
 70
     0
  9
$DIMBLK
  1

  9
$DIMASO
 70
     0
  9
$DIMSHO
 70
     1
  9
$DIMPOST
  1

  9
$DIMAPOST
  1

  9
$DIMALT
 70
     0
  9
$DIMALTD
 70
     2
  9
$DIMALTF
 40
25.399999999999999
  9
$DIMLFAC
 40
1.0
  9
$DIMTOFL
 70
     0
  9
$DIMTVP
 40
0.0
  9
$DIMTIX
 70
     0
  9
$DIMSOXD
 70
     0
  9
$DIMSAH
 70
     0
  9
$DIMBLK1
  1
ARROW1
  9
$DIMBLK2
  1
ARROW1
  9
$DIMSTYLE
  2
STANDARD
  9
$DIMCLRD
 70
     0
  9
$DIMCLRE
 70
     0
  9
$DIMCLRT
 70
     0
  9
$DIMTFAC
 40
1.0
  9
$DIMGAP
 40
0.5
  9
$LUNITS
 70
     2
  9
$LUPREC
 70
     4
  9
$SKETCHINC
 40
0.1
  9
$FILLETRAD
 40
0.5
  9
$AUNITS
 70
     0
  9
$AUPREC
 70
     0
  9
$MENU
  1
ACAD
  9
$ELEVATION
 40
0.0
  9
$PELEVATION
 40
0.0
  9
$THICKNESS
 40
0.0
  9
$LIMCHECK
 70
     0
  9
$BLIPMODE
 70
     0
  9
$CHAMFERA
 40
0.1
  9
$CHAMFERB
 40
0.1
  9
$SKPOLY
 70
     0
  9
$TDCREATE
 40
2449640.5627083331
  9
$TDUPDATE
 40
2456598.6568414932
  9
$TDINDWG
 40
1.1862254398000001
  9
$TDUSRTIMER
 40
1.1862254398000001
  9
$USRTIMER
 70
     1
  9
$ANGBASE
 50
0.0
  9
$ANGDIR
 70
     0
  9
$PDMODE
 70
     0
  9
$PDSIZE
 40
0.0
  9
$PLINEWID
 40
0.0
  9
$COORDS
 70
     1
  9
$SPLFRAME
 70
     0
  9
$SPLINETYPE
 70
     6
  9
$SPLINESEGS
 70
     8
  9
$ATTDIA
 70
     0
  9
$ATTREQ
 70
     1
  9
$HANDLING
 70
     1
  9
$HANDSEED
  5
2684
  9
$SURFTAB1
 70
     6
  9
$SURFTAB2
 70
     6
  9
$SURFTYPE
 70
     6
  9
$SURFU
 70
     6
  9
$SURFV
 70
     6
  9
$UCSNAME
  2

  9
$UCSORG
 10
0.0
 20
0.0
 30
0.0
  9
$UCSXDIR
 10
1.0
 20
0.0
 30
0.0
  9
$UCSYDIR
 10
0.0
 20
1.0
 30
0.0
  9
$PUCSNAME
  2

  9
$PUCSORG
 10
0.0
 20
0.0
 30
0.0
  9
$PUCSXDIR
 10
1.0
 20
0.0
 30
0.0
  9
$PUCSYDIR
 10
0.0
 20
1.0
 30
0.0
  9
$USERI1
 70
     0
  9
$USERI2
 70
     1
  9
$USERI3
 70
     1
  9
$USERI4
 70
     0
  9
$USERI5
 70
     0
  9
$USERR1
 40
0.0
  9
$USERR2
 40
0.0
  9
$USERR3
 40
0.0
  9
$USERR4
 40
0.0
  9
$USERR5
 40
10.0
  9
$WORLDVIEW
 70
     1
  9
$SHADEDGE
 70
     3
  9
$SHADEDIF
 70
    70
  9
$TILEMODE
 70
     1
  9
$MAXACTVP
 70
    16
  9
$PLIMCHECK
 70
     0
  9
$PEXTMIN
 10
1.0000000000000000E+020
 20
1.0000000000000000E+020
 30
1.0000000000000000E+020
  9
$PEXTMAX
 10
-1.0000000000000000E+020
 20
-1.0000000000000000E+020
 30
-1.0000000000000000E+020
  9
$PLIMMIN
 10
0.0
 20
0.0
  9
$PLIMMAX
 10
12.0
 20
9.0
  9
$UNITMODE
 70
     0
  9
$VISRETAIN
 70
     0
  9
$PLINEGEN
 70
     0
  9
$PSLTSCALE
 70
     0
  0
ENDSEC
  0
SECTION
  2
TABLES
  0
TABLE
  2
VPORT
 70
     1
  0
VPORT
  2
*ACTIVE
 70
     0
 10
0.0
 20
0.0
 11
1.0
 21
1.0
 12
209.99359179753071
 22
207.90330784623239
 13
0.0
 23
0.0
 14
1.8999999999999999
 24
1.8999999999999999
 15
10.0
 25
10.0
 16
0.0
 26
0.0
 36
1.0
 17
0.0
 27
0.0
 37
0.0
 40
425.5958955386298
 41
1.8318713450292401
 42
50.0
 43
0.0
 44
0.0
 50
0.0
 51
0.0
 71
     0
 72
   100
 73
     1
 74
     0
 75
     0
 76
     0
 77
     0
 78
     1
  0
ENDTAB
  0
TABLE
  2
LTYPE
 70
     4
  0
LTYPE
  2
CONTINUOUS
 70
     0
  3
Solid Line
 72
    65
 73
     0
 40
0.0
  0
LTYPE
  2
CENTER
 70
     0
  3
____ _ ____ _ ____ _ ____ _ ____ _ ____ _ ____
 72
    65
 73
     4
 40
2.0
 49
1.25
 49
-0.25
 49
0.25
 49
-0.25
  0
LTYPE
  2
HIDDEN
 70
     0
  3
_ _ _ _ _ _ _ _ _ _ _ _ _ _ _ _ _ _ _ _ _ _ _
 72
    65
 73
     2
 40
0.375
 49
0.25
 49
-0.125
  0
LTYPE
  2
PHANTOM2
 70
     0
  3
___ _ _ ___ _ _ ___ _ _ ___ _ _
 72
    65
 73
     6
 40
1.25
 49
0.625
 49
-0.125
 49
0.125
 49
-0.125
 49
0.125
 49
-0.125
  0
ENDTAB
  0
TABLE
  2
LAYER
 70
     4
  0
LAYER
  2
0
 70
     0
 62
     7
  6
CONTINUOUS
  0
LAYER
  2
WAKU
 70
     0
 62
     7
  6
CONTINUOUS
  0
LAYER
  2
1
 70
     0
 62
     1
  6
CENTER
  0
LAYER
  2
2
 70
     0
 62
     2
  6
HIDDEN
  0
ENDTAB
  0
TABLE
  2
STYLE
 70
     2
  0
STYLE
  2
STANDARD
 70
     0
 40
0.0
 41
1.0
 50
0.0
 71
     0
 42
0.2
  3
ROMANS
  4
EXTFONT
  0
STYLE
  2
STANDARD1
 70
     0
 40
0.0
 41
1.0
 50
0.0
 71
     0
 42
3.0
  3
txt
  4

  0
ENDTAB
  0
TABLE
  2
VIEW
 70
     0
  0
ENDTAB
  0
TABLE
  2
UCS
 70
     0
  0
ENDTAB
  0
TABLE
  2
APPID
 70
     8
  0
APPID
  2
ACAD
 70
     0
  0
APPID
  2
GENIUS_GENOREF_13
 70
     0
  0
APPID
  2
ACAD_NAV_VCDISPLAY
 70
     0
  0
APPID
  2
ACADANNOTATIVE
 70
     0
  0
APPID
  2
ACAD_EXEMPT_FROM_CAD_STANDARDS
 70
     0
  0
APPID
  2
GENIUS_GENODEF_13
 70
     0
  0
APPID
  2
GENIUS_GENOBJ-N-FIL_13
 70
     0
  0
APPID
  2
ACAD_MLEADERVER
 70
     0
  0
ENDTAB
  0
TABLE
  2
DIMSTYLE
 70
     1
  0
DIMSTYLE
  2
STANDARD
 70
     0
  3

  4

  5

  6

  7

 40
1.0
 41
0.18
 42
0.0625
 43
0.38
 44
0.18
 45
0.0
 46
0.0
 47
0.0
 48
0.0
140
0.18
141
0.09
142
0.0
143
25.399999999999999
144
1.0
145
0.0
146
1.0
147
0.09
 71
     0
 72
     0
 73
     1
 74
     1
 75
     0
 76
     0
 77
     0
 78
     0
170
     0
171
     2
172
     0
173
     0
174
     0
175
     0
176
     0
177
     0
178
     0
  0
ENDTAB
  0
ENDSEC
  0
SECTION
  2
BLOCKS
  0
BLOCK
  8
0
  2
$MODEL_SPACE
 70
     0
 10
0.0
 20
0.0
 30
0.0
  3
$MODEL_SPACE
  1

  0
ENDBLK
  5
9
  8
0
  0
BLOCK
 67
     1
  8
0
  2
$PAPER_SPACE
 70
     0
 10
0.0
 20
0.0
 30
0.0
  3
$PAPER_SPACE
  1

  0
ENDBLK
  5
E
 67
     1
  8
0
  0
BLOCK
  8
0
  2
ARROW1
 70
     0
 10
0.0
 20
0.0
 30
0.0
  3
ARROW1
  1

  0
SOLID
  5
24
  8
WAKU
  6
CONTINUOUS
 62
     4
 10
-1.0
 20
0.1666666666666714
 30
0.0
 11
-1.0
 21
-0.1666666666666714
 31
0.0
 12
0.0
 22
0.0
 32
0.0
 13
0.0
 23
0.0
 33
0.0
  0
ENDBLK
  5
27
  8
0
  0
ENDSEC
  0
SECTION
  2
ENTITIES
  0
CIRCLE
  5
1338
  8
0
 10
76.177987830263419
 20
47.013505611654402
 30
0.0
 40
1.5
  0
CIRCLE
  5
1339
  8
0
 10
76.177987830263419
 20
47.013505611654402
 30
0.0
 40
2.0
  0
ARC
  5
133A
  8
0
 10
84.927987830263305
 20
48.01350561165458
 30
0.0
 40
0.649999999999944
 50
61.273394651841819
 51
179.9177540589279
  0
LINE
  5
133B
  8
0
 10
85.606196693676509
 20
49.125824748096477
 30
0.0
 11
85.240397817299709
 21
48.583505611654431
 31
0.0
  0
LINE
  5
133C
  8
0
 10
81.569500996987699
 20
40.968541941537133
 30
0.0
 11
82.177987830263419
 21
34.013505611654423
 31
0.0
  0
ARC
  5
133D
  8
0
 10
96.412202039470372
 20
41.563522108539608
 30
0.0
 40
3.5000000000002118
 50
1.9999999999996001
 51
79.999999999988276
  0
LINE
  5
133E
  8
0
 10
90.560633554865404
 20
46.14930465343943
 30
0.0
 11
97.019970661305436
 21
45.01034924408242
 31
0.0
  0
LINE
  5
133F
  8
0
 10
85.626978959601814
 20
49.112106124578418
 30
0.0
 11
89.211227014552406
 21
46.694500285039418
 31
0.0
  0
ARC
  5
1340
  8
0
 10
84.927987830263277
 20
48.075809158884852
 30
0.0
 40
1.2499999999998821
 50
55.999999999990031
 51
57.141436590253001
  0
LINE
  5
1341
  8
0
 10
100.1779878302634
 20
34.013505611654423
 30
0.0
 11
76.577987830263424
 21
34.013505611654438
 31
0.0
  0
LINE
  5
1342
  8
0
 10
99.910069934037409
 20
41.685670346998329
 30
0.0
 11
100.1779878302634
 21
34.013505611654423
 31
0.0
  0
ARC
  5
1343
  8
0
 10
91.168402176695665
 20
49.596131788971377
 30
0.0
 40
3.4999999999887059
 50
235.99999999996291
 51
260.00000000003462
  0
ARC
  5
1344
  8
0
 10
76.177987830263973
 20
47.013505611654153
 30
0.0
 40
8.0999999999993744
 50
311.72982397133592
 51
0.9998278403154594
  0
LINE
  5
1345
  8
0
 10
84.277988499942794
 20
48.014438661938406
 30
0.0
 11
84.276754585758994
 21
47.15484576900041
 31
0.0
  0
LINE
  5
1346
  8
0
 10
81.625955859972976
 20
40.323259904870298
 30
0.0
 11
79.596278639415402
 21
41.692294476577409
 31
0.0
  0
ARC
  5
1347
  8
0
 10
77.918699929003083
 20
39.20518175891209
 30
0.0
 40
3.000000000000226
 50
56.000000000000419
 51
102.5674634422089
  0
ARC
  5
1348
  8
0
 10
76.177987830263419
 20
47.013505611654402
 30
0.0
 40
5.0000000000000213
 50
169.99999999999579
 51
282.5674634422104
  0
LINE
  5
1349
  8
0
 10
71.253949065202406
 20
47.881746499989418
 30
0.0
 11
69.284333559177924
 21
48.229042855323421
 31
0.0
  0
ARC
  5
134A
  8
0
 10
76.17798783026322
 20
47.01350561165426
 30
0.0
 40
6.9999999999999734
 50
55.99999999999816
 51
169.99999999999491
  0
LINE
  5
134B
  8
0
 10
80.092338154558618
 20
52.816768619539403
 30
0.0
 11
85.593123088932956
 21
49.106442331985903
 31
0.0
  0
LINE
  5
134C
  8
0
 10
76.577987830263424
 20
34.013505611654423
 30
0.0
 11
76.577987830263424
 21
34.513505611654431
 31
0.0
  0
ARC
  5
134F
  8
0
 10
76.177987830263334
 20
47.013505611654402
 30
0.0
 40
7.5000000000000551
 50
289.5546217968174
 51
306.52877936551079
  0
ARC
  5
1351
  8
0
 10
84.927987830263277
 20
48.075809158884852
 30
0.0
 40
1.249999999999891
 50
57.141436590253001
 51
67.15777514996671
  0
ARC
  5
1352
  8
0
 10
61.187573483831159
 20
49.596131788971377
 30
0.0
 40
3.4999999999886908
 50
279.99999999996709
 51
304.00000000003928
  0
LINE
  5
1353
  8
0
 10
75.777987830263413
 20
34.013505611654423
 30
0.0
 11
75.777987830263413
 21
34.513505611654431
 31
0.0
  0
LINE
  5
1354
  8
0
 10
75.777987830263413
 20
34.513505611654431
 30
0.0
 11
78.877987830263393
 21
34.513505611654431
 31
0.0
  0
ARC
  5
1355
  8
0
 10
67.427987830263532
 20
48.075809158884852
 30
0.0
 40
1.2499999999998861
 50
0.0000000000276835
 51
124.00000000000951
  0
LINE
  5
1356
  8
0
 10
61.795342105661433
 20
46.14930465343943
 30
0.0
 11
55.336004999221409
 21
45.01034924408242
 31
0.0
  0
LINE
  5
1357
  8
0
 10
75.700496248492144
 20
41.513505611654431
 30
0.0
 11
75.527987830263413
 21
39.541725368633337
 31
0.0
  0
LINE
  5
1358
  8
0
 10
66.728996700925023
 20
49.112106124578418
 30
0.0
 11
63.144748645974403
 21
46.694500285039418
 31
0.0
  0
ARC
  5
1359
  8
0
 10
77.431887913281912
 20
40.107253671932817
 30
0.0
 40
1.2500000000000391
 50
2.000000000002041
 51
84.99999999999369
  0
LINE
  5
135A
  8
0
 10
78.877987830263393
 20
34.513505611654431
 30
0.0
 11
78.681126447055817
 21
40.150878042811001
 31
0.0
  0
ARC
  5
135B
  8
0
 10
55.94377362105643
 20
41.563522108539608
 30
0.0
 40
3.5000000000002101
 50
100.0000000000117
 51
178.0000000000004
  0
LINE
  5
135C
  8
0
 10
52.177987830263419
 20
34.013505611654423
 30
0.0
 11
75.777987830263413
 21
34.013505611654423
 31
0.0
  0
LINE
  5
135D
  8
0
 10
52.4459057264894
 20
41.685670346998329
 30
0.0
 11
52.177987830263419
 21
34.013505611654423
 31
0.0
  0
LINE
  5
135E
  8
0
 10
68.677987830263419
 20
47.013505611654402
 30
0.0
 11
68.677987830263419
 21
48.075809158885448
 31
0.0
  0
ARC
  5
135F
  8
0
 10
76.177987830263504
 20
47.013505611654402
 30
0.0
 40
7.5000000000000853
 50
180.0
 51
265.02812843182681
  0
LINE
  5
1360
  8
0
 10
77.540832591716622
 20
41.352497044547533
 30
0.0
 11
75.700496248492144
 21
41.513505611654431
 31
0.0
  0
LINE
  5
1363
  8
0
 10
72.263637505968205
 20
52.816768619539403
 30
0.0
 11
66.942744255416471
 21
49.227780804833372
 31
0.0
  0
LINE
  5
1485
  8
0
 10
78.177987830263419
 20
140.9204361990387
 30
0.0
 11
77.677987830263419
 21
141.4204361990387
 31
0.0
  0
LINE
  5
1486
  8
0
 10
74.677987830263419
 20
141.4204361990387
 30
0.0
 11
74.177987830263405
 21
140.9204361990387
 31
0.0
  0
LINE
  5
1487
  8
0
 10
78.177987830263419
 20
92.420436199038704
 30
0.0
 11
78.177987830263419
 21
92.670436199038704
 31
0.0
  0
LINE
  5
1488
  8
0
 10
78.177987830263419
 20
140.67043619903859
 30
0.0
 11
78.177987830263419
 21
140.9204361990387
 31
0.0
  0
LINE
  5
1489
  8
0
 10
74.177987830263405
 20
140.9204361990387
 30
0.0
 11
74.177987830263405
 21
140.67043619903859
 31
0.0
  0
LINE
  5
148A
  8
0
 10
74.177987830263405
 20
92.670436199038704
 30
0.0
 11
74.177987830263405
 21
92.420436199038704
 31
0.0
  0
LINE
  5
148B
  8
0
 10
74.177987830263405
 20
92.420436199038704
 30
0.0
 11
74.677987830263419
 21
91.920436199038676
 31
0.0
  0
LINE
  5
148C
  8
0
 10
77.677987830263419
 20
91.920436199038676
 30
0.0
 11
78.177987830263419
 21
92.420436199038704
 31
0.0
  0
LINE
  5
148D
  8
0
 10
69.177987830263405
 20
134.6704361990387
 30
0.0
 11
69.177987830263405
 21
128.6704361990387
 31
0.0
  0
LINE
  5
148E
  8
0
 10
69.177987830263405
 20
122.6704361990387
 30
0.0
 11
69.177987830263405
 21
116.6704361990387
 31
0.0
  0
LINE
  5
148F
  8
0
 10
69.177987830263405
 20
110.6704361990387
 30
0.0
 11
69.177987830263405
 21
104.6704361990387
 31
0.0
  0
LINE
  5
1490
  8
0
 10
83.177987830263419
 20
122.6704361990387
 30
0.0
 11
83.177987830263419
 21
128.6704361990387
 31
0.0
  0
LINE
  5
1491
  8
0
 10
83.177987830263419
 20
110.6704361990387
 30
0.0
 11
83.177987830263419
 21
116.6704361990387
 31
0.0
  0
LINE
  5
1492
  8
0
 10
83.177987830263419
 20
98.670436199038704
 30
0.0
 11
83.177987830263419
 21
104.6704361990387
 31
0.0
  0
LINE
  5
1493
  8
0
 10
78.177987830263419
 20
140.9204361990387
 30
0.0
 11
74.177987830263405
 21
140.9204361990387
 31
0.0
  0
LINE
  5
1495
  8
0
 10
78.177987830263419
 20
92.420436199038704
 30
0.0
 11
74.177987830263405
 21
92.420436199038704
 31
0.0
  0
LINE
  5
149B
  8
0
 10
69.284333559177924
 20
92.670436199038704
 30
0.0
 11
85.626978959601814
 21
92.670436199038733
 31
0.0
  0
LINE
  5
149C
  8
0
 10
69.284333559177924
 20
92.670436199038704
 30
0.0
 11
69.284333559177924
 21
98.670436199038704
 31
0.0
  0
LINE
  5
14A5
  8
0
 10
66.728996700925023
 20
128.6704361990387
 30
0.0
 11
85.626978959601814
 21
128.6704361990387
 31
0.0
  0
LINE
  5
14A6
  8
0
 10
66.728996700925009
 20
134.67043619903851
 30
0.0
 11
85.626978959601814
 21
134.6704361990387
 31
0.0
  0
LINE
  5
14A8
  8
0
 10
66.728996700925023
 20
116.6704361990386
 30
0.0
 11
85.626978959601814
 21
116.6704361990387
 31
0.0
  0
LINE
  5
14A9
  8
0
 10
66.728996700925023
 20
122.6704361990387
 30
0.0
 11
85.626978959601814
 21
122.6704361990387
 31
0.0
  0
LINE
  5
14AB
  8
0
 10
66.728996700925023
 20
104.6704361990386
 30
0.0
 11
85.626978959601814
 21
104.6704361990387
 31
0.0
  0
LINE
  5
14AC
  8
0
 10
66.728996700925023
 20
110.6704361990386
 30
0.0
 11
85.626978959601814
 21
110.6704361990387
 31
0.0
  0
LINE
  5
14AF
  8
0
 10
66.728996700925023
 20
98.670436199038605
 30
0.0
 11
85.626978959601814
 21
98.670436199038747
 31
0.0
  0
LINE
  5
14B0
  8
0
 10
85.413231405110366
 20
134.6704361990387
 30
0.0
 11
85.626978959601814
 21
134.6704361990387
 31
0.0
  0
LINE
  5
14B3
  8
0
 10
85.626978959601814
 20
91.920436199038676
 30
0.0
 11
85.626978959601814
 21
141.4204361990387
 31
0.0
  0
LINE
  5
14CC
  8
0
 10
81.569500996987699
 20
91.920436199038704
 30
0.0
 11
81.569500996987699
 21
92.670436199038704
 31
0.0
  0
LINE
  5
14CD
  8
0
 10
100.1779878302634
 20
91.920436199038562
 30
0.0
 11
81.569500996987699
 21
91.920436199038704
 31
0.0
  0
LINE
  5
14E0
  8
0
 10
100.1779878302634
 20
91.920436199038733
 30
0.0
 11
100.1779878302634
 21
141.4204361990387
 31
0.0
  0
LINE
  5
14E6
  8
0
 10
73.477987830263402
 20
140.67043619903859
 30
0.0
 11
73.477987830263402
 21
141.4204361990387
 31
0.0
  0
LINE
  5
14E7
  8
0
 10
73.477987830263402
 20
141.4204361990387
 30
0.0
 11
100.1779878302634
 21
141.4204361990387
 31
0.0
  0
LINE
  5
14E9
  8
0
 10
83.071642101348914
 20
140.6704361990387
 30
0.0
 11
66.728996700925009
 21
140.67043619903859
 31
0.0
  0
LINE
  5
14EA
  8
0
 10
83.071642101348914
 20
140.6704361990387
 30
0.0
 11
83.071642101348914
 21
134.6704361990387
 31
0.0
  0
LINE
  5
1504
  8
0
 10
66.728996700925023
 20
141.4204361990387
 30
0.0
 11
66.728996700925023
 21
91.920436199038676
 31
0.0
  0
LINE
  5
151D
  8
0
 10
70.786474663539124
 20
141.4204361990387
 30
0.0
 11
70.786474663539124
 21
140.6704361990387
 31
0.0
  0
LINE
  5
151E
  8
0
 10
52.17798783026339
 20
141.42043619903851
 30
0.0
 11
70.786474663539124
 21
141.4204361990387
 31
0.0
  0
LINE
  5
1531
  8
0
 10
52.177987830263419
 20
141.4204361990387
 30
0.0
 11
52.177987830263419
 21
91.920436199038733
 31
0.0
  0
LINE
  5
1537
  8
0
 10
78.877987830263393
 20
92.670436199038676
 30
0.0
 11
78.877987830263393
 21
91.920436199038733
 31
0.0
  0
LINE
  5
1538
  8
0
 10
78.877987830263393
 20
91.920436199038733
 30
0.0
 11
52.177987830263419
 21
91.920436199034853
 31
0.0
  0
LINE
  5
157F
  8
0
 10
135.5391710398963
 20
54.013505611654182
 30
0.0
 11
129.5391710398963
 21
54.013505611654182
 31
0.0
  0
LINE
  5
1580
  8
0
 10
147.5391710398963
 20
54.013505611654182
 30
0.0
 11
141.5391710398963
 21
54.013505611654182
 31
0.0
  0
LINE
  5
1581
  8
0
 10
159.5391710398963
 20
54.013505611654182
 30
0.0
 11
153.5391710398963
 21
54.013505611654182
 31
0.0
  0
LINE
  5
1582
  8
0
 10
171.5391710398963
 20
54.01350561165426
 30
0.0
 11
165.5391710398963
 21
54.01350561165426
 31
0.0
  0
LINE
  5
1583
  8
0
 10
123.5391710398964
 20
49.325809158884709
 30
0.0
 11
122.7891710398963
 21
49.325809158884709
 31
0.0
  0
LINE
  5
1584
  8
0
 10
172.28917103989639
 20
49.325809158884709
 30
0.0
 11
165.53917103989639
 21
49.325809158884709
 31
0.0
  0
LINE
  5
1585
  8
0
 10
141.5391710398963
 20
54.013505611654182
 30
0.0
 11
135.5391710398963
 21
54.013505611654182
 31
0.0
  0
LINE
  5
1586
  8
0
 10
153.5391710398963
 20
54.013505611654182
 30
0.0
 11
147.5391710398963
 21
54.013505611654182
 31
0.0
  0
LINE
  5
1587
  8
0
 10
165.5391710398963
 20
54.013505611654182
 30
0.0
 11
159.5391710398963
 21
54.013505611654182
 31
0.0
  0
LINE
  5
1588
  8
0
 10
129.5391710398963
 20
54.01350561165426
 30
0.0
 11
123.5391710398963
 21
54.01350561165426
 31
0.0
  0
LINE
  5
158F
  8
0
 10
171.53917103989639
 20
49.325809158884709
 30
0.0
 11
171.5391710398963
 21
54.01350561165426
 31
0.0
  0
LINE
  5
1592
  8
0
 10
122.7891710398964
 20
49.325809158884709
 30
0.0
 11
122.7891710398964
 21
34.013505611654423
 31
0.0
  0
LINE
  5
1594
  8
0
 10
172.28917103989639
 20
49.325809158884709
 30
0.0
 11
172.28917103989639
 21
34.013505611654423
 31
0.0
  0
LINE
  5
1595
  8
0
 10
122.7891710398964
 20
34.013505611654423
 30
0.0
 11
172.28917103989639
 21
34.013505611654423
 31
0.0
  0
LINE
  5
15AE
  8
0
 10
165.53917103989639
 20
49.227780804833372
 30
0.0
 11
165.53917103989639
 21
49.125824748096477
 31
0.0
  0
LINE
  5
15AF
  8
0
 10
122.7891710398964
 20
49.125824748096477
 30
0.0
 11
165.53917103989639
 21
49.125824748096477
 31
0.0
  0
LINE
  5
15B3
  8
0
 10
129.53917103989639
 20
54.013505611654182
 30
0.0
 11
129.53917103989639
 21
49.125824748096477
 31
0.0
  0
LINE
  5
15B4
  8
0
 10
123.5391710398964
 20
54.01350561165426
 30
0.0
 11
123.5391710398964
 21
49.125824748096477
 31
0.0
  0
LINE
  5
15B5
  8
0
 10
135.53917103989639
 20
54.013505611654182
 30
0.0
 11
135.53917103989639
 21
49.125824748096477
 31
0.0
  0
LINE
  5
15B7
  8
0
 10
141.5391710398963
 20
54.013505611654182
 30
0.0
 11
141.53917103989639
 21
49.125824748096477
 31
0.0
  0
LINE
  5
15B9
  8
0
 10
153.53917103989639
 20
54.013505611654182
 30
0.0
 11
153.53917103989639
 21
49.125824748096477
 31
0.0
  0
LINE
  5
15BA
  8
0
 10
147.5391710398963
 20
54.013505611654182
 30
0.0
 11
147.53917103989639
 21
49.125824748096477
 31
0.0
  0
LINE
  5
15BC
  8
0
 10
165.53917103989639
 20
54.01350561165426
 30
0.0
 11
165.53917103989639
 21
49.227780804833372
 31
0.0
  0
LINE
  5
15BD
  8
0
 10
159.5391710398963
 20
54.013505611654182
 30
0.0
 11
159.53917103989639
 21
49.125824748096477
 31
0.0
  0
LINE
  5
197D
  8
1
 10
83.177987830263419
 20
47.013505611654381
 30
0.0
 11
69.177987830263405
 21
47.013505611654381
 31
0.0
  0
LINE
  5
197E
  8
1
 10
76.177987830263419
 20
54.013505611654409
 30
0.0
 11
76.177987830263419
 21
40.013505611654402
 31
0.0
  0
LINE
  5
1980
  8
1
 10
60.677987830263362
 20
32.013505611654438
 30
0.0
 11
60.677987830263362
 21
47.952284947676723
 31
0.0
  0
LINE
  5
1981
  8
1
 10
91.677987830263362
 20
32.013505611654431
 30
0.0
 11
91.677987830263362
 21
47.952284947676723
 31
0.0
  0
LINE
  5
19CE
  8
1
 10
147.53917103989639
 20
29.01350561165442
 30
0.0
 11
147.53917103989639
 21
59.013505611654182
 31
0.0
  0
LINE
  5
19D7
  8
1
 10
132.43917103989631
 20
32.013505611654438
 30
0.0
 11
132.43917103989631
 21
47.952284947676723
 31
0.0
  0
LINE
  5
19D8
  8
1
 10
162.63917103989641
 20
32.013505611654438
 30
0.0
 11
162.63917103989641
 21
47.952284947676723
 31
0.0
  0
LINE
  5
1A1F
  8
1
 10
53.677987830263419
 20
131.7704361990387
 30
0.0
 11
67.677987830263461
 21
131.7704361990387
 31
0.0
  0
LINE
  5
1A20
  8
1
 10
60.67798783026344
 20
138.7704361990387
 30
0.0
 11
60.67798783026344
 21
124.7704361990387
 31
0.0
  0
LINE
  5
1A27
  8
1
 10
84.677987830263376
 20
131.7704361990387
 30
0.0
 11
98.677987830263405
 21
131.7704361990387
 31
0.0
  0
LINE
  5
1A28
  8
1
 10
91.677987830263376
 20
138.7704361990387
 30
0.0
 11
91.677987830263376
 21
124.7704361990387
 31
0.0
  0
LINE
  5
1A2B
  8
1
 10
84.677987830263376
 20
101.5704361990387
 30
0.0
 11
98.677987830263405
 21
101.5704361990387
 31
0.0
  0
LINE
  5
1A2C
  8
1
 10
91.677987830263376
 20
108.5704361990387
 30
0.0
 11
91.677987830263376
 21
94.570436199038696
 31
0.0
  0
LINE
  5
1A2F
  8
1
 10
53.677987830263419
 20
101.5704361990387
 30
0.0
 11
67.677987830263461
 21
101.5704361990387
 31
0.0
  0
LINE
  5
1A30
  8
1
 10
60.67798783026344
 20
108.5704361990387
 30
0.0
 11
60.67798783026344
 21
94.570436199038696
 31
0.0
  0
LINE
  5
1A85
  8
1
 10
105.1779878302634
 20
116.6704361990387
 30
0.0
 11
47.177987830263412
 21
116.6704361990387
 31
0.0
  0
LINE
  5
1A86
  8
1
 10
76.177987830263419
 20
146.4204361990387
 30
0.0
 11
76.177987830263419
 21
86.920436199038335
 31
0.0
  0
LINE
  5
1E97
  8
2
 10
65.677987830263419
 20
44.263505611654367
 30
0.0
 11
65.677987830263419
 21
48.403191690040607
 31
0.0
  0
LINE
  5
1E98
  8
2
 10
63.427987830263419
 20
42.013505611654359
 30
0.0
 11
65.677987830263419
 21
44.263505611654367
 31
0.0
  0
LINE
  5
1E99
  8
2
 10
63.427987830263419
 20
34.013505611654367
 30
0.0
 11
63.427987830263419
 21
42.013505611654359
 31
0.0
  0
LINE
  5
1E9A
  8
2
 10
55.677987830263419
 20
45.070650044133998
 30
0.0
 11
55.677987830263419
 21
44.263505611654367
 31
0.0
  0
LINE
  5
1E9B
  8
2
 10
55.677987830263419
 20
44.263505611654367
 30
0.0
 11
57.927987830263412
 21
42.013505611654359
 31
0.0
  0
LINE
  5
1E9C
  8
2
 10
57.927987830263412
 20
42.013505611654359
 30
0.0
 11
57.927987830263412
 21
34.013505611654367
 31
0.0
  0
LINE
  5
1EB1
  8
2
 10
55.677987830263419
 20
44.263505611654367
 30
0.0
 11
65.677987830263419
 21
44.263505611654367
 31
0.0
  0
LINE
  5
1EB2
  8
2
 10
57.927987830263412
 20
42.013505611654359
 30
0.0
 11
63.427987830263419
 21
42.013505611654359
 31
0.0
  0
LINE
  5
1EB3
  8
2
 10
96.677987830263405
 20
44.263505611654367
 30
0.0
 11
96.677987830263405
 21
45.070650044133998
 31
0.0
  0
LINE
  5
1EB4
  8
2
 10
86.677987830263405
 20
48.403191690040607
 30
0.0
 11
86.677987830263405
 21
44.263505611654367
 31
0.0
  0
LINE
  5
1EB5
  8
2
 10
94.427987830263419
 20
42.013505611654359
 30
0.0
 11
96.677987830263405
 21
44.263505611654367
 31
0.0
  0
LINE
  5
1EB6
  8
2
 10
86.677987830263405
 20
44.263505611654367
 30
0.0
 11
88.927987830263405
 21
42.013505611654359
 31
0.0
  0
LINE
  5
1EB7
  8
2
 10
94.427987830263419
 20
34.013505611654367
 30
0.0
 11
94.427987830263419
 21
42.013505611654359
 31
0.0
  0
LINE
  5
1EB8
  8
2
 10
88.927987830263405
 20
42.013505611654359
 30
0.0
 11
88.927987830263405
 21
34.013505611654367
 31
0.0
  0
LINE
  5
1ECF
  8
2
 10
96.677987830263405
 20
44.263505611654367
 30
0.0
 11
86.677987830263405
 21
44.263505611654367
 31
0.0
  0
LINE
  5
1ED0
  8
2
 10
94.427987830263419
 20
42.013505611654359
 30
0.0
 11
88.927987830263405
 21
42.013505611654359
 31
0.0
  0
LINE
  5
20EE
  8
2
 10
137.43917103989631
 20
44.263505611654423
 30
0.0
 11
137.43917103989631
 21
45.952284947676382
 31
0.0
  0
LINE
  5
20EF
  8
2
 10
127.43917103989629
 20
45.952284947676382
 30
0.0
 11
127.43917103989629
 21
44.263505611654423
 31
0.0
  0
LINE
  5
20F0
  8
2
 10
135.18917103989631
 20
42.013505611654423
 30
0.0
 11
137.43917103989631
 21
44.263505611654423
 31
0.0
  0
LINE
  5
20F1
  8
2
 10
127.43917103989629
 20
44.263505611654423
 30
0.0
 11
129.68917103989631
 21
42.013505611654423
 31
0.0
  0
LINE
  5
20F2
  8
2
 10
135.18917103989631
 20
34.013505611654423
 30
0.0
 11
135.18917103989631
 21
42.013505611654423
 31
0.0
  0
LINE
  5
20F3
  8
2
 10
129.68917103989631
 20
42.013505611654423
 30
0.0
 11
129.68917103989631
 21
34.013505611654423
 31
0.0
  0
LINE
  5
2124
  8
2
 10
137.43917103989631
 20
44.263505611654423
 30
0.0
 11
127.43917103989629
 21
44.263505611654423
 31
0.0
  0
LINE
  5
2125
  8
2
 10
135.18917103989631
 20
42.013505611654423
 30
0.0
 11
129.68917103989631
 21
42.013505611654423
 31
0.0
  0
POLYLINE
  5
215A
  8
0
 66
     1
 10
0.0
 20
0.0
 30
0.0
  0
VERTEX
  5
23B4
  8
0
 10
166.9883193562994
 20
46.694500285039091
 30
0.0
  0
VERTEX
  5
23B5
  8
0
 10
167.00672827912729
 20
46.672681766302233
 30
0.0
  0
VERTEX
  5
23B6
  8
0
 10
167.04312780055369
 20
46.629977872496582
 30
0.0
  0
VERTEX
  5
23B7
  8
0
 10
167.07891329303899
 20
46.588568456347737
 30
0.0
  0
VERTEX
  5
23B8
  8
0
 10
167.09655505607299
 20
46.568367629753297
 30
0.0
  0
VERTEX
  5
23B9
  8
0
 10
167.1140186711566
 20
46.548512327214397
 30
0.0
  0
VERTEX
  5
23BA
  8
0
 10
167.14837974405989
 20
46.509866314300361
 30
0.0
  0
VERTEX
  5
23BB
  8
0
 10
167.1819344981113
 20
46.472685021608171
 30
0.0
  0
VERTEX
  5
23BC
  8
0
 10
167.2146233711334
 20
46.437020593781753
 30
0.0
  0
VERTEX
  5
23BD
  8
0
 10
167.24638951531341
 20
46.402922497352201
 30
0.0
  0
VERTEX
  5
23BE
  8
0
 10
167.27718033807079
 20
46.370435971120841
 30
0.0
  0
VERTEX
  5
23BF
  8
0
 10
167.29219723251131
 20
46.354807485377037
 30
0.0
  0
VERTEX
  5
23C0
  8
0
 10
167.30695396191791
 20
46.339595591917643
 30
0.0
  0
VERTEX
  5
23C1
  8
0
 10
167.33566229076399
 20
46.310443166325982
 30
0.0
  0
VERTEX
  5
23C2
  8
0
 10
167.36325767045039
 20
46.283020323842592
 30
0.0
  0
VERTEX
  5
23C3
  8
0
 10
167.38969526666659
 20
46.25736597501627
 30
0.0
  0
VERTEX
  5
23C4
  8
0
 10
167.41493338343611
 20
46.233515972753629
 30
0.0
  0
VERTEX
  5
23C5
  8
0
 10
167.4389337541605
 20
46.211502814990972
 30
0.0
  0
VERTEX
  5
23C6
  8
0
 10
167.450458828243
 20
46.201194228904612
 30
0.0
  0
VERTEX
  5
23C7
  8
0
 10
167.46166179870451
 20
46.191355397001743
 30
0.0
  0
VERTEX
  5
23C8
  8
0
 10
167.4830868392406
 20
46.173098822819881
 30
0.0
  0
VERTEX
  5
23C9
  8
0
 10
167.50318228602109
 20
46.156754271188859
 30
0.0
  0
VERTEX
  5
23CA
  8
0
 10
167.5127240993439
 20
46.149304653439017
 30
0.0
  0
SEQEND
  5
23CB
  8
0
  0
POLYLINE
  5
215B
  8
0
 66
     1
 10
0.0
 20
0.0
 30
0.0
  0
VERTEX
  5
23CC
  8
0
 10
167.5127240993439
 20
46.149304653439017
 30
0.0
  0
VERTEX
  5
23CD
  8
0
 10
167.5196236209697
 20
46.14392103365055
 30
0.0
  0
VERTEX
  5
23CE
  8
0
 10
167.5328485725604
 20
46.133131473377219
 30
0.0
  0
VERTEX
  5
23CF
  8
0
 10
167.54530635340299
 20
46.122313562203502
 30
0.0
  0
VERTEX
  5
23D0
  8
0
 10
167.55124693978161
 20
46.116894504831187
 30
0.0
  0
VERTEX
  5
23D1
  8
0
 10
167.5569950105193
 20
46.111468996028762
 30
0.0
  0
VERTEX
  5
23D2
  8
0
 10
167.5679127115049
 20
46.100599474931172
 30
0.0
  0
VERTEX
  5
23D3
  8
0
 10
167.5780577448167
 20
46.089706702900898
 30
0.0
  0
VERTEX
  5
23D4
  8
0
 10
167.58742852004059
 20
46.078792387573131
 30
0.0
  0
VERTEX
  5
23D5
  8
0
 10
167.5960235681417
 20
46.067858239960437
 30
0.0
  0
VERTEX
  5
23D6
  8
0
 10
167.60384154169341
 20
46.056905974184339
 30
0.0
  0
VERTEX
  5
23D7
  8
0
 10
167.60745873774749
 20
46.051423583432019
 30
0.0
  0
VERTEX
  5
23D8
  8
0
 10
167.61088121508999
 20
46.045937307206792
 30
0.0
  0
VERTEX
  5
23D9
  8
0
 10
167.61714148473769
 20
46.034953958560813
 30
0.0
  0
VERTEX
  5
23DA
  8
0
 10
167.62262136922811
 20
46.023957650081179
 30
0.0
  0
VERTEX
  5
23DB
  8
0
 10
167.62732000949231
 20
46.012950105634232
 30
0.0
  0
VERTEX
  5
23DC
  8
0
 10
167.631236668935
 20
46.001933050847818
 30
0.0
  0
VERTEX
  5
23DD
  8
0
 10
167.6343707335503
 20
45.990908212840658
 30
0.0
  0
VERTEX
  5
23DE
  8
0
 10
167.63564413446551
 20
45.985393415194963
 30
0.0
  0
VERTEX
  5
23DF
  8
0
 10
167.6367217120181
 20
45.979877319951683
 30
0.0
  0
VERTEX
  5
23E0
  8
0
 10
167.63828923578089
 20
45.968842101468951
 30
0.0
  0
VERTEX
  5
23E1
  8
0
 10
167.63907305910129
 20
45.957804287358677
 30
0.0
  0
VERTEX
  5
23E2
  8
0
 10
167.63917103989641
 20
45.952284947676382
 30
0.0
  0
SEQEND
  5
23E3
  8
0
  0
POLYLINE
  5
215C
  8
0
 66
     1
 10
0.0
 20
0.0
 30
0.0
  0
VERTEX
  5
23E4
  8
0
 10
167.63917103989641
 20
45.952284947676382
 30
0.0
  0
VERTEX
  5
23E5
  8
0
 10
167.63864219953189
 20
45.93946253987319
 30
0.0
  0
VERTEX
  5
23E6
  8
0
 10
167.6344121478057
 20
45.913828573303967
 30
0.0
  0
VERTEX
  5
23E7
  8
0
 10
167.62595562339931
 20
45.888227144666772
 30
0.0
  0
VERTEX
  5
23E8
  8
0
 10
167.62014453035519
 20
45.875445402825882
 30
0.0
  0
VERTEX
  5
23E9
  8
0
 10
167.6132797813766
 20
45.862679915326147
 30
0.0
  0
VERTEX
  5
23EA
  8
0
 10
167.59639534676549
 20
45.837208500788691
 30
0.0
  0
VERTEX
  5
23EB
  8
0
 10
167.57531660548329
 20
45.811834452414033
 30
0.0
  0
VERTEX
  5
23EC
  8
0
 10
167.5500613922496
 20
45.786579239180313
 30
0.0
  0
VERTEX
  5
23ED
  8
0
 10
167.52065107549609
 20
45.761464229519312
 30
0.0
  0
VERTEX
  5
23EE
  8
0
 10
167.48711053928699
 20
45.736510673236559
 30
0.0
  0
VERTEX
  5
23EF
  8
0
 10
167.4688001713418
 20
45.724101043812489
 30
0.0
  0
VERTEX
  5
23F0
  8
0
 10
167.44946816226451
 20
45.711739683531967
 30
0.0
  0
VERTEX
  5
23F1
  8
0
 10
167.40775579363751
 20
45.687172219135803
 30
0.0
  0
VERTEX
  5
23F2
  8
0
 10
167.36200872623439
 20
45.662829066575661
 30
0.0
  0
VERTEX
  5
23F3
  8
0
 10
167.31226566664131
 20
45.638730822588947
 30
0.0
  0
VERTEX
  5
23F4
  8
0
 10
167.25856870245289
 20
45.614897876695927
 30
0.0
  0
VERTEX
  5
23F5
  8
0
 10
167.20096326666149
 20
45.59135039394819
 30
0.0
  0
VERTEX
  5
23F6
  8
0
 10
167.17070997507969
 20
45.579689937251388
 30
0.0
  0
VERTEX
  5
23F7
  8
0
 10
167.13949809921701
 20
45.56810829786702
 30
0.0
  0
VERTEX
  5
23F8
  8
0
 10
167.07422520578751
 20
45.545191253586111
 30
0.0
  0
VERTEX
  5
23F9
  8
0
 10
167.0051998137574
 20
45.522618651212817
 30
0.0
  0
VERTEX
  5
23FA
  8
0
 10
166.96929805881859
 20
45.511467495905222
 30
0.0
  0
VERTEX
  5
23FB
  8
0
 10
166.93248032549951
 20
45.500409589422347
 30
0.0
  0
VERTEX
  5
23FC
  8
0
 10
166.8561282689609
 20
45.478582859298193
 30
0.0
  0
VERTEX
  5
23FD
  8
0
 10
166.77620824560401
 20
45.45715692843315
 30
0.0
  0
VERTEX
  5
23FE
  8
0
 10
166.73493126134139
 20
45.446599941539873
 30
0.0
  0
VERTEX
  5
23FF
  8
0
 10
166.69278787574751
 20
45.436149925303781
 30
0.0
  0
VERTEX
  5
2400
  8
0
 10
166.60593774135259
 20
45.415579623931983
 30
0.0
  0
VERTEX
  5
2401
  8
0
 10
166.51573132630369
 20
45.395463428846377
 30
0.0
  0
VERTEX
  5
2402
  8
0
 10
166.42224495423389
 20
45.37581836035632
 30
0.0
  0
VERTEX
  5
2403
  8
0
 10
166.32555772394701
 20
45.356661040150989
 30
0.0
  0
VERTEX
  5
2404
  8
0
 10
166.22575144249291
 20
45.338007677235922
 30
0.0
  0
VERTEX
  5
2405
  8
0
 10
166.17470494582909
 20
45.328874928850851
 30
0.0
  0
VERTEX
  5
2406
  8
0
 10
166.12291055594969
 20
45.319874054218403
 30
0.0
  0
VERTEX
  5
2407
  8
0
 10
166.0171220779747
 20
45.30227551395383
 30
0.0
  0
VERTEX
  5
2408
  8
0
 10
165.9084755161818
 20
45.285226946564293
 30
0.0
  0
VERTEX
  5
2409
  8
0
 10
165.79706279640891
 20
45.268742776839822
 30
0.0
  0
VERTEX
  5
240A
  8
0
 10
165.68297818494
 20
45.252836952033739
 30
0.0
  0
VERTEX
  5
240B
  8
0
 10
165.56631820874611
 20
45.237522930061751
 30
0.0
  0
VERTEX
  5
240C
  8
0
 10
165.5070532216516
 20
45.23009191412315
 30
0.0
  0
VERTEX
  5
240D
  8
0
 10
165.44718157381391
 20
45.222813668115357
 30
0.0
  0
VERTEX
  5
240E
  8
0
 10
165.32566908163059
 20
45.208721611698692
 30
0.0
  0
VERTEX
  5
240F
  8
0
 10
165.20188354389569
 20
45.195258684098363
 30
0.0
  0
VERTEX
  5
2410
  8
0
 10
165.07592969553261
 20
45.182436276295178
 30
0.0
  0
VERTEX
  5
2411
  8
0
 10
164.94791410607161
 20
45.170265237326291
 30
0.0
  0
VERTEX
  5
2412
  8
0
 10
164.81794508948181
 20
45.158755865105761
 30
0.0
  0
VERTEX
  5
2413
  8
0
 10
164.75226234859991
 20
45.153252369272657
 30
0.0
  0
VERTEX
  5
2414
  8
0
 10
164.6861326125269
 20
45.147917897711537
 30
0.0
  0
VERTEX
  5
2415
  8
0
 10
164.55258820172179
 20
45.137760505146062
 30
0.0
  0
VERTEX
  5
2416
  8
0
 10
164.4174248489708
 20
45.12829228157748
 30
0.0
  0
VERTEX
  5
2417
  8
0
 10
164.28075691596419
 20
45.119521238068231
 30
0.0
  0
VERTEX
  5
2418
  8
0
 10
164.1427000374178
 20
45.111454795796767
 30
0.0
  0
VERTEX
  5
2419
  8
0
 10
164.00337102323371
 20
45.104099779778593
 30
0.0
  0
VERTEX
  5
241A
  8
0
 10
163.933266265409
 20
45.100691024986972
 30
0.0
  0
VERTEX
  5
241B
  8
0
 10
163.86288775966801
 20
45.09746241309152
 30
0.0
  0
VERTEX
  5
241C
  8
0
 10
163.7213691095869
 20
45.091548311610417
 30
0.0
  0
VERTEX
  5
241D
  8
0
 10
163.578934811897
 20
45.086362479255612
 30
0.0
  0
VERTEX
  5
241E
  8
0
 10
163.435705380234
 20
45.081909303758962
 30
0.0
  0
VERTEX
  5
241F
  8
0
 10
163.29180200099671
 20
45.078192552951528
 30
0.0
  0
VERTEX
  5
2420
  8
0
 10
163.1473464308105
 20
45.075215371575588
 30
0.0
  0
VERTEX
  5
2421
  8
0
 10
163.07494975363471
 20
45.074004931114892
 30
0.0
  0
VERTEX
  5
2422
  8
0
 10
163.00246089350949
 20
45.072980278623803
 30
0.0
  0
VERTEX
  5
2423
  8
0
 10
162.85726797672311
 20
45.071489165207922
 30
0.0
  0
VERTEX
  5
2424
  8
0
 10
162.71189052815441
 20
45.070743292958788
 30
0.0
  0
VERTEX
  5
2425
  8
0
 10
162.63917103989641
 20
45.070650044134041
 30
0.0
  0
VERTEX
  5
2426
  8
0
 10
162.56645155163849
 20
45.070743292958788
 30
0.0
  0
VERTEX
  5
2427
  8
0
 10
162.42107410306971
 20
45.071489165207922
 30
0.0
  0
VERTEX
  5
2428
  8
0
 10
162.27588118628341
 20
45.072980278623803
 30
0.0
  0
VERTEX
  5
2429
  8
0
 10
162.20339232615811
 20
45.074004931114892
 30
0.0
  0
VERTEX
  5
242A
  8
0
 10
162.13099564898241
 20
45.075215371575588
 30
0.0
  0
VERTEX
  5
242B
  8
0
 10
161.9865400787962
 20
45.078192552951528
 30
0.0
  0
VERTEX
  5
242C
  8
0
 10
161.8426366995588
 20
45.081909303758962
 30
0.0
  0
VERTEX
  5
242D
  8
0
 10
161.69940726789591
 20
45.086362479255612
 30
0.0
  0
VERTEX
  5
242E
  8
0
 10
161.55697297020589
 20
45.091548311610417
 30
0.0
  0
VERTEX
  5
242F
  8
0
 10
161.41545432012481
 20
45.09746241309152
 30
0.0
  0
VERTEX
  5
2430
  8
0
 10
161.34507581438379
 20
45.100691024986972
 30
0.0
  0
VERTEX
  5
2431
  8
0
 10
161.27497105655911
 20
45.104099779778593
 30
0.0
  0
VERTEX
  5
2432
  8
0
 10
161.13564204237511
 20
45.111454795796767
 30
0.0
  0
VERTEX
  5
2433
  8
0
 10
160.9975851638286
 20
45.119521238068231
 30
0.0
  0
VERTEX
  5
2434
  8
0
 10
160.860917230822
 20
45.12829228157748
 30
0.0
  0
VERTEX
  5
2435
  8
0
 10
160.725753878071
 20
45.137760505146062
 30
0.0
  0
VERTEX
  5
2436
  8
0
 10
160.592209467266
 20
45.147917897711537
 30
0.0
  0
VERTEX
  5
2437
  8
0
 10
160.52607973119291
 20
45.153252369272657
 30
0.0
  0
VERTEX
  5
2438
  8
0
 10
160.46039699031101
 20
45.158755865105761
 30
0.0
  0
VERTEX
  5
2439
  8
0
 10
160.3304279737213
 20
45.170265237326291
 30
0.0
  0
VERTEX
  5
243A
  8
0
 10
160.20241238426021
 20
45.182436276295178
 30
0.0
  0
VERTEX
  5
243B
  8
0
 10
160.0764585358971
 20
45.195258684098363
 30
0.0
  0
VERTEX
  5
243C
  8
0
 10
159.95267299816231
 20
45.208721611698692
 30
0.0
  0
VERTEX
  5
243D
  8
0
 10
159.831160505979
 20
45.222813668115357
 30
0.0
  0
VERTEX
  5
243E
  8
0
 10
159.77128885814119
 20
45.23009191412315
 30
0.0
  0
VERTEX
  5
243F
  8
0
 10
159.71202387104671
 20
45.237522930061751
 30
0.0
  0
VERTEX
  5
2440
  8
0
 10
159.5953638948528
 20
45.252836952033739
 30
0.0
  0
VERTEX
  5
2441
  8
0
 10
159.48127928338391
 20
45.268742776839822
 30
0.0
  0
VERTEX
  5
2442
  8
0
 10
159.36986656361111
 20
45.285226946564293
 30
0.0
  0
VERTEX
  5
2443
  8
0
 10
159.26122000181809
 20
45.30227551395383
 30
0.0
  0
VERTEX
  5
2444
  8
0
 10
159.15543152384319
 20
45.319874054218403
 30
0.0
  0
VERTEX
  5
2445
  8
0
 10
159.1036371339637
 20
45.328874928850851
 30
0.0
  0
VERTEX
  5
2446
  8
0
 10
159.05259063729989
 20
45.338007677235922
 30
0.0
  0
VERTEX
  5
2447
  8
0
 10
158.95278435584581
 20
45.356661040150989
 30
0.0
  0
VERTEX
  5
2448
  8
0
 10
158.85609712555899
 20
45.37581836035632
 30
0.0
  0
VERTEX
  5
2449
  8
0
 10
158.7626107534891
 20
45.395463428846377
 30
0.0
  0
VERTEX
  5
244A
  8
0
 10
158.6724043384402
 20
45.415579623931983
 30
0.0
  0
VERTEX
  5
244B
  8
0
 10
158.58555420404539
 20
45.436149925303781
 30
0.0
  0
VERTEX
  5
244C
  8
0
 10
158.54341081845141
 20
45.446599941539873
 30
0.0
  0
VERTEX
  5
244D
  8
0
 10
158.50213383418881
 20
45.45715692843315
 30
0.0
  0
VERTEX
  5
244E
  8
0
 10
158.42221381083201
 20
45.478582859298193
 30
0.0
  0
VERTEX
  5
244F
  8
0
 10
158.3458617542934
 20
45.500409589422347
 30
0.0
  0
VERTEX
  5
2450
  8
0
 10
158.3090440209742
 20
45.511467495905222
 30
0.0
  0
VERTEX
  5
2451
  8
0
 10
158.27314226603551
 20
45.522618651212817
 30
0.0
  0
VERTEX
  5
2452
  8
0
 10
158.20411687400531
 20
45.545191253586111
 30
0.0
  0
VERTEX
  5
2453
  8
0
 10
158.13884398057581
 20
45.56810829786702
 30
0.0
  0
VERTEX
  5
2454
  8
0
 10
158.10763210471319
 20
45.579689937251388
 30
0.0
  0
VERTEX
  5
2455
  8
0
 10
158.07737881313139
 20
45.59135039394819
 30
0.0
  0
VERTEX
  5
2456
  8
0
 10
158.01977337733999
 20
45.614897876695927
 30
0.0
  0
VERTEX
  5
2457
  8
0
 10
157.96607641315151
 20
45.638730822588947
 30
0.0
  0
VERTEX
  5
2458
  8
0
 10
157.9163333535584
 20
45.662829066575661
 30
0.0
  0
VERTEX
  5
2459
  8
0
 10
157.87058628615529
 20
45.687172219135803
 30
0.0
  0
VERTEX
  5
245A
  8
0
 10
157.8288739175284
 20
45.711739683531967
 30
0.0
  0
VERTEX
  5
245B
  8
0
 10
157.80954190845111
 20
45.724101043812489
 30
0.0
  0
VERTEX
  5
245C
  8
0
 10
157.79123154050589
 20
45.736510673236559
 30
0.0
  0
VERTEX
  5
245D
  8
0
 10
157.75769100429679
 20
45.761464229519312
 30
0.0
  0
VERTEX
  5
245E
  8
0
 10
157.72828068754319
 20
45.786579239180313
 30
0.0
  0
VERTEX
  5
245F
  8
0
 10
157.7030254743095
 20
45.811834452414033
 30
0.0
  0
VERTEX
  5
2460
  8
0
 10
157.68194673302739
 20
45.837208500788691
 30
0.0
  0
VERTEX
  5
2461
  8
0
 10
157.6650622984163
 20
45.862679915326147
 30
0.0
  0
VERTEX
  5
2462
  8
0
 10
157.65819754943769
 20
45.875445402825882
 30
0.0
  0
VERTEX
  5
2463
  8
0
 10
157.6523864563936
 20
45.888227144666772
 30
0.0
  0
VERTEX
  5
2464
  8
0
 10
157.64392993198709
 20
45.913828573303967
 30
0.0
  0
VERTEX
  5
2465
  8
0
 10
157.63969988026091
 20
45.93946253987319
 30
0.0
  0
VERTEX
  5
2466
  8
0
 10
157.63917103989641
 20
45.952284947676382
 30
0.0
  0
SEQEND
  5
2467
  8
0
  0
POLYLINE
  5
215D
  8
0
 66
     1
 10
0.0
 20
0.0
 30
0.0
  0
VERTEX
  5
2468
  8
0
 10
157.63917103989641
 20
45.952284947676382
 30
0.0
  0
VERTEX
  5
2469
  8
0
 10
157.6392690206915
 20
45.957804287358677
 30
0.0
  0
VERTEX
  5
246A
  8
0
 10
157.64005284401199
 20
45.968842101468951
 30
0.0
  0
VERTEX
  5
246B
  8
0
 10
157.64162036777469
 20
45.979877319951683
 30
0.0
  0
VERTEX
  5
246C
  8
0
 10
157.64269794532731
 20
45.985393415194963
 30
0.0
  0
VERTEX
  5
246D
  8
0
 10
157.64397134624249
 20
45.990908212840658
 30
0.0
  0
VERTEX
  5
246E
  8
0
 10
157.6471054108579
 20
46.001933050847818
 30
0.0
  0
VERTEX
  5
246F
  8
0
 10
157.6510220703006
 20
46.012950105634232
 30
0.0
  0
VERTEX
  5
2470
  8
0
 10
157.65572071056471
 20
46.023957650081179
 30
0.0
  0
VERTEX
  5
2471
  8
0
 10
157.66120059505519
 20
46.034953958560813
 30
0.0
  0
VERTEX
  5
2472
  8
0
 10
157.6674608647028
 20
46.045937307206792
 30
0.0
  0
VERTEX
  5
2473
  8
0
 10
157.6708833420453
 20
46.051423583432047
 30
0.0
  0
VERTEX
  5
2474
  8
0
 10
157.67450053809941
 20
46.056905974184339
 30
0.0
  0
VERTEX
  5
2475
  8
0
 10
157.6823185116512
 20
46.067858239960437
 30
0.0
  0
VERTEX
  5
2476
  8
0
 10
157.6909135597522
 20
46.078792387573131
 30
0.0
  0
VERTEX
  5
2477
  8
0
 10
157.7002843349762
 20
46.089706702900898
 30
0.0
  0
VERTEX
  5
2478
  8
0
 10
157.710429368288
 20
46.100599474931172
 30
0.0
  0
VERTEX
  5
2479
  8
0
 10
157.72134706927361
 20
46.111468996028762
 30
0.0
  0
VERTEX
  5
247A
  8
0
 10
157.7270951400113
 20
46.116894504831187
 30
0.0
  0
VERTEX
  5
247B
  8
0
 10
157.73303572638989
 20
46.122313562203502
 30
0.0
  0
VERTEX
  5
247C
  8
0
 10
157.7454935072324
 20
46.133131473377219
 30
0.0
  0
VERTEX
  5
247D
  8
0
 10
157.7587184588231
 20
46.14392103365055
 30
0.0
  0
VERTEX
  5
247E
  8
0
 10
157.76561798044901
 20
46.149304653439017
 30
0.0
  0
SEQEND
  5
247F
  8
0
  0
POLYLINE
  5
215E
  8
0
 66
     1
 10
0.0
 20
0.0
 30
0.0
  0
VERTEX
  5
2480
  8
0
 10
157.76561798044901
 20
46.149304653439017
 30
0.0
  0
VERTEX
  5
2481
  8
0
 10
157.77515979377171
 20
46.156754271188859
 30
0.0
  0
VERTEX
  5
2482
  8
0
 10
157.79525524055231
 20
46.17309882281991
 30
0.0
  0
VERTEX
  5
2483
  8
0
 10
157.81668028108831
 20
46.1913553970018
 30
0.0
  0
VERTEX
  5
2484
  8
0
 10
157.82788325154991
 20
46.201194228904697
 30
0.0
  0
VERTEX
  5
2485
  8
0
 10
157.83940832563249
 20
46.21150281499105
 30
0.0
  0
VERTEX
  5
2486
  8
0
 10
157.86340869635691
 20
46.233515972753779
 30
0.0
  0
VERTEX
  5
2487
  8
0
 10
157.8886468131264
 20
46.257365975016469
 30
0.0
  0
VERTEX
  5
2488
  8
0
 10
157.91508440934271
 20
46.28302032384282
 30
0.0
  0
VERTEX
  5
2489
  8
0
 10
157.9426797890292
 20
46.310443166326237
 30
0.0
  0
VERTEX
  5
248A
  8
0
 10
157.97138811787519
 20
46.339595591917949
 30
0.0
  0
VERTEX
  5
248B
  8
0
 10
157.98614484728191
 20
46.354807485377371
 30
0.0
  0
VERTEX
  5
248C
  8
0
 10
158.0011617417224
 20
46.370435971121204
 30
0.0
  0
VERTEX
  5
248D
  8
0
 10
158.03195256447981
 20
46.402922497352627
 30
0.0
  0
VERTEX
  5
248E
  8
0
 10
158.06371870865979
 20
46.437020593782179
 30
0.0
  0
VERTEX
  5
248F
  8
0
 10
158.0964075816818
 20
46.472685021608569
 30
0.0
  0
VERTEX
  5
2490
  8
0
 10
158.12996233573321
 20
46.509866314300673
 30
0.0
  0
VERTEX
  5
2491
  8
0
 10
158.16432340863639
 20
46.548512327214588
 30
0.0
  0
VERTEX
  5
2492
  8
0
 10
158.18178702372001
 20
46.568367629753439
 30
0.0
  0
VERTEX
  5
2493
  8
0
 10
158.19942878675391
 20
46.588568456347822
 30
0.0
  0
VERTEX
  5
2494
  8
0
 10
158.2352142792391
 20
46.629977872496603
 30
0.0
  0
VERTEX
  5
2495
  8
0
 10
158.27161380066551
 20
46.672681766302233
 30
0.0
  0
VERTEX
  5
2496
  8
0
 10
158.29002272349351
 20
46.694500285039091
 30
0.0
  0
SEQEND
  5
2497
  8
0
  0
POLYLINE
  5
2163
  8
0
 66
     1
 10
0.0
 20
0.0
 30
0.0
  0
VERTEX
  5
2498
  8
0
 10
158.29002272349351
 20
46.694500285039091
 30
0.0
  0
VERTEX
  5
2499
  8
0
 10
158.31432312039189
 20
46.723072896643949
 30
0.0
  0
VERTEX
  5
249A
  8
0
 10
158.36415929334169
 20
46.779731051422701
 30
0.0
  0
VERTEX
  5
249B
  8
0
 10
158.41562672604269
 20
46.835721791198019
 30
0.0
  0
VERTEX
  5
249C
  8
0
 10
158.4419660517388
 20
46.863460193738732
 30
0.0
  0
VERTEX
  5
249D
  8
0
 10
158.4687057795428
 20
46.891023751013343
 30
0.0
  0
VERTEX
  5
249E
  8
0
 10
158.52337619992721
 20
46.945615828736898
 30
0.0
  0
VERTEX
  5
249F
  8
0
 10
158.57961712604691
 20
46.999477193113862
 30
0.0
  0
VERTEX
  5
24A0
  8
0
 10
158.63740709747941
 20
47.052587291715078
 30
0.0
  0
VERTEX
  5
24A1
  8
0
 10
158.69672406271701
 20
47.104925858779623
 30
0.0
  0
VERTEX
  5
24A2
  8
0
 10
158.75754538758119
 20
47.156472922947628
 30
0.0
  0
VERTEX
  5
24A3
  8
0
 10
158.7885129544897
 20
47.181943482773541
 30
0.0
  0
VERTEX
  5
24A4
  8
0
 10
158.81984786386019
 20
47.207208814881071
 30
0.0
  0
VERTEX
  5
24A5
  8
0
 10
158.88360771816369
 20
47.2571141747692
 30
0.0
  0
VERTEX
  5
24A6
  8
0
 10
158.948800620995
 20
47.306169959715817
 30
0.0
  0
VERTEX
  5
24A7
  8
0
 10
159.01540169603479
 20
47.354357451005662
 30
0.0
  0
VERTEX
  5
24A8
  8
0
 10
159.08338552963261
 20
47.401658261247157
 30
0.0
  0
VERTEX
  5
24A9
  8
0
 10
159.152726180505
 20
47.448054341388577
 30
0.0
  0
VERTEX
  5
24AA
  8
0
 10
159.18789706392531
 20
47.470907561555528
 30
0.0
  0
VERTEX
  5
24AB
  8
0
 10
159.22339718963411
 20
47.49352798760539
 30
0.0
  0
VERTEX
  5
24AC
  8
0
 10
159.2953715903634
 20
47.53806184805542
 30
0.0
  0
VERTEX
  5
24AD
  8
0
 10
159.36862191868821
 20
47.581638929500222
 30
0.0
  0
VERTEX
  5
24AE
  8
0
 10
159.4057168397789
 20
47.603063467362901
 30
0.0
  0
VERTEX
  5
24AF
  8
0
 10
159.44312022373501
 20
47.624242603789199
 30
0.0
  0
VERTEX
  5
24B0
  8
0
 10
159.51883807842711
 20
47.665856614204678
 30
0.0
  0
VERTEX
  5
24B1
  8
0
 10
159.595746590332
 20
47.706465081665087
 30
0.0
  0
VERTEX
  5
24B2
  8
0
 10
159.63463818931791
 20
47.726387379328102
 30
0.0
  0
VERTEX
  5
24B3
  8
0
 10
159.67381641268591
 20
47.746052510784047
 30
0.0
  0
VERTEX
  5
24B4
  8
0
 10
159.7530177555918
 20
47.784603795783291
 30
0.0
  0
VERTEX
  5
24B5
  8
0
 10
159.8333203973871
 20
47.82210422625657
 30
0.0
  0
VERTEX
  5
24B6
  8
0
 10
159.91469369617539
 20
47.858539492782782
 30
0.0
  0
VERTEX
  5
24B7
  8
0
 10
159.9971066015186
 20
47.893895692386458
 30
0.0
  0
VERTEX
  5
24B8
  8
0
 10
160.08052766628541
 20
47.928159333842601
 30
0.0
  0
VERTEX
  5
24B9
  8
0
 10
160.1226063257034
 20
47.944877343115692
 30
0.0
  0
VERTEX
  5
24BA
  8
0
 10
160.16492505865111
 20
47.961317342824671
 30
0.0
  0
VERTEX
  5
24BB
  8
0
 10
160.25026657424331
 20
47.993357066893687
 30
0.0
  0
VERTEX
  5
24BC
  8
0
 10
160.33651964843119
 20
48.024266280325961
 30
0.0
  0
VERTEX
  5
24BD
  8
0
 10
160.42365136875139
 20
48.054033188778263
 30
0.0
  0
VERTEX
  5
24BE
  8
0
 10
160.51162848746631
 20
48.082646433788327
 30
0.0
  0
VERTEX
  5
24BF
  8
0
 10
160.600417434251
 20
48.110095097108982
 30
0.0
  0
VERTEX
  5
24C0
  8
0
 10
160.6451057673855
 20
48.123379420083559
 30
0.0
  0
VERTEX
  5
24C1
  8
0
 10
160.68998432900329
 20
48.1363687048743
 30
0.0
  0
VERTEX
  5
24C2
  8
0
 10
160.78029499477131
 20
48.161457231596337
 30
0.0
  0
VERTEX
  5
24C3
  8
0
 10
160.87131497079511
 20
48.185351103990548
 30
0.0
  0
VERTEX
  5
24C4
  8
0
 10
160.96300952565571
 20
48.208041204628799
 30
0.0
  0
VERTEX
  5
24C5
  8
0
 10
161.0553436705284
 20
48.229518875418442
 30
0.0
  0
VERTEX
  5
24C6
  8
0
 10
161.1482821725337
 20
48.249775920905918
 30
0.0
  0
VERTEX
  5
24C7
  8
0
 10
161.19496698375909
 20
48.259444275358291
 30
0.0
  0
VERTEX
  5
24C8
  8
0
 10
161.24178956818119
 20
48.268804611404228
 30
0.0
  0
VERTEX
  5
24C9
  8
0
 10
161.33583017690199
 20
48.286597685942219
 30
0.0
  0
VERTEX
  5
24CA
  8
0
 10
161.43036811466379
 20
48.303148355035297
 30
0.0
  0
VERTEX
  5
24CB
  8
0
 10
161.5253673076632
 20
48.31845030327618
 30
0.0
  0
VERTEX
  5
24CC
  8
0
 10
161.62079150609119
 20
48.332497691744713
 30
0.0
  0
VERTEX
  5
24CD
  8
0
 10
161.71660429796481
 20
48.345285160235832
 30
0.0
  0
VERTEX
  5
24CE
  8
0
 10
161.76464499677289
 20
48.351204880831588
 30
0.0
  0
VERTEX
  5
24CF
  8
0
 10
161.81276912302181
 20
48.356807829305083
 30
0.0
  0
VERTEX
  5
24D0
  8
0
 10
161.9092492866709
 20
48.367061302130267
 30
0.0
  0
VERTEX
  5
24D1
  8
0
 10
162.00600797399389
 20
48.376041666189408
 30
0.0
  0
VERTEX
  5
24D2
  8
0
 10
162.1030082637935
 20
48.383745494753569
 30
0.0
  0
VERTEX
  5
24D3
  8
0
 10
162.20021314268169
 20
48.390169848194439
 30
0.0
  0
VERTEX
  5
24D4
  8
0
 10
162.29758551920321
 20
48.395312275106122
 30
0.0
  0
VERTEX
  5
24D5
  8
0
 10
162.34632291013281
 20
48.397402133781483
 30
0.0
  0
VERTEX
  5
24D6
  8
0
 10
162.39508823798911
 20
48.399170813240417
 30
0.0
  0
VERTEX
  5
24D7
  8
0
 10
162.4926840939346
 20
48.401743990255611
 30
0.0
  0
VERTEX
  5
24D8
  8
0
 10
162.59033584639511
 20
48.403030824278389
 30
0.0
  0
VERTEX
  5
24D9
  8
0
 10
162.63917103989641
 20
48.403191690040678
 30
0.0
  0
VERTEX
  5
24DA
  8
0
 10
162.68800623339769
 20
48.403030824278389
 30
0.0
  0
VERTEX
  5
24DB
  8
0
 10
162.78565798585831
 20
48.401743990255611
 30
0.0
  0
VERTEX
  5
24DC
  8
0
 10
162.88325384180371
 20
48.399170813240417
 30
0.0
  0
VERTEX
  5
24DD
  8
0
 10
162.93201916966009
 20
48.397402133781483
 30
0.0
  0
VERTEX
  5
24DE
  8
0
 10
162.9807565605897
 20
48.395312275106122
 30
0.0
  0
VERTEX
  5
24DF
  8
0
 10
163.07812893711119
 20
48.390169848194439
 30
0.0
  0
VERTEX
  5
24E0
  8
0
 10
163.17533381599941
 20
48.383745494753569
 30
0.0
  0
VERTEX
  5
24E1
  8
0
 10
163.2723341057989
 20
48.376041666189408
 30
0.0
  0
VERTEX
  5
24E2
  8
0
 10
163.36909279312189
 20
48.367061302130267
 30
0.0
  0
VERTEX
  5
24E3
  8
0
 10
163.46557295677101
 20
48.356807829305083
 30
0.0
  0
VERTEX
  5
24E4
  8
0
 10
163.51369708301999
 20
48.351204880831588
 30
0.0
  0
VERTEX
  5
24E5
  8
0
 10
163.56173778182799
 20
48.345285160235832
 30
0.0
  0
VERTEX
  5
24E6
  8
0
 10
163.65755057370171
 20
48.332497691744713
 30
0.0
  0
VERTEX
  5
24E7
  8
0
 10
163.75297477212959
 20
48.31845030327618
 30
0.0
  0
VERTEX
  5
24E8
  8
0
 10
163.847973965129
 20
48.303148355035297
 30
0.0
  0
VERTEX
  5
24E9
  8
0
 10
163.9425119028908
 20
48.286597685942219
 30
0.0
  0
VERTEX
  5
24EA
  8
0
 10
164.03655251161169
 20
48.268804611404228
 30
0.0
  0
VERTEX
  5
24EB
  8
0
 10
164.08337509603371
 20
48.259444275358291
 30
0.0
  0
VERTEX
  5
24EC
  8
0
 10
164.1300599072591
 20
48.249775920905918
 30
0.0
  0
VERTEX
  5
24ED
  8
0
 10
164.22299840926439
 20
48.229518875418442
 30
0.0
  0
VERTEX
  5
24EE
  8
0
 10
164.31533255413709
 20
48.208041204628799
 30
0.0
  0
VERTEX
  5
24EF
  8
0
 10
164.40702710899771
 20
48.185351103990548
 30
0.0
  0
VERTEX
  5
24F0
  8
0
 10
164.4980470850216
 20
48.161457231596337
 30
0.0
  0
VERTEX
  5
24F1
  8
0
 10
164.58835775078961
 20
48.1363687048743
 30
0.0
  0
VERTEX
  5
24F2
  8
0
 10
164.63323631240729
 20
48.123379420083559
 30
0.0
  0
VERTEX
  5
24F3
  8
0
 10
164.67792464554179
 20
48.110095097108982
 30
0.0
  0
VERTEX
  5
24F4
  8
0
 10
164.7667135923266
 20
48.082646433788327
 30
0.0
  0
VERTEX
  5
24F5
  8
0
 10
164.8546907110414
 20
48.054033188778263
 30
0.0
  0
VERTEX
  5
24F6
  8
0
 10
164.9418224313616
 20
48.024266280325961
 30
0.0
  0
VERTEX
  5
24F7
  8
0
 10
165.02807550554951
 20
47.993357066893687
 30
0.0
  0
VERTEX
  5
24F8
  8
0
 10
165.11341702114169
 20
47.961317342824671
 30
0.0
  0
VERTEX
  5
24F9
  8
0
 10
165.15573575408951
 20
47.944877343115692
 30
0.0
  0
VERTEX
  5
24FA
  8
0
 10
165.19781441350739
 20
47.928159333842601
 30
0.0
  0
VERTEX
  5
24FB
  8
0
 10
165.28123547827431
 20
47.893895692386458
 30
0.0
  0
VERTEX
  5
24FC
  8
0
 10
165.3636483836174
 20
47.858539492782782
 30
0.0
  0
VERTEX
  5
24FD
  8
0
 10
165.4450216824057
 20
47.82210422625657
 30
0.0
  0
VERTEX
  5
24FE
  8
0
 10
165.52532432420111
 20
47.784603795783291
 30
0.0
  0
VERTEX
  5
24FF
  8
0
 10
165.60452566710691
 20
47.746052510784047
 30
0.0
  0
VERTEX
  5
2500
  8
0
 10
165.643703890475
 20
47.726387379328102
 30
0.0
  0
VERTEX
  5
2501
  8
0
 10
165.68259548946079
 20
47.706465081665087
 30
0.0
  0
VERTEX
  5
2502
  8
0
 10
165.75950400136571
 20
47.665856614204678
 30
0.0
  0
VERTEX
  5
2503
  8
0
 10
165.8352218560579
 20
47.624242603789199
 30
0.0
  0
VERTEX
  5
2504
  8
0
 10
165.872625240014
 20
47.603063467362901
 30
0.0
  0
VERTEX
  5
2505
  8
0
 10
165.9097201611047
 20
47.581638929500222
 30
0.0
  0
VERTEX
  5
2506
  8
0
 10
165.98297048942939
 20
47.53806184805542
 30
0.0
  0
VERTEX
  5
2507
  8
0
 10
166.05494489015879
 20
47.49352798760539
 30
0.0
  0
VERTEX
  5
2508
  8
0
 10
166.09044501586749
 20
47.470907561555528
 30
0.0
  0
VERTEX
  5
2509
  8
0
 10
166.12561589928779
 20
47.448054341388577
 30
0.0
  0
VERTEX
  5
250A
  8
0
 10
166.1949565501603
 20
47.401658261247157
 30
0.0
  0
VERTEX
  5
250B
  8
0
 10
166.26294038375809
 20
47.354357451005662
 30
0.0
  0
VERTEX
  5
250C
  8
0
 10
166.32954145879779
 20
47.306169959715817
 30
0.0
  0
VERTEX
  5
250D
  8
0
 10
166.39473436162919
 20
47.2571141747692
 30
0.0
  0
VERTEX
  5
250E
  8
0
 10
166.45849421593269
 20
47.207208814881071
 30
0.0
  0
VERTEX
  5
250F
  8
0
 10
166.4898291253032
 20
47.181943482773541
 30
0.0
  0
VERTEX
  5
2510
  8
0
 10
166.5207966922116
 20
47.156472922947628
 30
0.0
  0
VERTEX
  5
2511
  8
0
 10
166.5816180170759
 20
47.104925858779623
 30
0.0
  0
VERTEX
  5
2512
  8
0
 10
166.64093498231341
 20
47.052587291715078
 30
0.0
  0
VERTEX
  5
2513
  8
0
 10
166.69872495374591
 20
46.999477193113862
 30
0.0
  0
VERTEX
  5
2514
  8
0
 10
166.75496587986569
 20
46.945615828736898
 30
0.0
  0
VERTEX
  5
2515
  8
0
 10
166.80963630024999
 20
46.891023751013343
 30
0.0
  0
VERTEX
  5
2516
  8
0
 10
166.83637602805399
 20
46.863460193738732
 30
0.0
  0
VERTEX
  5
2517
  8
0
 10
166.8627153537501
 20
46.835721791198019
 30
0.0
  0
VERTEX
  5
2518
  8
0
 10
166.91418278645111
 20
46.779731051422701
 30
0.0
  0
VERTEX
  5
2519
  8
0
 10
166.9640189594009
 20
46.723072896643949
 30
0.0
  0
VERTEX
  5
251A
  8
0
 10
166.9883193562994
 20
46.694500285039091
 30
0.0
  0
SEQEND
  5
251B
  8
0
  0
POLYLINE
  5
2165
  8
0
 66
     1
 10
0.0
 20
0.0
 30
0.0
  0
VERTEX
  5
251C
  8
0
 10
127.56561798044901
 20
46.149304653439017
 30
0.0
  0
VERTEX
  5
251D
  8
0
 10
127.5751597937717
 20
46.156754271188859
 30
0.0
  0
VERTEX
  5
251E
  8
0
 10
127.59525524055231
 20
46.17309882281991
 30
0.0
  0
VERTEX
  5
251F
  8
0
 10
127.61668028108841
 20
46.1913553970018
 30
0.0
  0
VERTEX
  5
2520
  8
0
 10
127.6278832515499
 20
46.201194228904697
 30
0.0
  0
VERTEX
  5
2521
  8
0
 10
127.6394083256325
 20
46.211502814991071
 30
0.0
  0
VERTEX
  5
2522
  8
0
 10
127.663408696357
 20
46.233515972753779
 30
0.0
  0
VERTEX
  5
2523
  8
0
 10
127.6886468131264
 20
46.257365975016469
 30
0.0
  0
VERTEX
  5
2524
  8
0
 10
127.71508440934269
 20
46.28302032384282
 30
0.0
  0
VERTEX
  5
2525
  8
0
 10
127.7426797890292
 20
46.310443166326237
 30
0.0
  0
VERTEX
  5
2526
  8
0
 10
127.7713881178752
 20
46.339595591917949
 30
0.0
  0
VERTEX
  5
2527
  8
0
 10
127.7861448472818
 20
46.354807485377371
 30
0.0
  0
VERTEX
  5
2528
  8
0
 10
127.8011617417224
 20
46.370435971121204
 30
0.0
  0
VERTEX
  5
2529
  8
0
 10
127.83195256447981
 20
46.402922497352627
 30
0.0
  0
VERTEX
  5
252A
  8
0
 10
127.8637187086599
 20
46.437020593782179
 30
0.0
  0
VERTEX
  5
252B
  8
0
 10
127.8964075816819
 20
46.472685021608569
 30
0.0
  0
VERTEX
  5
252C
  8
0
 10
127.92996233573329
 20
46.509866314300673
 30
0.0
  0
VERTEX
  5
252D
  8
0
 10
127.9643234086364
 20
46.548512327214588
 30
0.0
  0
VERTEX
  5
252E
  8
0
 10
127.98178702372
 20
46.568367629753439
 30
0.0
  0
VERTEX
  5
252F
  8
0
 10
127.9994287867539
 20
46.588568456347822
 30
0.0
  0
VERTEX
  5
2530
  8
0
 10
128.03521427923911
 20
46.629977872496603
 30
0.0
  0
VERTEX
  5
2531
  8
0
 10
128.0716138006656
 20
46.672681766302233
 30
0.0
  0
VERTEX
  5
2532
  8
0
 10
128.09002272349349
 20
46.694500285039091
 30
0.0
  0
SEQEND
  5
2533
  8
0
  0
POLYLINE
  5
2166
  8
0
 66
     1
 10
0.0
 20
0.0
 30
0.0
  0
VERTEX
  5
2534
  8
0
 10
128.09002272349349
 20
46.694500285039091
 30
0.0
  0
VERTEX
  5
2535
  8
0
 10
128.1143231203919
 20
46.723072896643949
 30
0.0
  0
VERTEX
  5
2536
  8
0
 10
128.1641592933417
 20
46.779731051422701
 30
0.0
  0
VERTEX
  5
2537
  8
0
 10
128.2156267260427
 20
46.835721791198019
 30
0.0
  0
VERTEX
  5
2538
  8
0
 10
128.24196605173881
 20
46.863460193738732
 30
0.0
  0
VERTEX
  5
2539
  8
0
 10
128.26870577954281
 20
46.891023751013343
 30
0.0
  0
VERTEX
  5
253A
  8
0
 10
128.3233761999272
 20
46.945615828736898
 30
0.0
  0
VERTEX
  5
253B
  8
0
 10
128.3796171260469
 20
46.999477193113862
 30
0.0
  0
VERTEX
  5
253C
  8
0
 10
128.43740709747939
 20
47.052587291715078
 30
0.0
  0
VERTEX
  5
253D
  8
0
 10
128.49672406271699
 20
47.104925858779623
 30
0.0
  0
VERTEX
  5
253E
  8
0
 10
128.5575453875812
 20
47.156472922947628
 30
0.0
  0
VERTEX
  5
253F
  8
0
 10
128.5885129544896
 20
47.181943482773541
 30
0.0
  0
VERTEX
  5
2540
  8
0
 10
128.61984786386009
 20
47.207208814881071
 30
0.0
  0
VERTEX
  5
2541
  8
0
 10
128.6836077181637
 20
47.2571141747692
 30
0.0
  0
VERTEX
  5
2542
  8
0
 10
128.74880062099501
 20
47.306169959715817
 30
0.0
  0
VERTEX
  5
2543
  8
0
 10
128.81540169603471
 20
47.354357451005662
 30
0.0
  0
VERTEX
  5
2544
  8
0
 10
128.88338552963259
 20
47.401658261247157
 30
0.0
  0
VERTEX
  5
2545
  8
0
 10
128.95272618050501
 20
47.448054341388577
 30
0.0
  0
VERTEX
  5
2546
  8
0
 10
128.98789706392529
 20
47.470907561555528
 30
0.0
  0
VERTEX
  5
2547
  8
0
 10
129.0233971896341
 20
47.49352798760539
 30
0.0
  0
VERTEX
  5
2548
  8
0
 10
129.09537159036341
 20
47.53806184805542
 30
0.0
  0
VERTEX
  5
2549
  8
0
 10
129.16862191868819
 20
47.581638929500222
 30
0.0
  0
VERTEX
  5
254A
  8
0
 10
129.2057168397788
 20
47.603063467362901
 30
0.0
  0
VERTEX
  5
254B
  8
0
 10
129.24312022373491
 20
47.624242603789199
 30
0.0
  0
VERTEX
  5
254C
  8
0
 10
129.31883807842709
 20
47.665856614204678
 30
0.0
  0
VERTEX
  5
254D
  8
0
 10
129.39574659033201
 20
47.706465081665087
 30
0.0
  0
VERTEX
  5
254E
  8
0
 10
129.43463818931781
 20
47.726387379328102
 30
0.0
  0
VERTEX
  5
254F
  8
0
 10
129.47381641268589
 20
47.746052510784047
 30
0.0
  0
VERTEX
  5
2550
  8
0
 10
129.55301775559181
 20
47.784603795783291
 30
0.0
  0
VERTEX
  5
2551
  8
0
 10
129.63332039738711
 20
47.82210422625657
 30
0.0
  0
VERTEX
  5
2552
  8
0
 10
129.7146936961754
 20
47.858539492782782
 30
0.0
  0
VERTEX
  5
2553
  8
0
 10
129.79710660151861
 20
47.893895692386458
 30
0.0
  0
VERTEX
  5
2554
  8
0
 10
129.8805276662855
 20
47.928159333842601
 30
0.0
  0
VERTEX
  5
2555
  8
0
 10
129.92260632570341
 20
47.944877343115692
 30
0.0
  0
VERTEX
  5
2556
  8
0
 10
129.96492505865109
 20
47.961317342824671
 30
0.0
  0
VERTEX
  5
2557
  8
0
 10
130.0502665742433
 20
47.993357066893687
 30
0.0
  0
VERTEX
  5
2558
  8
0
 10
130.13651964843129
 20
48.024266280325961
 30
0.0
  0
VERTEX
  5
2559
  8
0
 10
130.22365136875149
 20
48.054033188778263
 30
0.0
  0
VERTEX
  5
255A
  8
0
 10
130.31162848746621
 20
48.082646433788327
 30
0.0
  0
VERTEX
  5
255B
  8
0
 10
130.40041743425101
 20
48.110095097108982
 30
0.0
  0
VERTEX
  5
255C
  8
0
 10
130.44510576738551
 20
48.123379420083559
 30
0.0
  0
VERTEX
  5
255D
  8
0
 10
130.48998432900319
 20
48.1363687048743
 30
0.0
  0
VERTEX
  5
255E
  8
0
 10
130.58029499477129
 20
48.161457231596337
 30
0.0
  0
VERTEX
  5
255F
  8
0
 10
130.67131497079509
 20
48.185351103990548
 30
0.0
  0
VERTEX
  5
2560
  8
0
 10
130.76300952565569
 20
48.208041204628799
 30
0.0
  0
VERTEX
  5
2561
  8
0
 10
130.85534367052841
 20
48.229518875418442
 30
0.0
  0
VERTEX
  5
2562
  8
0
 10
130.94828217253371
 20
48.249775920905918
 30
0.0
  0
VERTEX
  5
2563
  8
0
 10
130.9949669837591
 20
48.259444275358291
 30
0.0
  0
VERTEX
  5
2564
  8
0
 10
131.0417895681812
 20
48.268804611404228
 30
0.0
  0
VERTEX
  5
2565
  8
0
 10
131.135830176902
 20
48.286597685942219
 30
0.0
  0
VERTEX
  5
2566
  8
0
 10
131.2303681146638
 20
48.303148355035297
 30
0.0
  0
VERTEX
  5
2567
  8
0
 10
131.32536730766321
 20
48.31845030327618
 30
0.0
  0
VERTEX
  5
2568
  8
0
 10
131.42079150609121
 20
48.332497691744713
 30
0.0
  0
VERTEX
  5
2569
  8
0
 10
131.51660429796479
 20
48.345285160235832
 30
0.0
  0
VERTEX
  5
256A
  8
0
 10
131.5646449967729
 20
48.351204880831588
 30
0.0
  0
VERTEX
  5
256B
  8
0
 10
131.61276912302191
 20
48.356807829305083
 30
0.0
  0
VERTEX
  5
256C
  8
0
 10
131.70924928667091
 20
48.367061302130267
 30
0.0
  0
VERTEX
  5
256D
  8
0
 10
131.8060079739939
 20
48.376041666189408
 30
0.0
  0
VERTEX
  5
256E
  8
0
 10
131.90300826379351
 20
48.383745494753569
 30
0.0
  0
VERTEX
  5
256F
  8
0
 10
132.0002131426817
 20
48.390169848194439
 30
0.0
  0
VERTEX
  5
2570
  8
0
 10
132.09758551920319
 20
48.395312275106122
 30
0.0
  0
VERTEX
  5
2571
  8
0
 10
132.1463229101328
 20
48.397402133781483
 30
0.0
  0
VERTEX
  5
2572
  8
0
 10
132.1950882379891
 20
48.399170813240417
 30
0.0
  0
VERTEX
  5
2573
  8
0
 10
132.2926840939345
 20
48.401743990255611
 30
0.0
  0
VERTEX
  5
2574
  8
0
 10
132.39033584639509
 20
48.403030824278389
 30
0.0
  0
VERTEX
  5
2575
  8
0
 10
132.43917103989639
 20
48.403191690040678
 30
0.0
  0
VERTEX
  5
2576
  8
0
 10
132.4880062333977
 20
48.403030824278389
 30
0.0
  0
VERTEX
  5
2577
  8
0
 10
132.58565798585829
 20
48.401743990255611
 30
0.0
  0
VERTEX
  5
2578
  8
0
 10
132.68325384180369
 20
48.399170813240417
 30
0.0
  0
VERTEX
  5
2579
  8
0
 10
132.73201916966011
 20
48.397402133781483
 30
0.0
  0
VERTEX
  5
257A
  8
0
 10
132.78075656058971
 20
48.395312275106122
 30
0.0
  0
VERTEX
  5
257B
  8
0
 10
132.8781289371112
 20
48.390169848194439
 30
0.0
  0
VERTEX
  5
257C
  8
0
 10
132.97533381599931
 20
48.383745494753569
 30
0.0
  0
VERTEX
  5
257D
  8
0
 10
133.07233410579889
 20
48.376041666189408
 30
0.0
  0
VERTEX
  5
257E
  8
0
 10
133.16909279312191
 20
48.367061302130267
 30
0.0
  0
VERTEX
  5
257F
  8
0
 10
133.265572956771
 20
48.356807829305083
 30
0.0
  0
VERTEX
  5
2580
  8
0
 10
133.31369708302
 20
48.351204880831588
 30
0.0
  0
VERTEX
  5
2581
  8
0
 10
133.361737781828
 20
48.345285160235832
 30
0.0
  0
VERTEX
  5
2582
  8
0
 10
133.4575505737017
 20
48.332497691744713
 30
0.0
  0
VERTEX
  5
2583
  8
0
 10
133.5529747721296
 20
48.31845030327618
 30
0.0
  0
VERTEX
  5
2584
  8
0
 10
133.64797396512901
 20
48.303148355035297
 30
0.0
  0
VERTEX
  5
2585
  8
0
 10
133.7425119028909
 20
48.286597685942219
 30
0.0
  0
VERTEX
  5
2586
  8
0
 10
133.8365525116117
 20
48.268804611404228
 30
0.0
  0
VERTEX
  5
2587
  8
0
 10
133.88337509603369
 20
48.259444275358291
 30
0.0
  0
VERTEX
  5
2588
  8
0
 10
133.93005990725911
 20
48.249775920905918
 30
0.0
  0
VERTEX
  5
2589
  8
0
 10
134.0229984092644
 20
48.229518875418442
 30
0.0
  0
VERTEX
  5
258A
  8
0
 10
134.1153325541371
 20
48.208041204628799
 30
0.0
  0
VERTEX
  5
258B
  8
0
 10
134.20702710899781
 20
48.185351103990548
 30
0.0
  0
VERTEX
  5
258C
  8
0
 10
134.29804708502149
 20
48.161457231596337
 30
0.0
  0
VERTEX
  5
258D
  8
0
 10
134.3883577507896
 20
48.1363687048743
 30
0.0
  0
VERTEX
  5
258E
  8
0
 10
134.4332363124073
 20
48.123379420083559
 30
0.0
  0
VERTEX
  5
258F
  8
0
 10
134.47792464554189
 20
48.110095097108982
 30
0.0
  0
VERTEX
  5
2590
  8
0
 10
134.56671359232661
 20
48.082646433788327
 30
0.0
  0
VERTEX
  5
2591
  8
0
 10
134.65469071104141
 20
48.054033188778263
 30
0.0
  0
VERTEX
  5
2592
  8
0
 10
134.74182243136161
 20
48.024266280325961
 30
0.0
  0
VERTEX
  5
2593
  8
0
 10
134.82807550554949
 20
47.993357066893687
 30
0.0
  0
VERTEX
  5
2594
  8
0
 10
134.91341702114181
 20
47.961317342824671
 30
0.0
  0
VERTEX
  5
2595
  8
0
 10
134.9557357540894
 20
47.944877343115692
 30
0.0
  0
VERTEX
  5
2596
  8
0
 10
134.9978144135074
 20
47.928159333842601
 30
0.0
  0
VERTEX
  5
2597
  8
0
 10
135.08123547827429
 20
47.893895692386458
 30
0.0
  0
VERTEX
  5
2598
  8
0
 10
135.16364838361741
 20
47.858539492782782
 30
0.0
  0
VERTEX
  5
2599
  8
0
 10
135.24502168240571
 20
47.82210422625657
 30
0.0
  0
VERTEX
  5
259A
  8
0
 10
135.32532432420109
 20
47.784603795783291
 30
0.0
  0
VERTEX
  5
259B
  8
0
 10
135.40452566710701
 20
47.746052510784047
 30
0.0
  0
VERTEX
  5
259C
  8
0
 10
135.44370389047501
 20
47.726387379328102
 30
0.0
  0
VERTEX
  5
259D
  8
0
 10
135.48259548946081
 20
47.706465081665087
 30
0.0
  0
VERTEX
  5
259E
  8
0
 10
135.5595040013657
 20
47.665856614204678
 30
0.0
  0
VERTEX
  5
259F
  8
0
 10
135.6352218560578
 20
47.624242603789199
 30
0.0
  0
VERTEX
  5
25A0
  8
0
 10
135.67262524001401
 20
47.603063467362901
 30
0.0
  0
VERTEX
  5
25A1
  8
0
 10
135.70972016110471
 20
47.581638929500222
 30
0.0
  0
VERTEX
  5
25A2
  8
0
 10
135.7829704894294
 20
47.53806184805542
 30
0.0
  0
VERTEX
  5
25A3
  8
0
 10
135.85494489015881
 20
47.49352798760539
 30
0.0
  0
VERTEX
  5
25A4
  8
0
 10
135.8904450158675
 20
47.470907561555528
 30
0.0
  0
VERTEX
  5
25A5
  8
0
 10
135.92561589928781
 20
47.448054341388577
 30
0.0
  0
VERTEX
  5
25A6
  8
0
 10
135.99495655016031
 20
47.401658261247157
 30
0.0
  0
VERTEX
  5
25A7
  8
0
 10
136.0629403837581
 20
47.354357451005662
 30
0.0
  0
VERTEX
  5
25A8
  8
0
 10
136.1295414587978
 20
47.306169959715817
 30
0.0
  0
VERTEX
  5
25A9
  8
0
 10
136.1947343616292
 20
47.2571141747692
 30
0.0
  0
VERTEX
  5
25AA
  8
0
 10
136.2584942159327
 20
47.207208814881071
 30
0.0
  0
VERTEX
  5
25AB
  8
0
 10
136.28982912530321
 20
47.181943482773519
 30
0.0
  0
VERTEX
  5
25AC
  8
0
 10
136.32079669221159
 20
47.156472922947628
 30
0.0
  0
VERTEX
  5
25AD
  8
0
 10
136.38161801707591
 20
47.104925858779623
 30
0.0
  0
VERTEX
  5
25AE
  8
0
 10
136.44093498231339
 20
47.052587291715078
 30
0.0
  0
VERTEX
  5
25AF
  8
0
 10
136.49872495374589
 20
46.999477193113862
 30
0.0
  0
VERTEX
  5
25B0
  8
0
 10
136.5549658798657
 20
46.945615828736898
 30
0.0
  0
VERTEX
  5
25B1
  8
0
 10
136.60963630025
 20
46.891023751013343
 30
0.0
  0
VERTEX
  5
25B2
  8
0
 10
136.636376028054
 20
46.863460193738732
 30
0.0
  0
VERTEX
  5
25B3
  8
0
 10
136.66271535375009
 20
46.835721791198019
 30
0.0
  0
VERTEX
  5
25B4
  8
0
 10
136.71418278645109
 20
46.779731051422701
 30
0.0
  0
VERTEX
  5
25B5
  8
0
 10
136.76401895940089
 20
46.723072896643949
 30
0.0
  0
VERTEX
  5
25B6
  8
0
 10
136.78831935629941
 20
46.694500285039091
 30
0.0
  0
SEQEND
  5
25B7
  8
0
  0
POLYLINE
  5
2167
  8
0
 66
     1
 10
0.0
 20
0.0
 30
0.0
  0
VERTEX
  5
25B8
  8
0
 10
136.78831935629941
 20
46.694500285039091
 30
0.0
  0
VERTEX
  5
25B9
  8
0
 10
136.8067282791273
 20
46.672681766302233
 30
0.0
  0
VERTEX
  5
25BA
  8
0
 10
136.84312780055379
 20
46.629977872496582
 30
0.0
  0
VERTEX
  5
25BB
  8
0
 10
136.87891329303901
 20
46.588568456347737
 30
0.0
  0
VERTEX
  5
25BC
  8
0
 10
136.89655505607291
 20
46.568367629753297
 30
0.0
  0
VERTEX
  5
25BD
  8
0
 10
136.91401867115661
 20
46.548512327214397
 30
0.0
  0
VERTEX
  5
25BE
  8
0
 10
136.94837974405979
 20
46.509866314300361
 30
0.0
  0
VERTEX
  5
25BF
  8
0
 10
136.9819344981114
 20
46.472685021608171
 30
0.0
  0
VERTEX
  5
25C0
  8
0
 10
137.01462337113341
 20
46.437020593781753
 30
0.0
  0
VERTEX
  5
25C1
  8
0
 10
137.04638951531339
 20
46.402922497352201
 30
0.0
  0
VERTEX
  5
25C2
  8
0
 10
137.0771803380708
 20
46.370435971120841
 30
0.0
  0
VERTEX
  5
25C3
  8
0
 10
137.0921972325113
 20
46.354807485377037
 30
0.0
  0
VERTEX
  5
25C4
  8
0
 10
137.10695396191801
 20
46.339595591917643
 30
0.0
  0
VERTEX
  5
25C5
  8
0
 10
137.13566229076389
 20
46.310443166325982
 30
0.0
  0
VERTEX
  5
25C6
  8
0
 10
137.16325767045041
 20
46.283020323842592
 30
0.0
  0
VERTEX
  5
25C7
  8
0
 10
137.1896952666666
 20
46.25736597501627
 30
0.0
  0
VERTEX
  5
25C8
  8
0
 10
137.214933383436
 20
46.233515972753629
 30
0.0
  0
VERTEX
  5
25C9
  8
0
 10
137.2389337541604
 20
46.211502814990972
 30
0.0
  0
VERTEX
  5
25CA
  8
0
 10
137.25045882824301
 20
46.201194228904612
 30
0.0
  0
VERTEX
  5
25CB
  8
0
 10
137.26166179870461
 20
46.191355397001743
 30
0.0
  0
VERTEX
  5
25CC
  8
0
 10
137.28308683924061
 20
46.173098822819881
 30
0.0
  0
VERTEX
  5
25CD
  8
0
 10
137.3031822860211
 20
46.156754271188859
 30
0.0
  0
VERTEX
  5
25CE
  8
0
 10
137.31272409934391
 20
46.149304653439017
 30
0.0
  0
SEQEND
  5
25CF
  8
0
  0
POLYLINE
  5
2168
  8
0
 66
     1
 10
0.0
 20
0.0
 30
0.0
  0
VERTEX
  5
25D0
  8
0
 10
137.31272409934391
 20
46.149304653439017
 30
0.0
  0
VERTEX
  5
25D1
  8
0
 10
137.31962362096971
 20
46.14392103365055
 30
0.0
  0
VERTEX
  5
25D2
  8
0
 10
137.33284857256041
 20
46.133131473377219
 30
0.0
  0
VERTEX
  5
25D3
  8
0
 10
137.345306353403
 20
46.122313562203502
 30
0.0
  0
VERTEX
  5
25D4
  8
0
 10
137.35124693978159
 20
46.116894504831187
 30
0.0
  0
VERTEX
  5
25D5
  8
0
 10
137.3569950105192
 20
46.111468996028762
 30
0.0
  0
VERTEX
  5
25D6
  8
0
 10
137.36791271150491
 20
46.100599474931172
 30
0.0
  0
VERTEX
  5
25D7
  8
0
 10
137.37805774481669
 20
46.089706702900898
 30
0.0
  0
VERTEX
  5
25D8
  8
0
 10
137.38742852004069
 20
46.078792387573131
 30
0.0
  0
VERTEX
  5
25D9
  8
0
 10
137.39602356814169
 20
46.067858239960437
 30
0.0
  0
VERTEX
  5
25DA
  8
0
 10
137.40384154169351
 20
46.056905974184339
 30
0.0
  0
VERTEX
  5
25DB
  8
0
 10
137.4074587377475
 20
46.051423583432019
 30
0.0
  0
VERTEX
  5
25DC
  8
0
 10
137.41088121509
 20
46.045937307206792
 30
0.0
  0
VERTEX
  5
25DD
  8
0
 10
137.4171414847377
 20
46.034953958560813
 30
0.0
  0
VERTEX
  5
25DE
  8
0
 10
137.4226213692281
 20
46.023957650081179
 30
0.0
  0
VERTEX
  5
25DF
  8
0
 10
137.42732000949229
 20
46.012950105634232
 30
0.0
  0
VERTEX
  5
25E0
  8
0
 10
137.43123666893499
 20
46.001933050847818
 30
0.0
  0
VERTEX
  5
25E1
  8
0
 10
137.43437073355031
 20
45.990908212840658
 30
0.0
  0
VERTEX
  5
25E2
  8
0
 10
137.43564413446549
 20
45.985393415194963
 30
0.0
  0
VERTEX
  5
25E3
  8
0
 10
137.43672171201811
 20
45.979877319951683
 30
0.0
  0
VERTEX
  5
25E4
  8
0
 10
137.4382892357809
 20
45.968842101468951
 30
0.0
  0
VERTEX
  5
25E5
  8
0
 10
137.4390730591013
 20
45.957804287358677
 30
0.0
  0
VERTEX
  5
25E6
  8
0
 10
137.43917103989639
 20
45.952284947676382
 30
0.0
  0
SEQEND
  5
25E7
  8
0
  0
POLYLINE
  5
2169
  8
0
 66
     1
 10
0.0
 20
0.0
 30
0.0
  0
VERTEX
  5
25E8
  8
0
 10
137.43917103989639
 20
45.952284947676382
 30
0.0
  0
VERTEX
  5
25E9
  8
0
 10
137.43864219953201
 20
45.93946253987319
 30
0.0
  0
VERTEX
  5
25EA
  8
0
 10
137.43441214780569
 20
45.913828573303967
 30
0.0
  0
VERTEX
  5
25EB
  8
0
 10
137.42595562339929
 20
45.888227144666772
 30
0.0
  0
VERTEX
  5
25EC
  8
0
 10
137.4201445303552
 20
45.875445402825882
 30
0.0
  0
VERTEX
  5
25ED
  8
0
 10
137.41327978137659
 20
45.862679915326147
 30
0.0
  0
VERTEX
  5
25EE
  8
0
 10
137.3963953467655
 20
45.837208500788691
 30
0.0
  0
VERTEX
  5
25EF
  8
0
 10
137.37531660548331
 20
45.811834452414033
 30
0.0
  0
VERTEX
  5
25F0
  8
0
 10
137.35006139224959
 20
45.786579239180313
 30
0.0
  0
VERTEX
  5
25F1
  8
0
 10
137.3206510754961
 20
45.761464229519312
 30
0.0
  0
VERTEX
  5
25F2
  8
0
 10
137.287110539287
 20
45.736510673236559
 30
0.0
  0
VERTEX
  5
25F3
  8
0
 10
137.2688001713417
 20
45.724101043812489
 30
0.0
  0
VERTEX
  5
25F4
  8
0
 10
137.24946816226449
 20
45.711739683531967
 30
0.0
  0
VERTEX
  5
25F5
  8
0
 10
137.20775579363749
 20
45.687172219135803
 30
0.0
  0
VERTEX
  5
25F6
  8
0
 10
137.1620087262344
 20
45.662829066575661
 30
0.0
  0
VERTEX
  5
25F7
  8
0
 10
137.11226566664141
 20
45.638730822588947
 30
0.0
  0
VERTEX
  5
25F8
  8
0
 10
137.0585687024529
 20
45.614897876695927
 30
0.0
  0
VERTEX
  5
25F9
  8
0
 10
137.0009632666615
 20
45.59135039394819
 30
0.0
  0
VERTEX
  5
25FA
  8
0
 10
136.9707099750797
 20
45.579689937251388
 30
0.0
  0
VERTEX
  5
25FB
  8
0
 10
136.93949809921699
 20
45.56810829786702
 30
0.0
  0
VERTEX
  5
25FC
  8
0
 10
136.8742252057875
 20
45.545191253586111
 30
0.0
  0
VERTEX
  5
25FD
  8
0
 10
136.80519981375741
 20
45.522618651212817
 30
0.0
  0
VERTEX
  5
25FE
  8
0
 10
136.76929805881861
 20
45.511467495905222
 30
0.0
  0
VERTEX
  5
25FF
  8
0
 10
136.73248032549949
 20
45.500409589422347
 30
0.0
  0
VERTEX
  5
2600
  8
0
 10
136.65612826896091
 20
45.478582859298193
 30
0.0
  0
VERTEX
  5
2601
  8
0
 10
136.57620824560399
 20
45.45715692843315
 30
0.0
  0
VERTEX
  5
2602
  8
0
 10
136.5349312613414
 20
45.446599941539873
 30
0.0
  0
VERTEX
  5
2603
  8
0
 10
136.4927878757475
 20
45.436149925303781
 30
0.0
  0
VERTEX
  5
2604
  8
0
 10
136.4059377413526
 20
45.415579623931983
 30
0.0
  0
VERTEX
  5
2605
  8
0
 10
136.31573132630379
 20
45.395463428846377
 30
0.0
  0
VERTEX
  5
2606
  8
0
 10
136.2222449542339
 20
45.37581836035632
 30
0.0
  0
VERTEX
  5
2607
  8
0
 10
136.125557723947
 20
45.356661040150989
 30
0.0
  0
VERTEX
  5
2608
  8
0
 10
136.02575144249289
 20
45.338007677235922
 30
0.0
  0
VERTEX
  5
2609
  8
0
 10
135.97470494582919
 20
45.328874928850851
 30
0.0
  0
VERTEX
  5
260A
  8
0
 10
135.9229105559497
 20
45.319874054218403
 30
0.0
  0
VERTEX
  5
260B
  8
0
 10
135.81712207797469
 20
45.30227551395383
 30
0.0
  0
VERTEX
  5
260C
  8
0
 10
135.70847551618169
 20
45.285226946564293
 30
0.0
  0
VERTEX
  5
260D
  8
0
 10
135.59706279640889
 20
45.268742776839822
 30
0.0
  0
VERTEX
  5
260E
  8
0
 10
135.48297818494001
 20
45.252836952033739
 30
0.0
  0
VERTEX
  5
260F
  8
0
 10
135.36631820874609
 20
45.237522930061751
 30
0.0
  0
VERTEX
  5
2610
  8
0
 10
135.30705322165161
 20
45.23009191412315
 30
0.0
  0
VERTEX
  5
2611
  8
0
 10
135.24718157381389
 20
45.222813668115357
 30
0.0
  0
VERTEX
  5
2612
  8
0
 10
135.12566908163049
 20
45.208721611698692
 30
0.0
  0
VERTEX
  5
2613
  8
0
 10
135.00188354389579
 20
45.195258684098363
 30
0.0
  0
VERTEX
  5
2614
  8
0
 10
134.8759296955327
 20
45.182436276295178
 30
0.0
  0
VERTEX
  5
2615
  8
0
 10
134.74791410607159
 20
45.170265237326291
 30
0.0
  0
VERTEX
  5
2616
  8
0
 10
134.61794508948179
 20
45.158755865105761
 30
0.0
  0
VERTEX
  5
2617
  8
0
 10
134.5522623485999
 20
45.153252369272657
 30
0.0
  0
VERTEX
  5
2618
  8
0
 10
134.48613261252689
 20
45.147917897711537
 30
0.0
  0
VERTEX
  5
2619
  8
0
 10
134.35258820172189
 20
45.137760505146062
 30
0.0
  0
VERTEX
  5
261A
  8
0
 10
134.21742484897081
 20
45.12829228157748
 30
0.0
  0
VERTEX
  5
261B
  8
0
 10
134.0807569159642
 20
45.119521238068231
 30
0.0
  0
VERTEX
  5
261C
  8
0
 10
133.94270003741781
 20
45.111454795796767
 30
0.0
  0
VERTEX
  5
261D
  8
0
 10
133.80337102323381
 20
45.104099779778593
 30
0.0
  0
VERTEX
  5
261E
  8
0
 10
133.73326626540899
 20
45.100691024986972
 30
0.0
  0
VERTEX
  5
261F
  8
0
 10
133.662887759668
 20
45.09746241309152
 30
0.0
  0
VERTEX
  5
2620
  8
0
 10
133.52136910958691
 20
45.091548311610417
 30
0.0
  0
VERTEX
  5
2621
  8
0
 10
133.3789348118969
 20
45.086362479255612
 30
0.0
  0
VERTEX
  5
2622
  8
0
 10
133.23570538023401
 20
45.081909303758962
 30
0.0
  0
VERTEX
  5
2623
  8
0
 10
133.09180200099669
 20
45.078192552951528
 30
0.0
  0
VERTEX
  5
2624
  8
0
 10
132.9473464308104
 20
45.075215371575588
 30
0.0
  0
VERTEX
  5
2625
  8
0
 10
132.8749497536347
 20
45.074004931114892
 30
0.0
  0
VERTEX
  5
2626
  8
0
 10
132.8024608935095
 20
45.072980278623803
 30
0.0
  0
VERTEX
  5
2627
  8
0
 10
132.65726797672309
 20
45.071489165207922
 30
0.0
  0
VERTEX
  5
2628
  8
0
 10
132.51189052815431
 20
45.070743292958788
 30
0.0
  0
VERTEX
  5
2629
  8
0
 10
132.43917103989639
 20
45.070650044134041
 30
0.0
  0
VERTEX
  5
262A
  8
0
 10
132.36645155163851
 20
45.070743292958788
 30
0.0
  0
VERTEX
  5
262B
  8
0
 10
132.2210741030697
 20
45.071489165207922
 30
0.0
  0
VERTEX
  5
262C
  8
0
 10
132.0758811862834
 20
45.072980278623803
 30
0.0
  0
VERTEX
  5
262D
  8
0
 10
132.00339232615809
 20
45.074004931114892
 30
0.0
  0
VERTEX
  5
262E
  8
0
 10
131.93099564898239
 20
45.075215371575588
 30
0.0
  0
VERTEX
  5
262F
  8
0
 10
131.78654007879621
 20
45.078192552951528
 30
0.0
  0
VERTEX
  5
2630
  8
0
 10
131.64263669955881
 20
45.081909303758962
 30
0.0
  0
VERTEX
  5
2631
  8
0
 10
131.4994072678958
 20
45.086362479255612
 30
0.0
  0
VERTEX
  5
2632
  8
0
 10
131.3569729702059
 20
45.091548311610417
 30
0.0
  0
VERTEX
  5
2633
  8
0
 10
131.21545432012479
 20
45.09746241309152
 30
0.0
  0
VERTEX
  5
2634
  8
0
 10
131.1450758143838
 20
45.100691024986972
 30
0.0
  0
VERTEX
  5
2635
  8
0
 10
131.07497105655909
 20
45.104099779778593
 30
0.0
  0
VERTEX
  5
2636
  8
0
 10
130.93564204237501
 20
45.111454795796767
 30
0.0
  0
VERTEX
  5
2637
  8
0
 10
130.79758516382859
 20
45.119521238068231
 30
0.0
  0
VERTEX
  5
2638
  8
0
 10
130.66091723082201
 20
45.12829228157748
 30
0.0
  0
VERTEX
  5
2639
  8
0
 10
130.52575387807099
 20
45.137760505146062
 30
0.0
  0
VERTEX
  5
263A
  8
0
 10
130.39220946726601
 20
45.147917897711537
 30
0.0
  0
VERTEX
  5
263B
  8
0
 10
130.32607973119289
 20
45.153252369272657
 30
0.0
  0
VERTEX
  5
263C
  8
0
 10
130.26039699031099
 20
45.158755865105761
 30
0.0
  0
VERTEX
  5
263D
  8
0
 10
130.1304279737212
 20
45.170265237326291
 30
0.0
  0
VERTEX
  5
263E
  8
0
 10
130.0024123842602
 20
45.182436276295178
 30
0.0
  0
VERTEX
  5
263F
  8
0
 10
129.87645853589709
 20
45.195258684098363
 30
0.0
  0
VERTEX
  5
2640
  8
0
 10
129.7526729981623
 20
45.208721611698692
 30
0.0
  0
VERTEX
  5
2641
  8
0
 10
129.63116050597901
 20
45.222813668115357
 30
0.0
  0
VERTEX
  5
2642
  8
0
 10
129.5712888581412
 20
45.23009191412315
 30
0.0
  0
VERTEX
  5
2643
  8
0
 10
129.51202387104669
 20
45.237522930061751
 30
0.0
  0
VERTEX
  5
2644
  8
0
 10
129.39536389485281
 20
45.252836952033739
 30
0.0
  0
VERTEX
  5
2645
  8
0
 10
129.2812792833839
 20
45.268742776839822
 30
0.0
  0
VERTEX
  5
2646
  8
0
 10
129.16986656361101
 20
45.285226946564293
 30
0.0
  0
VERTEX
  5
2647
  8
0
 10
129.0612200018181
 20
45.30227551395383
 30
0.0
  0
VERTEX
  5
2648
  8
0
 10
128.9554315238432
 20
45.319874054218403
 30
0.0
  0
VERTEX
  5
2649
  8
0
 10
128.90363713396371
 20
45.328874928850851
 30
0.0
  0
VERTEX
  5
264A
  8
0
 10
128.85259063730001
 20
45.338007677235922
 30
0.0
  0
VERTEX
  5
264B
  8
0
 10
128.75278435584579
 20
45.356661040150989
 30
0.0
  0
VERTEX
  5
264C
  8
0
 10
128.656097125559
 20
45.37581836035632
 30
0.0
  0
VERTEX
  5
264D
  8
0
 10
128.56261075348911
 20
45.395463428846377
 30
0.0
  0
VERTEX
  5
264E
  8
0
 10
128.47240433844021
 20
45.415579623931983
 30
0.0
  0
VERTEX
  5
264F
  8
0
 10
128.38555420404541
 20
45.436149925303781
 30
0.0
  0
VERTEX
  5
2650
  8
0
 10
128.3434108184515
 20
45.446599941539873
 30
0.0
  0
VERTEX
  5
2651
  8
0
 10
128.30213383418891
 20
45.45715692843315
 30
0.0
  0
VERTEX
  5
2652
  8
0
 10
128.22221381083199
 20
45.478582859298193
 30
0.0
  0
VERTEX
  5
2653
  8
0
 10
128.14586175429329
 20
45.500409589422347
 30
0.0
  0
VERTEX
  5
2654
  8
0
 10
128.10904402097421
 20
45.511467495905222
 30
0.0
  0
VERTEX
  5
2655
  8
0
 10
128.07314226603549
 20
45.522618651212817
 30
0.0
  0
VERTEX
  5
2656
  8
0
 10
128.00411687400529
 20
45.545191253586111
 30
0.0
  0
VERTEX
  5
2657
  8
0
 10
127.9388439805758
 20
45.56810829786702
 30
0.0
  0
VERTEX
  5
2658
  8
0
 10
127.9076321047132
 20
45.579689937251388
 30
0.0
  0
VERTEX
  5
2659
  8
0
 10
127.8773788131314
 20
45.59135039394819
 30
0.0
  0
VERTEX
  5
265A
  8
0
 10
127.81977337734
 20
45.614897876695927
 30
0.0
  0
VERTEX
  5
265B
  8
0
 10
127.7660764131515
 20
45.638730822588947
 30
0.0
  0
VERTEX
  5
265C
  8
0
 10
127.7163333535584
 20
45.662829066575661
 30
0.0
  0
VERTEX
  5
265D
  8
0
 10
127.6705862861553
 20
45.687172219135803
 30
0.0
  0
VERTEX
  5
265E
  8
0
 10
127.6288739175283
 20
45.711739683531967
 30
0.0
  0
VERTEX
  5
265F
  8
0
 10
127.60954190845111
 20
45.724101043812489
 30
0.0
  0
VERTEX
  5
2660
  8
0
 10
127.5912315405058
 20
45.736510673236559
 30
0.0
  0
VERTEX
  5
2661
  8
0
 10
127.5576910042967
 20
45.761464229519312
 30
0.0
  0
VERTEX
  5
2662
  8
0
 10
127.5282806875433
 20
45.786579239180313
 30
0.0
  0
VERTEX
  5
2663
  8
0
 10
127.5030254743095
 20
45.811834452414033
 30
0.0
  0
VERTEX
  5
2664
  8
0
 10
127.4819467330274
 20
45.837208500788691
 30
0.0
  0
VERTEX
  5
2665
  8
0
 10
127.4650622984162
 20
45.862679915326147
 30
0.0
  0
VERTEX
  5
2666
  8
0
 10
127.4581975494377
 20
45.875445402825882
 30
0.0
  0
VERTEX
  5
2667
  8
0
 10
127.4523864563935
 20
45.888227144666772
 30
0.0
  0
VERTEX
  5
2668
  8
0
 10
127.4439299319872
 20
45.913828573303967
 30
0.0
  0
VERTEX
  5
2669
  8
0
 10
127.4396998802609
 20
45.93946253987319
 30
0.0
  0
VERTEX
  5
266A
  8
0
 10
127.43917103989639
 20
45.952284947676382
 30
0.0
  0
SEQEND
  5
266B
  8
0
  0
POLYLINE
  5
216A
  8
0
 66
     1
 10
0.0
 20
0.0
 30
0.0
  0
VERTEX
  5
266C
  8
0
 10
127.43917103989639
 20
45.952284947676382
 30
0.0
  0
VERTEX
  5
266D
  8
0
 10
127.4392690206916
 20
45.957804287358677
 30
0.0
  0
VERTEX
  5
266E
  8
0
 10
127.440052844012
 20
45.968842101468951
 30
0.0
  0
VERTEX
  5
266F
  8
0
 10
127.4416203677747
 20
45.979877319951683
 30
0.0
  0
VERTEX
  5
2670
  8
0
 10
127.4426979453273
 20
45.985393415194963
 30
0.0
  0
VERTEX
  5
2671
  8
0
 10
127.44397134624261
 20
45.990908212840658
 30
0.0
  0
VERTEX
  5
2672
  8
0
 10
127.4471054108579
 20
46.001933050847818
 30
0.0
  0
VERTEX
  5
2673
  8
0
 10
127.4510220703006
 20
46.012950105634232
 30
0.0
  0
VERTEX
  5
2674
  8
0
 10
127.45572071056471
 20
46.023957650081179
 30
0.0
  0
VERTEX
  5
2675
  8
0
 10
127.4612005950552
 20
46.034953958560813
 30
0.0
  0
VERTEX
  5
2676
  8
0
 10
127.4674608647028
 20
46.045937307206792
 30
0.0
  0
VERTEX
  5
2677
  8
0
 10
127.4708833420453
 20
46.051423583432047
 30
0.0
  0
VERTEX
  5
2678
  8
0
 10
127.47450053809941
 20
46.056905974184339
 30
0.0
  0
VERTEX
  5
2679
  8
0
 10
127.4823185116512
 20
46.067858239960437
 30
0.0
  0
VERTEX
  5
267A
  8
0
 10
127.4909135597522
 20
46.078792387573131
 30
0.0
  0
VERTEX
  5
267B
  8
0
 10
127.5002843349762
 20
46.089706702900898
 30
0.0
  0
VERTEX
  5
267C
  8
0
 10
127.510429368288
 20
46.100599474931172
 30
0.0
  0
VERTEX
  5
267D
  8
0
 10
127.5213470692736
 20
46.111468996028762
 30
0.0
  0
VERTEX
  5
267E
  8
0
 10
127.5270951400113
 20
46.116894504831187
 30
0.0
  0
VERTEX
  5
267F
  8
0
 10
127.5330357263899
 20
46.122313562203502
 30
0.0
  0
VERTEX
  5
2680
  8
0
 10
127.54549350723239
 20
46.133131473377219
 30
0.0
  0
VERTEX
  5
2681
  8
0
 10
127.55871845882309
 20
46.14392103365055
 30
0.0
  0
VERTEX
  5
2682
  8
0
 10
127.56561798044901
 20
46.149304653439017
 30
0.0
  0
SEQEND
  5
2683
  8
0
  0
CIRCLE
  5
2173
  8
0
 10
60.67798783026344
 20
101.5704361990387
 30
0.0
 40
2.7499999999999778
  0
CIRCLE
  5
2174
  8
0
 10
60.677987830263362
 20
101.5704361990387
 30
0.0
 40
5.0000000000000488
  0
CIRCLE
  5
217B
  8
0
 10
60.67798783026344
 20
131.7704361990387
 30
0.0
 40
2.7499999999999778
  0
CIRCLE
  5
217C
  8
0
 10
60.677987830263369
 20
131.7704361990387
 30
0.0
 40
5.0000000000000488
  0
CIRCLE
  5
217D
  8
0
 10
91.677987830263405
 20
131.7704361990387
 30
0.0
 40
2.7499999999999778
  0
CIRCLE
  5
217E
  8
0
 10
91.677987830263319
 20
131.7704361990387
 30
0.0
 40
5.0000000000000488
  0
CIRCLE
  5
217F
  8
0
 10
91.677987830263405
 20
101.5704361990387
 30
0.0
 40
2.7499999999999778
  0
CIRCLE
  5
2180
  8
0
 10
91.677987830263319
 20
101.5704361990387
 30
0.0
 40
5.0000000000000488
  0
LINE
  5
21C6
  8
2
 10
167.63917103989641
 20
44.263505611654423
 30
0.0
 11
167.63917103989641
 21
45.952284947676382
 31
0.0
  0
LINE
  5
21C7
  8
2
 10
157.6391710398963
 20
45.952284947676382
 30
0.0
 11
157.6391710398963
 21
44.263505611654423
 31
0.0
  0
LINE
  5
21C8
  8
2
 10
165.38917103989641
 20
42.013505611654423
 30
0.0
 11
167.63917103989641
 21
44.263505611654423
 31
0.0
  0
LINE
  5
21C9
  8
2
 10
157.6391710398963
 20
44.263505611654423
 30
0.0
 11
159.88917103989641
 21
42.013505611654423
 31
0.0
  0
LINE
  5
21CA
  8
2
 10
165.38917103989641
 20
34.013505611654423
 30
0.0
 11
165.38917103989641
 21
42.013505611654423
 31
0.0
  0
LINE
  5
21CB
  8
2
 10
159.88917103989641
 20
42.013505611654423
 30
0.0
 11
159.88917103989641
 21
34.013505611654423
 31
0.0
  0
LINE
  5
21CC
  8
2
 10
167.63917103989641
 20
44.263505611654423
 30
0.0
 11
157.6391710398963
 21
44.263505611654423
 31
0.0
  0
LINE
  5
21CD
  8
2
 10
165.38917103989641
 20
42.013505611654423
 30
0.0
 11
159.88917103989641
 21
42.013505611654423
 31
0.0
  0
TEXT
  5
235A
  8
0
 62
     3
 10
0.0
 20
0.0
 30
0.0
 40
10.0
  1
EFH5050SH-90
  7
STANDARD1
  0
ENDSEC
  0
EOF
