  0
SECTION
  2
HEADER
  9
$ACADVER
  1
AC1009
  9
$INSBASE
 10
0.0
 20
0.0
 30
0.0
  9
$EXTMIN
 10
0.0
 20
-2.960436562073669
 30
0.0
  9
$EXTMAX
 10
172.28917103989639
 20
146.4204361990387
 30
0.0
  9
$LIMMIN
 10
0.0
 20
0.0
  9
$LIMMAX
 10
420.0
 20
330.0
  9
$ORTHOMODE
 70
     0
  9
$REGENMODE
 70
     1
  9
$FILLMODE
 70
     1
  9
$QTEXTMODE
 70
     0
  9
$MIRRTEXT
 70
     0
  9
$DRAGMODE
 70
     2
  9
$LTSCALE
 40
5.0
  9
$OSMODE
 70
  3071
  9
$ATTMODE
 70
     1
  9
$TEXTSIZE
 40
0.2
  9
$TRACEWID
 40
0.05
  9
$TEXTSTYLE
  7
STANDARD
  9
$CLAYER
  8
0
  9
$CELTYPE
  6
BYLAYER
  9
$CECOLOR
 62
   256
  9
$DIMSCALE
 40
1.0
  9
$DIMASZ
 40
3.0
  9
$DIMEXO
 40
1.0
  9
$DIMDLI
 40
0.3799999999999999
  9
$DIMRND
 40
0.0
  9
$DIMDLE
 40
0.0
  9
$DIMEXE
 40
1.0
  9
$DIMTP
 40
0.0
  9
$DIMTM
 40
0.0
  9
$DIMTXT
 40
3.0
  9
$DIMCEN
 40
0.09
  9
$DIMTSZ
 40
0.0
  9
$DIMTOL
 70
     0
  9
$DIMLIM
 70
     0
  9
$DIMTIH
 70
     0
  9
$DIMTOH
 70
     0
  9
$DIMSE1
 70
     0
  9
$DIMSE2
 70
     0
  9
$DIMTAD
 70
     1
  9
$DIMZIN
 70
     0
  9
$DIMBLK
  1

  9
$DIMASO
 70
     0
  9
$DIMSHO
 70
     1
  9
$DIMPOST
  1

  9
$DIMAPOST
  1

  9
$DIMALT
 70
     0
  9
$DIMALTD
 70
     2
  9
$DIMALTF
 40
25.399999999999999
  9
$DIMLFAC
 40
1.0
  9
$DIMTOFL
 70
     0
  9
$DIMTVP
 40
0.0
  9
$DIMTIX
 70
     0
  9
$DIMSOXD
 70
     0
  9
$DIMSAH
 70
     0
  9
$DIMBLK1
  1
ARROW1
  9
$DIMBLK2
  1
ARROW1
  9
$DIMSTYLE
  2
STANDARD
  9
$DIMCLRD
 70
     0
  9
$DIMCLRE
 70
     0
  9
$DIMCLRT
 70
     0
  9
$DIMTFAC
 40
1.0
  9
$DIMGAP
 40
0.5
  9
$LUNITS
 70
     2
  9
$LUPREC
 70
     4
  9
$SKETCHINC
 40
0.1
  9
$FILLETRAD
 40
0.5
  9
$AUNITS
 70
     0
  9
$AUPREC
 70
     0
  9
$MENU
  1
ACAD
  9
$ELEVATION
 40
0.0
  9
$PELEVATION
 40
0.0
  9
$THICKNESS
 40
0.0
  9
$LIMCHECK
 70
     0
  9
$BLIPMODE
 70
     0
  9
$CHAMFERA
 40
0.1
  9
$CHAMFERB
 40
0.1
  9
$SKPOLY
 70
     0
  9
$TDCREATE
 40
2449640.5627083331
  9
$TDUPDATE
 40
2456598.65678294
  9
$TDINDWG
 40
1.2080625578999999
  9
$TDUSRTIMER
 40
1.2080625578999999
  9
$USRTIMER
 70
     1
  9
$ANGBASE
 50
0.0
  9
$ANGDIR
 70
     0
  9
$PDMODE
 70
     0
  9
$PDSIZE
 40
0.0
  9
$PLINEWID
 40
0.0
  9
$COORDS
 70
     1
  9
$SPLFRAME
 70
     0
  9
$SPLINETYPE
 70
     6
  9
$SPLINESEGS
 70
     8
  9
$ATTDIA
 70
     0
  9
$ATTREQ
 70
     1
  9
$HANDLING
 70
     1
  9
$HANDSEED
  5
1F21
  9
$SURFTAB1
 70
     6
  9
$SURFTAB2
 70
     6
  9
$SURFTYPE
 70
     6
  9
$SURFU
 70
     6
  9
$SURFV
 70
     6
  9
$UCSNAME
  2

  9
$UCSORG
 10
0.0
 20
0.0
 30
0.0
  9
$UCSXDIR
 10
1.0
 20
0.0
 30
0.0
  9
$UCSYDIR
 10
0.0
 20
1.0
 30
0.0
  9
$PUCSNAME
  2

  9
$PUCSORG
 10
0.0
 20
0.0
 30
0.0
  9
$PUCSXDIR
 10
1.0
 20
0.0
 30
0.0
  9
$PUCSYDIR
 10
0.0
 20
1.0
 30
0.0
  9
$USERI1
 70
     0
  9
$USERI2
 70
     1
  9
$USERI3
 70
     1
  9
$USERI4
 70
     0
  9
$USERI5
 70
     0
  9
$USERR1
 40
0.0
  9
$USERR2
 40
0.0
  9
$USERR3
 40
0.0
  9
$USERR4
 40
0.0
  9
$USERR5
 40
10.0
  9
$WORLDVIEW
 70
     1
  9
$SHADEDGE
 70
     3
  9
$SHADEDIF
 70
    70
  9
$TILEMODE
 70
     1
  9
$MAXACTVP
 70
    16
  9
$PLIMCHECK
 70
     0
  9
$PEXTMIN
 10
1.0000000000000000E+020
 20
1.0000000000000000E+020
 30
1.0000000000000000E+020
  9
$PEXTMAX
 10
-1.0000000000000000E+020
 20
-1.0000000000000000E+020
 30
-1.0000000000000000E+020
  9
$PLIMMIN
 10
0.0
 20
0.0
  9
$PLIMMAX
 10
12.0
 20
9.0
  9
$UNITMODE
 70
     0
  9
$VISRETAIN
 70
     0
  9
$PLINEGEN
 70
     0
  9
$PSLTSCALE
 70
     0
  0
ENDSEC
  0
SECTION
  2
TABLES
  0
TABLE
  2
VPORT
 70
     1
  0
VPORT
  2
*ACTIVE
 70
     0
 10
0.0
 20
0.0
 11
1.0
 21
1.0
 12
209.99359179753071
 22
207.90330784623239
 13
0.0
 23
0.0
 14
1.8999999999999999
 24
1.8999999999999999
 15
10.0
 25
10.0
 16
0.0
 26
0.0
 36
1.0
 17
0.0
 27
0.0
 37
0.0
 40
425.5958955386298
 41
1.8318713450292401
 42
50.0
 43
0.0
 44
0.0
 50
0.0
 51
0.0
 71
     0
 72
   100
 73
     1
 74
     0
 75
     0
 76
     0
 77
     0
 78
     1
  0
ENDTAB
  0
TABLE
  2
LTYPE
 70
     4
  0
LTYPE
  2
CONTINUOUS
 70
     0
  3
Solid Line
 72
    65
 73
     0
 40
0.0
  0
LTYPE
  2
CENTER
 70
     0
  3
____ _ ____ _ ____ _ ____ _ ____ _ ____ _ ____
 72
    65
 73
     4
 40
2.0
 49
1.25
 49
-0.25
 49
0.25
 49
-0.25
  0
LTYPE
  2
HIDDEN
 70
     0
  3
_ _ _ _ _ _ _ _ _ _ _ _ _ _ _ _ _ _ _ _ _ _ _
 72
    65
 73
     2
 40
0.375
 49
0.25
 49
-0.125
  0
LTYPE
  2
PHANTOM2
 70
     0
  3
___ _ _ ___ _ _ ___ _ _ ___ _ _
 72
    65
 73
     6
 40
1.25
 49
0.625
 49
-0.125
 49
0.125
 49
-0.125
 49
0.125
 49
-0.125
  0
ENDTAB
  0
TABLE
  2
LAYER
 70
     4
  0
LAYER
  2
0
 70
     0
 62
     7
  6
CONTINUOUS
  0
LAYER
  2
WAKU
 70
     0
 62
     7
  6
CONTINUOUS
  0
LAYER
  2
1
 70
     0
 62
     1
  6
CENTER
  0
LAYER
  2
2
 70
     0
 62
     2
  6
HIDDEN
  0
ENDTAB
  0
TABLE
  2
STYLE
 70
     2
  0
STYLE
  2
STANDARD
 70
     0
 40
0.0
 41
1.0
 50
0.0
 71
     0
 42
0.2
  3
ROMANS
  4
EXTFONT
  0
STYLE
  2
STANDARD1
 70
     0
 40
0.0
 41
1.0
 50
0.0
 71
     0
 42
3.0
  3
txt
  4

  0
ENDTAB
  0
TABLE
  2
VIEW
 70
     0
  0
ENDTAB
  0
TABLE
  2
UCS
 70
     0
  0
ENDTAB
  0
TABLE
  2
APPID
 70
     8
  0
APPID
  2
ACAD
 70
     0
  0
APPID
  2
GENIUS_GENOREF_13
 70
     0
  0
APPID
  2
ACAD_NAV_VCDISPLAY
 70
     0
  0
APPID
  2
ACADANNOTATIVE
 70
     0
  0
APPID
  2
ACAD_EXEMPT_FROM_CAD_STANDARDS
 70
     0
  0
APPID
  2
GENIUS_GENODEF_13
 70
     0
  0
APPID
  2
GENIUS_GENOBJ-N-FIL_13
 70
     0
  0
APPID
  2
ACAD_MLEADERVER
 70
     0
  0
ENDTAB
  0
TABLE
  2
DIMSTYLE
 70
     1
  0
DIMSTYLE
  2
STANDARD
 70
     0
  3

  4

  5

  6

  7

 40
1.0
 41
0.18
 42
0.0625
 43
0.38
 44
0.18
 45
0.0
 46
0.0
 47
0.0
 48
0.0
140
0.18
141
0.09
142
0.0
143
25.399999999999999
144
1.0
145
0.0
146
1.0
147
0.09
 71
     0
 72
     0
 73
     1
 74
     1
 75
     0
 76
     0
 77
     0
 78
     0
170
     0
171
     2
172
     0
173
     0
174
     0
175
     0
176
     0
177
     0
178
     0
  0
ENDTAB
  0
ENDSEC
  0
SECTION
  2
BLOCKS
  0
BLOCK
  8
0
  2
$MODEL_SPACE
 70
     0
 10
0.0
 20
0.0
 30
0.0
  3
$MODEL_SPACE
  1

  0
ENDBLK
  5
9
  8
0
  0
BLOCK
 67
     1
  8
0
  2
$PAPER_SPACE
 70
     0
 10
0.0
 20
0.0
 30
0.0
  3
$PAPER_SPACE
  1

  0
ENDBLK
  5
E
 67
     1
  8
0
  0
BLOCK
  8
0
  2
ARROW1
 70
     0
 10
0.0
 20
0.0
 30
0.0
  3
ARROW1
  1

  0
SOLID
  5
24
  8
WAKU
  6
CONTINUOUS
 62
     4
 10
-1.0
 20
0.1666666666666714
 30
0.0
 11
-1.0
 21
-0.1666666666666714
 31
0.0
 12
0.0
 22
0.0
 32
0.0
 13
0.0
 23
0.0
 33
0.0
  0
ENDBLK
  5
27
  8
0
  0
ENDSEC
  0
SECTION
  2
ENTITIES
  0
CIRCLE
  5
1338
  8
0
 10
76.177987830263419
 20
47.013505611654402
 30
0.0
 40
1.5
  0
CIRCLE
  5
1339
  8
0
 10
76.177987830263419
 20
47.013505611654402
 30
0.0
 40
2.0
  0
ARC
  5
133A
  8
0
 10
84.927987830263305
 20
48.01350561165458
 30
0.0
 40
0.649999999999944
 50
61.273394651841819
 51
179.9177540589279
  0
LINE
  5
133B
  8
0
 10
85.606196693676509
 20
49.125824748096477
 30
0.0
 11
85.240397817299709
 21
48.583505611654431
 31
0.0
  0
LINE
  5
133C
  8
0
 10
81.569500996987699
 20
40.968541941537133
 30
0.0
 11
82.177987830263419
 21
34.013505611654423
 31
0.0
  0
ARC
  5
133D
  8
0
 10
96.412202039470372
 20
41.563522108539608
 30
0.0
 40
3.5000000000002118
 50
1.9999999999996001
 51
79.999999999988276
  0
LINE
  5
133E
  8
0
 10
90.560633554865404
 20
46.14930465343943
 30
0.0
 11
97.019970661305436
 21
45.01034924408242
 31
0.0
  0
LINE
  5
133F
  8
0
 10
85.626978959601814
 20
49.112106124578418
 30
0.0
 11
89.211227014552406
 21
46.694500285039418
 31
0.0
  0
ARC
  5
1340
  8
0
 10
84.927987830263277
 20
48.075809158884852
 30
0.0
 40
1.2499999999998821
 50
55.999999999990031
 51
57.141436590253001
  0
LINE
  5
1341
  8
0
 10
100.1779878302634
 20
34.013505611654423
 30
0.0
 11
76.577987830263424
 21
34.013505611654438
 31
0.0
  0
LINE
  5
1342
  8
0
 10
99.910069934037409
 20
41.685670346998329
 30
0.0
 11
100.1779878302634
 21
34.013505611654423
 31
0.0
  0
ARC
  5
1343
  8
0
 10
91.168402176695665
 20
49.596131788971377
 30
0.0
 40
3.4999999999887059
 50
235.99999999996291
 51
260.00000000003462
  0
ARC
  5
1344
  8
0
 10
76.177987830263973
 20
47.013505611654153
 30
0.0
 40
8.0999999999993744
 50
311.72982397133592
 51
0.9998278403154594
  0
LINE
  5
1345
  8
0
 10
84.277988499942794
 20
48.014438661938406
 30
0.0
 11
84.276754585758994
 21
47.15484576900041
 31
0.0
  0
LINE
  5
1346
  8
0
 10
81.625955859972976
 20
40.323259904870298
 30
0.0
 11
79.596278639415402
 21
41.692294476577409
 31
0.0
  0
ARC
  5
1347
  8
0
 10
77.918699929003083
 20
39.20518175891209
 30
0.0
 40
3.000000000000226
 50
56.000000000000419
 51
102.5674634422089
  0
ARC
  5
1348
  8
0
 10
76.177987830263419
 20
47.013505611654402
 30
0.0
 40
5.0000000000000213
 50
169.99999999999579
 51
282.5674634422104
  0
LINE
  5
1349
  8
0
 10
71.253949065202406
 20
47.881746499989418
 30
0.0
 11
69.284333559177924
 21
48.229042855323421
 31
0.0
  0
ARC
  5
134A
  8
0
 10
76.17798783026322
 20
47.01350561165426
 30
0.0
 40
6.9999999999999734
 50
55.99999999999816
 51
169.99999999999491
  0
LINE
  5
134B
  8
0
 10
80.092338154558618
 20
52.816768619539403
 30
0.0
 11
85.593123088932956
 21
49.106442331985903
 31
0.0
  0
LINE
  5
134C
  8
0
 10
76.577987830263424
 20
34.013505611654423
 30
0.0
 11
76.577987830263424
 21
34.513505611654431
 31
0.0
  0
ARC
  5
134F
  8
0
 10
76.177987830263334
 20
47.013505611654402
 30
0.0
 40
7.5000000000000551
 50
289.5546217968174
 51
306.52877936551079
  0
ARC
  5
1351
  8
0
 10
84.927987830263277
 20
48.075809158884852
 30
0.0
 40
1.249999999999891
 50
57.141436590253001
 51
67.15777514996671
  0
ARC
  5
1352
  8
0
 10
61.187573483831159
 20
49.596131788971377
 30
0.0
 40
3.4999999999886908
 50
279.99999999996709
 51
304.00000000003928
  0
LINE
  5
1353
  8
0
 10
75.777987830263413
 20
34.013505611654423
 30
0.0
 11
75.777987830263413
 21
34.513505611654431
 31
0.0
  0
LINE
  5
1354
  8
0
 10
75.777987830263413
 20
34.513505611654431
 30
0.0
 11
78.877987830263393
 21
34.513505611654431
 31
0.0
  0
ARC
  5
1355
  8
0
 10
67.427987830263532
 20
48.075809158884852
 30
0.0
 40
1.2499999999998861
 50
0.0000000000276835
 51
124.00000000000951
  0
LINE
  5
1356
  8
0
 10
61.795342105661433
 20
46.14930465343943
 30
0.0
 11
55.336004999221409
 21
45.01034924408242
 31
0.0
  0
LINE
  5
1357
  8
0
 10
75.700496248492144
 20
41.513505611654431
 30
0.0
 11
75.527987830263413
 21
39.541725368633337
 31
0.0
  0
LINE
  5
1358
  8
0
 10
66.728996700925023
 20
49.112106124578418
 30
0.0
 11
63.144748645974403
 21
46.694500285039418
 31
0.0
  0
ARC
  5
1359
  8
0
 10
77.431887913281912
 20
40.107253671932817
 30
0.0
 40
1.2500000000000391
 50
2.000000000002041
 51
84.99999999999369
  0
LINE
  5
135A
  8
0
 10
78.877987830263393
 20
34.513505611654431
 30
0.0
 11
78.681126447055817
 21
40.150878042811001
 31
0.0
  0
ARC
  5
135B
  8
0
 10
55.94377362105643
 20
41.563522108539608
 30
0.0
 40
3.5000000000002101
 50
100.0000000000117
 51
178.0000000000004
  0
LINE
  5
135C
  8
0
 10
52.177987830263419
 20
34.013505611654423
 30
0.0
 11
75.777987830263413
 21
34.013505611654423
 31
0.0
  0
LINE
  5
135D
  8
0
 10
52.4459057264894
 20
41.685670346998329
 30
0.0
 11
52.177987830263419
 21
34.013505611654423
 31
0.0
  0
LINE
  5
135E
  8
0
 10
68.677987830263419
 20
47.013505611654402
 30
0.0
 11
68.677987830263419
 21
48.075809158885448
 31
0.0
  0
ARC
  5
135F
  8
0
 10
76.177987830263504
 20
47.013505611654402
 30
0.0
 40
7.5000000000000853
 50
180.0
 51
265.02812843182681
  0
LINE
  5
1360
  8
0
 10
77.540832591716622
 20
41.352497044547533
 30
0.0
 11
75.700496248492144
 21
41.513505611654431
 31
0.0
  0
LINE
  5
1363
  8
0
 10
72.263637505968205
 20
52.816768619539403
 30
0.0
 11
66.942744255416471
 21
49.227780804833372
 31
0.0
  0
LINE
  5
1365
  8
2
 10
86.677987830263405
 20
40.452284947676759
 30
0.0
 11
96.677987830263305
 21
40.452284947676759
 31
0.0
  0
LINE
  5
1371
  8
2
 10
55.677987830263419
 20
40.452284947676759
 30
0.0
 11
65.677987830263305
 21
40.452284947676759
 31
0.0
  0
LINE
  5
1381
  8
2
 10
86.677987830263405
 20
48.403191690040529
 30
0.0
 11
86.677987830263405
 21
40.452284947676759
 31
0.0
  0
LINE
  5
1382
  8
2
 10
96.677987830263305
 20
40.452284947676759
 30
0.0
 11
96.677987830263305
 21
45.07065004413419
 31
0.0
  0
LINE
  5
1383
  8
2
 10
88.927987830263405
 20
40.452284947676759
 30
0.0
 11
88.927987830263405
 21
34.013505611654423
 31
0.0
  0
LINE
  5
1384
  8
2
 10
94.427987830263305
 20
34.013505611654423
 30
0.0
 11
94.427987830263305
 21
40.452284947676759
 31
0.0
  0
LINE
  5
1385
  8
2
 10
55.677987830263419
 20
45.07065004413419
 30
0.0
 11
55.677987830263419
 21
40.452284947676759
 31
0.0
  0
LINE
  5
1386
  8
2
 10
65.677987830263305
 20
40.452284947676759
 30
0.0
 11
65.677987830263305
 21
48.403191690040529
 31
0.0
  0
LINE
  5
1387
  8
2
 10
57.927987830263412
 20
40.452284947676759
 30
0.0
 11
57.927987830263412
 21
34.013505611654423
 31
0.0
  0
LINE
  5
1388
  8
2
 10
63.427987830263312
 20
34.013505611654423
 30
0.0
 11
63.427987830263312
 21
40.452284947676759
 31
0.0
  0
LINE
  5
1485
  8
0
 10
78.177987830263419
 20
140.9204361990387
 30
0.0
 11
77.677987830263419
 21
141.4204361990387
 31
0.0
  0
LINE
  5
1486
  8
0
 10
74.677987830263419
 20
141.4204361990387
 30
0.0
 11
74.177987830263405
 21
140.9204361990387
 31
0.0
  0
LINE
  5
1487
  8
0
 10
78.177987830263419
 20
92.420436199038704
 30
0.0
 11
78.177987830263419
 21
92.670436199038704
 31
0.0
  0
LINE
  5
1488
  8
0
 10
78.177987830263419
 20
140.67043619903859
 30
0.0
 11
78.177987830263419
 21
140.9204361990387
 31
0.0
  0
LINE
  5
1489
  8
0
 10
74.177987830263405
 20
140.9204361990387
 30
0.0
 11
74.177987830263405
 21
140.67043619903859
 31
0.0
  0
LINE
  5
148A
  8
0
 10
74.177987830263405
 20
92.670436199038704
 30
0.0
 11
74.177987830263405
 21
92.420436199038704
 31
0.0
  0
LINE
  5
148B
  8
0
 10
74.177987830263405
 20
92.420436199038704
 30
0.0
 11
74.677987830263419
 21
91.920436199038676
 31
0.0
  0
LINE
  5
148C
  8
0
 10
77.677987830263419
 20
91.920436199038676
 30
0.0
 11
78.177987830263419
 21
92.420436199038704
 31
0.0
  0
LINE
  5
148D
  8
0
 10
69.177987830263405
 20
134.6704361990387
 30
0.0
 11
69.177987830263405
 21
128.6704361990387
 31
0.0
  0
LINE
  5
148E
  8
0
 10
69.177987830263405
 20
122.6704361990387
 30
0.0
 11
69.177987830263405
 21
116.6704361990387
 31
0.0
  0
LINE
  5
148F
  8
0
 10
69.177987830263405
 20
110.6704361990387
 30
0.0
 11
69.177987830263405
 21
104.6704361990387
 31
0.0
  0
LINE
  5
1490
  8
0
 10
83.177987830263419
 20
122.6704361990387
 30
0.0
 11
83.177987830263419
 21
128.6704361990387
 31
0.0
  0
LINE
  5
1491
  8
0
 10
83.177987830263419
 20
110.6704361990387
 30
0.0
 11
83.177987830263419
 21
116.6704361990387
 31
0.0
  0
LINE
  5
1492
  8
0
 10
83.177987830263419
 20
98.670436199038704
 30
0.0
 11
83.177987830263419
 21
104.6704361990387
 31
0.0
  0
LINE
  5
1493
  8
0
 10
78.177987830263419
 20
140.9204361990387
 30
0.0
 11
74.177987830263405
 21
140.9204361990387
 31
0.0
  0
LINE
  5
1495
  8
0
 10
78.177987830263419
 20
92.420436199038704
 30
0.0
 11
74.177987830263405
 21
92.420436199038704
 31
0.0
  0
LINE
  5
149B
  8
0
 10
69.284333559177924
 20
92.670436199038704
 30
0.0
 11
85.626978959601814
 21
92.670436199038733
 31
0.0
  0
LINE
  5
149C
  8
0
 10
69.284333559177924
 20
92.670436199038704
 30
0.0
 11
69.284333559177924
 21
98.670436199038704
 31
0.0
  0
LINE
  5
14A5
  8
0
 10
66.728996700925023
 20
128.6704361990387
 30
0.0
 11
85.626978959601814
 21
128.6704361990387
 31
0.0
  0
LINE
  5
14A6
  8
0
 10
66.728996700925009
 20
134.67043619903851
 30
0.0
 11
85.626978959601814
 21
134.6704361990387
 31
0.0
  0
LINE
  5
14A8
  8
0
 10
66.728996700925023
 20
116.6704361990386
 30
0.0
 11
85.626978959601814
 21
116.6704361990387
 31
0.0
  0
LINE
  5
14A9
  8
0
 10
66.728996700925023
 20
122.6704361990387
 30
0.0
 11
85.626978959601814
 21
122.6704361990387
 31
0.0
  0
LINE
  5
14AB
  8
0
 10
66.728996700925023
 20
104.6704361990386
 30
0.0
 11
85.626978959601814
 21
104.6704361990387
 31
0.0
  0
LINE
  5
14AC
  8
0
 10
66.728996700925023
 20
110.6704361990386
 30
0.0
 11
85.626978959601814
 21
110.6704361990387
 31
0.0
  0
LINE
  5
14AF
  8
0
 10
66.728996700925023
 20
98.670436199038605
 30
0.0
 11
85.626978959601814
 21
98.670436199038747
 31
0.0
  0
LINE
  5
14B0
  8
0
 10
85.413231405110366
 20
134.6704361990387
 30
0.0
 11
85.626978959601814
 21
134.6704361990387
 31
0.0
  0
LINE
  5
14B3
  8
0
 10
85.626978959601814
 20
91.920436199038676
 30
0.0
 11
85.626978959601814
 21
141.4204361990387
 31
0.0
  0
LINE
  5
14CC
  8
0
 10
81.569500996987699
 20
91.920436199038704
 30
0.0
 11
81.569500996987699
 21
92.670436199038704
 31
0.0
  0
LINE
  5
14CD
  8
0
 10
100.1779878302634
 20
91.920436199038562
 30
0.0
 11
81.569500996987699
 21
91.920436199038704
 31
0.0
  0
LINE
  5
14E0
  8
0
 10
100.1779878302634
 20
91.920436199038733
 30
0.0
 11
100.1779878302634
 21
141.4204361990387
 31
0.0
  0
LINE
  5
14E6
  8
0
 10
73.477987830263402
 20
140.67043619903859
 30
0.0
 11
73.477987830263402
 21
141.4204361990387
 31
0.0
  0
LINE
  5
14E7
  8
0
 10
73.477987830263402
 20
141.4204361990387
 30
0.0
 11
100.1779878302634
 21
141.4204361990387
 31
0.0
  0
LINE
  5
14E9
  8
0
 10
83.071642101348914
 20
140.6704361990387
 30
0.0
 11
66.728996700925009
 21
140.67043619903859
 31
0.0
  0
LINE
  5
14EA
  8
0
 10
83.071642101348914
 20
140.6704361990387
 30
0.0
 11
83.071642101348914
 21
134.6704361990387
 31
0.0
  0
LINE
  5
1504
  8
0
 10
66.728996700925023
 20
141.4204361990387
 30
0.0
 11
66.728996700925023
 21
91.920436199038676
 31
0.0
  0
LINE
  5
151D
  8
0
 10
70.786474663539124
 20
141.4204361990387
 30
0.0
 11
70.786474663539124
 21
140.6704361990387
 31
0.0
  0
LINE
  5
151E
  8
0
 10
52.17798783026339
 20
141.42043619903851
 30
0.0
 11
70.786474663539124
 21
141.4204361990387
 31
0.0
  0
LINE
  5
1531
  8
0
 10
52.177987830263419
 20
141.4204361990387
 30
0.0
 11
52.177987830263419
 21
91.920436199038733
 31
0.0
  0
CIRCLE
  5
1535
  8
0
 10
60.67798783026344
 20
131.7704361990387
 30
0.0
 40
2.7500000000000142
  0
LINE
  5
1537
  8
0
 10
78.877987830263393
 20
92.670436199038676
 30
0.0
 11
78.877987830263393
 21
91.920436199038733
 31
0.0
  0
LINE
  5
1538
  8
0
 10
78.877987830263393
 20
91.920436199038733
 30
0.0
 11
52.177987830263419
 21
91.920436199034853
 31
0.0
  0
LINE
  5
157F
  8
0
 10
135.5391710398963
 20
54.013505611654182
 30
0.0
 11
129.5391710398963
 21
54.013505611654182
 31
0.0
  0
LINE
  5
1580
  8
0
 10
147.5391710398963
 20
54.013505611654182
 30
0.0
 11
141.5391710398963
 21
54.013505611654182
 31
0.0
  0
LINE
  5
1581
  8
0
 10
159.5391710398963
 20
54.013505611654182
 30
0.0
 11
153.5391710398963
 21
54.013505611654182
 31
0.0
  0
LINE
  5
1582
  8
0
 10
171.5391710398963
 20
54.01350561165426
 30
0.0
 11
165.5391710398963
 21
54.01350561165426
 31
0.0
  0
LINE
  5
1583
  8
0
 10
123.5391710398964
 20
49.325809158884709
 30
0.0
 11
122.7891710398963
 21
49.325809158884709
 31
0.0
  0
LINE
  5
1584
  8
0
 10
172.28917103989639
 20
49.325809158884709
 30
0.0
 11
165.53917103989639
 21
49.325809158884709
 31
0.0
  0
LINE
  5
1585
  8
0
 10
141.5391710398963
 20
54.013505611654182
 30
0.0
 11
135.5391710398963
 21
54.013505611654182
 31
0.0
  0
LINE
  5
1586
  8
0
 10
153.5391710398963
 20
54.013505611654182
 30
0.0
 11
147.5391710398963
 21
54.013505611654182
 31
0.0
  0
LINE
  5
1587
  8
0
 10
165.5391710398963
 20
54.013505611654182
 30
0.0
 11
159.5391710398963
 21
54.013505611654182
 31
0.0
  0
LINE
  5
1588
  8
0
 10
129.5391710398963
 20
54.01350561165426
 30
0.0
 11
123.5391710398963
 21
54.01350561165426
 31
0.0
  0
LINE
  5
158F
  8
0
 10
171.53917103989639
 20
49.325809158884709
 30
0.0
 11
171.5391710398963
 21
54.01350561165426
 31
0.0
  0
LINE
  5
1592
  8
0
 10
122.7891710398964
 20
49.325809158884709
 30
0.0
 11
122.7891710398964
 21
34.013505611654423
 31
0.0
  0
LINE
  5
1594
  8
0
 10
172.28917103989639
 20
49.325809158884709
 30
0.0
 11
172.28917103989639
 21
34.013505611654423
 31
0.0
  0
LINE
  5
1595
  8
0
 10
122.7891710398964
 20
34.013505611654423
 30
0.0
 11
172.28917103989639
 21
34.013505611654423
 31
0.0
  0
POLYLINE
  5
1599
  8
0
 10
157.76561798044898
 20
46.14930465343943
 30
0.0
 66
     1
 70
     8
  0
VERTEX
  8
0
  5
1D19
 10
157.766
 20
46.1493
 30
0.000000
  70
    32
  0
VERTEX
  8
0
  5
1D1A
 10
157.736
 20
46.1251
 30
0.000000
  70
    32
  0
VERTEX
  8
0
  5
1D1B
 10
157.711
 20
46.1008
 30
0.000000
  70
    32
  0
VERTEX
  8
0
  5
1D1C
 10
157.689
 20
46.0763
 30
0.000000
  70
    32
  0
VERTEX
  8
0
  5
1D1D
 10
157.671
 20
46.0518
 30
0.000000
  70
    32
  0
VERTEX
  8
0
  5
1D1E
 10
157.657
 20
46.0272
 30
0.000000
  70
    32
  0
VERTEX
  8
0
  5
1D1F
 10
157.647
 20
46.0025
 30
0.000000
  70
    32
  0
VERTEX
  8
0
  5
1D20
 10
157.641
 20
45.9778
 30
0.000000
  70
    32
  0
VERTEX
  8
0
  5
1D21
 10
157.639
 20
45.9530
 30
0.000000
  70
    32
  0
VERTEX
  8
0
  5
1D22
 10
157.641
 20
45.9283
 30
0.000000
  70
    32
  0
VERTEX
  8
0
  5
1D23
 10
157.647
 20
45.9036
 30
0.000000
  70
    32
  0
VERTEX
  8
0
  5
1D24
 10
157.657
 20
45.8789
 30
0.000000
  70
    32
  0
VERTEX
  8
0
  5
1D25
 10
157.670
 20
45.8543
 30
0.000000
  70
    32
  0
VERTEX
  8
0
  5
1D26
 10
157.688
 20
45.8297
 30
0.000000
  70
    32
  0
VERTEX
  8
0
  5
1D27
 10
157.709
 20
45.8053
 30
0.000000
  70
    32
  0
VERTEX
  8
0
  5
1D28
 10
157.735
 20
45.7809
 30
0.000000
  70
    32
  0
VERTEX
  8
0
  5
1D29
 10
157.764
 20
45.7567
 30
0.000000
  70
    32
  0
VERTEX
  8
0
  5
1D2A
 10
157.797
 20
45.7327
 30
0.000000
  70
    32
  0
VERTEX
  8
0
  5
1D2B
 10
157.834
 20
45.7088
 30
0.000000
  70
    32
  0
VERTEX
  8
0
  5
1D2C
 10
157.874
 20
45.6851
 30
0.000000
  70
    32
  0
VERTEX
  8
0
  5
1D2D
 10
157.919
 20
45.6617
 30
0.000000
  70
    32
  0
VERTEX
  8
0
  5
1D2E
 10
157.967
 20
45.6384
 30
0.000000
  70
    32
  0
VERTEX
  8
0
  5
1D2F
 10
158.019
 20
45.6154
 30
0.000000
  70
    32
  0
VERTEX
  8
0
  5
1D30
 10
158.074
 20
45.5927
 30
0.000000
  70
    32
  0
VERTEX
  8
0
  5
1D31
 10
158.133
 20
45.5702
 30
0.000000
  70
    32
  0
VERTEX
  8
0
  5
1D32
 10
158.196
 20
45.5481
 30
0.000000
  70
    32
  0
VERTEX
  8
0
  5
1D33
 10
158.262
 20
45.5263
 30
0.000000
  70
    32
  0
VERTEX
  8
0
  5
1D34
 10
158.331
 20
45.5048
 30
0.000000
  70
    32
  0
VERTEX
  8
0
  5
1D35
 10
158.404
 20
45.4836
 30
0.000000
  70
    32
  0
VERTEX
  8
0
  5
1D36
 10
158.480
 20
45.4629
 30
0.000000
  70
    32
  0
VERTEX
  8
0
  5
1D37
 10
158.560
 20
45.4425
 30
0.000000
  70
    32
  0
VERTEX
  8
0
  5
1D38
 10
158.643
 20
45.4225
 30
0.000000
  70
    32
  0
VERTEX
  8
0
  5
1D39
 10
158.728
 20
45.4029
 30
0.000000
  70
    32
  0
VERTEX
  8
0
  5
1D3A
 10
158.817
 20
45.3838
 30
0.000000
  70
    32
  0
VERTEX
  8
0
  5
1D3B
 10
158.909
 20
45.3651
 30
0.000000
  70
    32
  0
VERTEX
  8
0
  5
1D3C
 10
159.004
 20
45.3469
 30
0.000000
  70
    32
  0
VERTEX
  8
0
  5
1D3D
 10
159.102
 20
45.3291
 30
0.000000
  70
    32
  0
VERTEX
  8
0
  5
1D3E
 10
159.203
 20
45.3119
 30
0.000000
  70
    32
  0
VERTEX
  8
0
  5
1D3F
 10
159.306
 20
45.2951
 30
0.000000
  70
    32
  0
VERTEX
  8
0
  5
1D40
 10
159.412
 20
45.2789
 30
0.000000
  70
    32
  0
VERTEX
  8
0
  5
1D41
 10
159.520
 20
45.2632
 30
0.000000
  70
    32
  0
VERTEX
  8
0
  5
1D42
 10
159.631
 20
45.2480
 30
0.000000
  70
    32
  0
VERTEX
  8
0
  5
1D43
 10
159.744
 20
45.2334
 30
0.000000
  70
    32
  0
VERTEX
  8
0
  5
1D44
 10
159.860
 20
45.2194
 30
0.000000
  70
    32
  0
VERTEX
  8
0
  5
1D45
 10
159.978
 20
45.2059
 30
0.000000
  70
    32
  0
VERTEX
  8
0
  5
1D46
 10
160.098
 20
45.1931
 30
0.000000
  70
    32
  0
VERTEX
  8
0
  5
1D47
 10
160.219
 20
45.1808
 30
0.000000
  70
    32
  0
VERTEX
  8
0
  5
1D48
 10
160.343
 20
45.1691
 30
0.000000
  70
    32
  0
VERTEX
  8
0
  5
1D49
 10
160.469
 20
45.1581
 30
0.000000
  70
    32
  0
VERTEX
  8
0
  5
1D4A
 10
160.596
 20
45.1476
 30
0.000000
  70
    32
  0
VERTEX
  8
0
  5
1D4B
 10
160.725
 20
45.1378
 30
0.000000
  70
    32
  0
VERTEX
  8
0
  5
1D4C
 10
160.855
 20
45.1287
 30
0.000000
  70
    32
  0
VERTEX
  8
0
  5
1D4D
 10
160.987
 20
45.1202
 30
0.000000
  70
    32
  0
VERTEX
  8
0
  5
1D4E
 10
161.120
 20
45.1123
 30
0.000000
  70
    32
  0
VERTEX
  8
0
  5
1D4F
 10
161.254
 20
45.1051
 30
0.000000
  70
    32
  0
VERTEX
  8
0
  5
1D50
 10
161.390
 20
45.0986
 30
0.000000
  70
    32
  0
VERTEX
  8
0
  5
1D51
 10
161.526
 20
45.0928
 30
0.000000
  70
    32
  0
VERTEX
  8
0
  5
1D52
 10
161.663
 20
45.0876
 30
0.000000
  70
    32
  0
VERTEX
  8
0
  5
1D53
 10
161.801
 20
45.0831
 30
0.000000
  70
    32
  0
VERTEX
  8
0
  5
1D54
 10
161.940
 20
45.0793
 30
0.000000
  70
    32
  0
VERTEX
  8
0
  5
1D55
 10
162.079
 20
45.0762
 30
0.000000
  70
    32
  0
VERTEX
  8
0
  5
1D56
 10
162.219
 20
45.0738
 30
0.000000
  70
    32
  0
VERTEX
  8
0
  5
1D57
 10
162.359
 20
45.0720
 30
0.000000
  70
    32
  0
VERTEX
  8
0
  5
1D58
 10
162.499
 20
45.0710
 30
0.000000
  70
    32
  0
VERTEX
  8
0
  5
1D59
 10
162.639
 20
45.0707
 30
0.000000
  70
    32
  0
VERTEX
  8
0
  5
1D5A
 10
162.779
 20
45.0710
 30
0.000000
  70
    32
  0
VERTEX
  8
0
  5
1D5B
 10
162.920
 20
45.0720
 30
0.000000
  70
    32
  0
VERTEX
  8
0
  5
1D5C
 10
163.060
 20
45.0738
 30
0.000000
  70
    32
  0
VERTEX
  8
0
  5
1D5D
 10
163.199
 20
45.0762
 30
0.000000
  70
    32
  0
VERTEX
  8
0
  5
1D5E
 10
163.338
 20
45.0793
 30
0.000000
  70
    32
  0
VERTEX
  8
0
  5
1D5F
 10
163.477
 20
45.0831
 30
0.000000
  70
    32
  0
VERTEX
  8
0
  5
1D60
 10
163.615
 20
45.0876
 30
0.000000
  70
    32
  0
VERTEX
  8
0
  5
1D61
 10
163.752
 20
45.0928
 30
0.000000
  70
    32
  0
VERTEX
  8
0
  5
1D62
 10
163.889
 20
45.0986
 30
0.000000
  70
    32
  0
VERTEX
  8
0
  5
1D63
 10
164.024
 20
45.1051
 30
0.000000
  70
    32
  0
VERTEX
  8
0
  5
1D64
 10
164.158
 20
45.1123
 30
0.000000
  70
    32
  0
VERTEX
  8
0
  5
1D65
 10
164.291
 20
45.1202
 30
0.000000
  70
    32
  0
VERTEX
  8
0
  5
1D66
 10
164.423
 20
45.1287
 30
0.000000
  70
    32
  0
VERTEX
  8
0
  5
1D67
 10
164.554
 20
45.1378
 30
0.000000
  70
    32
  0
VERTEX
  8
0
  5
1D68
 10
164.682
 20
45.1476
 30
0.000000
  70
    32
  0
VERTEX
  8
0
  5
1D69
 10
164.810
 20
45.1581
 30
0.000000
  70
    32
  0
VERTEX
  8
0
  5
1D6A
 10
164.935
 20
45.1691
 30
0.000000
  70
    32
  0
VERTEX
  8
0
  5
1D6B
 10
165.059
 20
45.1808
 30
0.000000
  70
    32
  0
VERTEX
  8
0
  5
1D6C
 10
165.181
 20
45.1931
 30
0.000000
  70
    32
  0
VERTEX
  8
0
  5
1D6D
 10
165.301
 20
45.2059
 30
0.000000
  70
    32
  0
VERTEX
  8
0
  5
1D6E
 10
165.418
 20
45.2194
 30
0.000000
  70
    32
  0
VERTEX
  8
0
  5
1D6F
 10
165.534
 20
45.2334
 30
0.000000
  70
    32
  0
VERTEX
  8
0
  5
1D70
 10
165.647
 20
45.2480
 30
0.000000
  70
    32
  0
VERTEX
  8
0
  5
1D71
 10
165.758
 20
45.2632
 30
0.000000
  70
    32
  0
VERTEX
  8
0
  5
1D72
 10
165.866
 20
45.2789
 30
0.000000
  70
    32
  0
VERTEX
  8
0
  5
1D73
 10
165.972
 20
45.2951
 30
0.000000
  70
    32
  0
VERTEX
  8
0
  5
1D74
 10
166.076
 20
45.3119
 30
0.000000
  70
    32
  0
VERTEX
  8
0
  5
1D75
 10
166.176
 20
45.3291
 30
0.000000
  70
    32
  0
VERTEX
  8
0
  5
1D76
 10
166.274
 20
45.3469
 30
0.000000
  70
    32
  0
VERTEX
  8
0
  5
1D77
 10
166.369
 20
45.3651
 30
0.000000
  70
    32
  0
VERTEX
  8
0
  5
1D78
 10
166.461
 20
45.3838
 30
0.000000
  70
    32
  0
VERTEX
  8
0
  5
1D79
 10
166.550
 20
45.4029
 30
0.000000
  70
    32
  0
VERTEX
  8
0
  5
1D7A
 10
166.636
 20
45.4225
 30
0.000000
  70
    32
  0
VERTEX
  8
0
  5
1D7B
 10
166.718
 20
45.4425
 30
0.000000
  70
    32
  0
VERTEX
  8
0
  5
1D7C
 10
166.798
 20
45.4629
 30
0.000000
  70
    32
  0
VERTEX
  8
0
  5
1D7D
 10
166.874
 20
45.4836
 30
0.000000
  70
    32
  0
VERTEX
  8
0
  5
1D7E
 10
166.947
 20
45.5048
 30
0.000000
  70
    32
  0
VERTEX
  8
0
  5
1D7F
 10
167.017
 20
45.5263
 30
0.000000
  70
    32
  0
VERTEX
  8
0
  5
1D80
 10
167.083
 20
45.5481
 30
0.000000
  70
    32
  0
VERTEX
  8
0
  5
1D81
 10
167.145
 20
45.5702
 30
0.000000
  70
    32
  0
VERTEX
  8
0
  5
1D82
 10
167.204
 20
45.5927
 30
0.000000
  70
    32
  0
VERTEX
  8
0
  5
1D83
 10
167.260
 20
45.6154
 30
0.000000
  70
    32
  0
VERTEX
  8
0
  5
1D84
 10
167.312
 20
45.6384
 30
0.000000
  70
    32
  0
VERTEX
  8
0
  5
1D85
 10
167.360
 20
45.6617
 30
0.000000
  70
    32
  0
VERTEX
  8
0
  5
1D86
 10
167.404
 20
45.6851
 30
0.000000
  70
    32
  0
VERTEX
  8
0
  5
1D87
 10
167.445
 20
45.7088
 30
0.000000
  70
    32
  0
VERTEX
  8
0
  5
1D88
 10
167.482
 20
45.7327
 30
0.000000
  70
    32
  0
VERTEX
  8
0
  5
1D89
 10
167.515
 20
45.7567
 30
0.000000
  70
    32
  0
VERTEX
  8
0
  5
1D8A
 10
167.544
 20
45.7809
 30
0.000000
  70
    32
  0
VERTEX
  8
0
  5
1D8B
 10
167.569
 20
45.8053
 30
0.000000
  70
    32
  0
VERTEX
  8
0
  5
1D8C
 10
167.591
 20
45.8297
 30
0.000000
  70
    32
  0
VERTEX
  8
0
  5
1D8D
 10
167.608
 20
45.8543
 30
0.000000
  70
    32
  0
VERTEX
  8
0
  5
1D8E
 10
167.622
 20
45.8789
 30
0.000000
  70
    32
  0
VERTEX
  8
0
  5
1D8F
 10
167.632
 20
45.9036
 30
0.000000
  70
    32
  0
VERTEX
  8
0
  5
1D90
 10
167.637
 20
45.9283
 30
0.000000
  70
    32
  0
VERTEX
  8
0
  5
1D91
 10
167.639
 20
45.9530
 30
0.000000
  70
    32
  0
VERTEX
  8
0
  5
1D92
 10
167.637
 20
45.9778
 30
0.000000
  70
    32
  0
VERTEX
  8
0
  5
1D93
 10
167.631
 20
46.0025
 30
0.000000
  70
    32
  0
VERTEX
  8
0
  5
1D94
 10
167.621
 20
46.0272
 30
0.000000
  70
    32
  0
VERTEX
  8
0
  5
1D95
 10
167.607
 20
46.0518
 30
0.000000
  70
    32
  0
VERTEX
  8
0
  5
1D96
 10
167.589
 20
46.0763
 30
0.000000
  70
    32
  0
VERTEX
  8
0
  5
1D97
 10
167.568
 20
46.1008
 30
0.000000
  70
    32
  0
VERTEX
  8
0
  5
1D98
 10
167.542
 20
46.1251
 30
0.000000
  70
    32
  0
VERTEX
  8
0
  5
1D99
 10
167.513
 20
46.1493
 30
0.000000
  70
    32
  0
SEQEND
  8
0
  5
1D9A
  0
POLYLINE
  5
159C
  8
0
 10
127.56561798044895
 20
46.14930465343943
 30
0.0
 66
     1
 70
     8
  0
VERTEX
  8
0
  5
1D9B
 10
127.566
 20
46.1493
 30
0.000000
  70
    32
  0
VERTEX
  8
0
  5
1D9C
 10
127.536
 20
46.1251
 30
0.000000
  70
    32
  0
VERTEX
  8
0
  5
1D9D
 10
127.511
 20
46.1008
 30
0.000000
  70
    32
  0
VERTEX
  8
0
  5
1D9E
 10
127.489
 20
46.0763
 30
0.000000
  70
    32
  0
VERTEX
  8
0
  5
1D9F
 10
127.471
 20
46.0518
 30
0.000000
  70
    32
  0
VERTEX
  8
0
  5
1DA0
 10
127.457
 20
46.0272
 30
0.000000
  70
    32
  0
VERTEX
  8
0
  5
1DA1
 10
127.447
 20
46.0025
 30
0.000000
  70
    32
  0
VERTEX
  8
0
  5
1DA2
 10
127.441
 20
45.9778
 30
0.000000
  70
    32
  0
VERTEX
  8
0
  5
1DA3
 10
127.439
 20
45.9530
 30
0.000000
  70
    32
  0
VERTEX
  8
0
  5
1DA4
 10
127.441
 20
45.9283
 30
0.000000
  70
    32
  0
VERTEX
  8
0
  5
1DA5
 10
127.447
 20
45.9036
 30
0.000000
  70
    32
  0
VERTEX
  8
0
  5
1DA6
 10
127.457
 20
45.8789
 30
0.000000
  70
    32
  0
VERTEX
  8
0
  5
1DA7
 10
127.470
 20
45.8543
 30
0.000000
  70
    32
  0
VERTEX
  8
0
  5
1DA8
 10
127.488
 20
45.8297
 30
0.000000
  70
    32
  0
VERTEX
  8
0
  5
1DA9
 10
127.509
 20
45.8053
 30
0.000000
  70
    32
  0
VERTEX
  8
0
  5
1DAA
 10
127.535
 20
45.7809
 30
0.000000
  70
    32
  0
VERTEX
  8
0
  5
1DAB
 10
127.564
 20
45.7567
 30
0.000000
  70
    32
  0
VERTEX
  8
0
  5
1DAC
 10
127.597
 20
45.7327
 30
0.000000
  70
    32
  0
VERTEX
  8
0
  5
1DAD
 10
127.634
 20
45.7088
 30
0.000000
  70
    32
  0
VERTEX
  8
0
  5
1DAE
 10
127.674
 20
45.6851
 30
0.000000
  70
    32
  0
VERTEX
  8
0
  5
1DAF
 10
127.719
 20
45.6617
 30
0.000000
  70
    32
  0
VERTEX
  8
0
  5
1DB0
 10
127.767
 20
45.6384
 30
0.000000
  70
    32
  0
VERTEX
  8
0
  5
1DB1
 10
127.819
 20
45.6154
 30
0.000000
  70
    32
  0
VERTEX
  8
0
  5
1DB2
 10
127.874
 20
45.5927
 30
0.000000
  70
    32
  0
VERTEX
  8
0
  5
1DB3
 10
127.933
 20
45.5702
 30
0.000000
  70
    32
  0
VERTEX
  8
0
  5
1DB4
 10
127.996
 20
45.5481
 30
0.000000
  70
    32
  0
VERTEX
  8
0
  5
1DB5
 10
128.062
 20
45.5263
 30
0.000000
  70
    32
  0
VERTEX
  8
0
  5
1DB6
 10
128.131
 20
45.5048
 30
0.000000
  70
    32
  0
VERTEX
  8
0
  5
1DB7
 10
128.204
 20
45.4836
 30
0.000000
  70
    32
  0
VERTEX
  8
0
  5
1DB8
 10
128.280
 20
45.4629
 30
0.000000
  70
    32
  0
VERTEX
  8
0
  5
1DB9
 10
128.360
 20
45.4425
 30
0.000000
  70
    32
  0
VERTEX
  8
0
  5
1DBA
 10
128.443
 20
45.4225
 30
0.000000
  70
    32
  0
VERTEX
  8
0
  5
1DBB
 10
128.528
 20
45.4029
 30
0.000000
  70
    32
  0
VERTEX
  8
0
  5
1DBC
 10
128.617
 20
45.3838
 30
0.000000
  70
    32
  0
VERTEX
  8
0
  5
1DBD
 10
128.709
 20
45.3651
 30
0.000000
  70
    32
  0
VERTEX
  8
0
  5
1DBE
 10
128.804
 20
45.3469
 30
0.000000
  70
    32
  0
VERTEX
  8
0
  5
1DBF
 10
128.902
 20
45.3291
 30
0.000000
  70
    32
  0
VERTEX
  8
0
  5
1DC0
 10
129.003
 20
45.3119
 30
0.000000
  70
    32
  0
VERTEX
  8
0
  5
1DC1
 10
129.106
 20
45.2951
 30
0.000000
  70
    32
  0
VERTEX
  8
0
  5
1DC2
 10
129.212
 20
45.2789
 30
0.000000
  70
    32
  0
VERTEX
  8
0
  5
1DC3
 10
129.320
 20
45.2632
 30
0.000000
  70
    32
  0
VERTEX
  8
0
  5
1DC4
 10
129.431
 20
45.2480
 30
0.000000
  70
    32
  0
VERTEX
  8
0
  5
1DC5
 10
129.544
 20
45.2334
 30
0.000000
  70
    32
  0
VERTEX
  8
0
  5
1DC6
 10
129.660
 20
45.2194
 30
0.000000
  70
    32
  0
VERTEX
  8
0
  5
1DC7
 10
129.778
 20
45.2059
 30
0.000000
  70
    32
  0
VERTEX
  8
0
  5
1DC8
 10
129.898
 20
45.1931
 30
0.000000
  70
    32
  0
VERTEX
  8
0
  5
1DC9
 10
130.019
 20
45.1808
 30
0.000000
  70
    32
  0
VERTEX
  8
0
  5
1DCA
 10
130.143
 20
45.1691
 30
0.000000
  70
    32
  0
VERTEX
  8
0
  5
1DCB
 10
130.269
 20
45.1581
 30
0.000000
  70
    32
  0
VERTEX
  8
0
  5
1DCC
 10
130.396
 20
45.1476
 30
0.000000
  70
    32
  0
VERTEX
  8
0
  5
1DCD
 10
130.525
 20
45.1378
 30
0.000000
  70
    32
  0
VERTEX
  8
0
  5
1DCE
 10
130.655
 20
45.1287
 30
0.000000
  70
    32
  0
VERTEX
  8
0
  5
1DCF
 10
130.787
 20
45.1202
 30
0.000000
  70
    32
  0
VERTEX
  8
0
  5
1DD0
 10
130.920
 20
45.1123
 30
0.000000
  70
    32
  0
VERTEX
  8
0
  5
1DD1
 10
131.054
 20
45.1051
 30
0.000000
  70
    32
  0
VERTEX
  8
0
  5
1DD2
 10
131.190
 20
45.0986
 30
0.000000
  70
    32
  0
VERTEX
  8
0
  5
1DD3
 10
131.326
 20
45.0928
 30
0.000000
  70
    32
  0
VERTEX
  8
0
  5
1DD4
 10
131.463
 20
45.0876
 30
0.000000
  70
    32
  0
VERTEX
  8
0
  5
1DD5
 10
131.601
 20
45.0831
 30
0.000000
  70
    32
  0
VERTEX
  8
0
  5
1DD6
 10
131.740
 20
45.0793
 30
0.000000
  70
    32
  0
VERTEX
  8
0
  5
1DD7
 10
131.879
 20
45.0762
 30
0.000000
  70
    32
  0
VERTEX
  8
0
  5
1DD8
 10
132.019
 20
45.0738
 30
0.000000
  70
    32
  0
VERTEX
  8
0
  5
1DD9
 10
132.159
 20
45.0720
 30
0.000000
  70
    32
  0
VERTEX
  8
0
  5
1DDA
 10
132.299
 20
45.0710
 30
0.000000
  70
    32
  0
VERTEX
  8
0
  5
1DDB
 10
132.439
 20
45.0707
 30
0.000000
  70
    32
  0
VERTEX
  8
0
  5
1DDC
 10
132.579
 20
45.0710
 30
0.000000
  70
    32
  0
VERTEX
  8
0
  5
1DDD
 10
132.720
 20
45.0720
 30
0.000000
  70
    32
  0
VERTEX
  8
0
  5
1DDE
 10
132.860
 20
45.0738
 30
0.000000
  70
    32
  0
VERTEX
  8
0
  5
1DDF
 10
132.999
 20
45.0762
 30
0.000000
  70
    32
  0
VERTEX
  8
0
  5
1DE0
 10
133.138
 20
45.0793
 30
0.000000
  70
    32
  0
VERTEX
  8
0
  5
1DE1
 10
133.277
 20
45.0831
 30
0.000000
  70
    32
  0
VERTEX
  8
0
  5
1DE2
 10
133.415
 20
45.0876
 30
0.000000
  70
    32
  0
VERTEX
  8
0
  5
1DE3
 10
133.552
 20
45.0928
 30
0.000000
  70
    32
  0
VERTEX
  8
0
  5
1DE4
 10
133.689
 20
45.0986
 30
0.000000
  70
    32
  0
VERTEX
  8
0
  5
1DE5
 10
133.824
 20
45.1051
 30
0.000000
  70
    32
  0
VERTEX
  8
0
  5
1DE6
 10
133.958
 20
45.1123
 30
0.000000
  70
    32
  0
VERTEX
  8
0
  5
1DE7
 10
134.091
 20
45.1202
 30
0.000000
  70
    32
  0
VERTEX
  8
0
  5
1DE8
 10
134.223
 20
45.1287
 30
0.000000
  70
    32
  0
VERTEX
  8
0
  5
1DE9
 10
134.354
 20
45.1378
 30
0.000000
  70
    32
  0
VERTEX
  8
0
  5
1DEA
 10
134.482
 20
45.1476
 30
0.000000
  70
    32
  0
VERTEX
  8
0
  5
1DEB
 10
134.610
 20
45.1581
 30
0.000000
  70
    32
  0
VERTEX
  8
0
  5
1DEC
 10
134.735
 20
45.1691
 30
0.000000
  70
    32
  0
VERTEX
  8
0
  5
1DED
 10
134.859
 20
45.1808
 30
0.000000
  70
    32
  0
VERTEX
  8
0
  5
1DEE
 10
134.981
 20
45.1931
 30
0.000000
  70
    32
  0
VERTEX
  8
0
  5
1DEF
 10
135.101
 20
45.2059
 30
0.000000
  70
    32
  0
VERTEX
  8
0
  5
1DF0
 10
135.218
 20
45.2194
 30
0.000000
  70
    32
  0
VERTEX
  8
0
  5
1DF1
 10
135.334
 20
45.2334
 30
0.000000
  70
    32
  0
VERTEX
  8
0
  5
1DF2
 10
135.447
 20
45.2480
 30
0.000000
  70
    32
  0
VERTEX
  8
0
  5
1DF3
 10
135.558
 20
45.2632
 30
0.000000
  70
    32
  0
VERTEX
  8
0
  5
1DF4
 10
135.666
 20
45.2789
 30
0.000000
  70
    32
  0
VERTEX
  8
0
  5
1DF5
 10
135.772
 20
45.2951
 30
0.000000
  70
    32
  0
VERTEX
  8
0
  5
1DF6
 10
135.876
 20
45.3119
 30
0.000000
  70
    32
  0
VERTEX
  8
0
  5
1DF7
 10
135.976
 20
45.3291
 30
0.000000
  70
    32
  0
VERTEX
  8
0
  5
1DF8
 10
136.074
 20
45.3469
 30
0.000000
  70
    32
  0
VERTEX
  8
0
  5
1DF9
 10
136.169
 20
45.3651
 30
0.000000
  70
    32
  0
VERTEX
  8
0
  5
1DFA
 10
136.261
 20
45.3838
 30
0.000000
  70
    32
  0
VERTEX
  8
0
  5
1DFB
 10
136.350
 20
45.4029
 30
0.000000
  70
    32
  0
VERTEX
  8
0
  5
1DFC
 10
136.436
 20
45.4225
 30
0.000000
  70
    32
  0
VERTEX
  8
0
  5
1DFD
 10
136.518
 20
45.4425
 30
0.000000
  70
    32
  0
VERTEX
  8
0
  5
1DFE
 10
136.598
 20
45.4629
 30
0.000000
  70
    32
  0
VERTEX
  8
0
  5
1DFF
 10
136.674
 20
45.4836
 30
0.000000
  70
    32
  0
VERTEX
  8
0
  5
1E00
 10
136.747
 20
45.5048
 30
0.000000
  70
    32
  0
VERTEX
  8
0
  5
1E01
 10
136.817
 20
45.5263
 30
0.000000
  70
    32
  0
VERTEX
  8
0
  5
1E02
 10
136.883
 20
45.5481
 30
0.000000
  70
    32
  0
VERTEX
  8
0
  5
1E03
 10
136.945
 20
45.5702
 30
0.000000
  70
    32
  0
VERTEX
  8
0
  5
1E04
 10
137.004
 20
45.5927
 30
0.000000
  70
    32
  0
VERTEX
  8
0
  5
1E05
 10
137.060
 20
45.6154
 30
0.000000
  70
    32
  0
VERTEX
  8
0
  5
1E06
 10
137.112
 20
45.6384
 30
0.000000
  70
    32
  0
VERTEX
  8
0
  5
1E07
 10
137.160
 20
45.6617
 30
0.000000
  70
    32
  0
VERTEX
  8
0
  5
1E08
 10
137.204
 20
45.6851
 30
0.000000
  70
    32
  0
VERTEX
  8
0
  5
1E09
 10
137.245
 20
45.7088
 30
0.000000
  70
    32
  0
VERTEX
  8
0
  5
1E0A
 10
137.282
 20
45.7327
 30
0.000000
  70
    32
  0
VERTEX
  8
0
  5
1E0B
 10
137.315
 20
45.7567
 30
0.000000
  70
    32
  0
VERTEX
  8
0
  5
1E0C
 10
137.344
 20
45.7809
 30
0.000000
  70
    32
  0
VERTEX
  8
0
  5
1E0D
 10
137.369
 20
45.8053
 30
0.000000
  70
    32
  0
VERTEX
  8
0
  5
1E0E
 10
137.391
 20
45.8297
 30
0.000000
  70
    32
  0
VERTEX
  8
0
  5
1E0F
 10
137.408
 20
45.8543
 30
0.000000
  70
    32
  0
VERTEX
  8
0
  5
1E10
 10
137.422
 20
45.8789
 30
0.000000
  70
    32
  0
VERTEX
  8
0
  5
1E11
 10
137.432
 20
45.9036
 30
0.000000
  70
    32
  0
VERTEX
  8
0
  5
1E12
 10
137.437
 20
45.9283
 30
0.000000
  70
    32
  0
VERTEX
  8
0
  5
1E13
 10
137.439
 20
45.9530
 30
0.000000
  70
    32
  0
VERTEX
  8
0
  5
1E14
 10
137.437
 20
45.9778
 30
0.000000
  70
    32
  0
VERTEX
  8
0
  5
1E15
 10
137.431
 20
46.0025
 30
0.000000
  70
    32
  0
VERTEX
  8
0
  5
1E16
 10
137.421
 20
46.0272
 30
0.000000
  70
    32
  0
VERTEX
  8
0
  5
1E17
 10
137.407
 20
46.0518
 30
0.000000
  70
    32
  0
VERTEX
  8
0
  5
1E18
 10
137.389
 20
46.0763
 30
0.000000
  70
    32
  0
VERTEX
  8
0
  5
1E19
 10
137.368
 20
46.1008
 30
0.000000
  70
    32
  0
VERTEX
  8
0
  5
1E1A
 10
137.342
 20
46.1251
 30
0.000000
  70
    32
  0
VERTEX
  8
0
  5
1E1B
 10
137.313
 20
46.1493
 30
0.000000
  70
    32
  0
SEQEND
  8
0
  5
1E1C
  0
POLYLINE
  5
15A0
  8
0
 66
     1
 10
0.0
 20
0.0
 30
0.0
 70
   128
  0
VERTEX
  5
1D0D
  8
0
 10
137.3127240993438
 20
46.14930465343943
 30
0.0
  0
VERTEX
  5
1D0E
  8
0
 10
137.09538245318879
 20
46.351511555131871
 30
0.0
  0
VERTEX
  5
1D0F
  8
0
 10
136.78831935629961
 20
46.694500285039418
 30
0.0
  0
SEQEND
  5
1D10
  8
0
  0
ARC
  5
15A1
  8
0
 10
124.8826155402007
 20
49.254792688840951
 30
0.0
 40
4.1039685710784868
 50
310.82554475740801
 51
321.40160511845841
  0
POLYLINE
  5
15A2
  8
0
 10
136.78831935629958
 20
46.694500285039425
 30
0.0
 66
     1
 70
     8
  0
VERTEX
  8
0
  5
1E1D
 10
136.788
 20
46.6945
 30
0.000000
  70
    32
  0
VERTEX
  8
0
  5
1E1E
 10
136.747
 20
46.7426
 30
0.000000
  70
    32
  0
VERTEX
  8
0
  5
1E1F
 10
136.705
 20
46.7903
 30
0.000000
  70
    32
  0
VERTEX
  8
0
  5
1E20
 10
136.661
 20
46.8375
 30
0.000000
  70
    32
  0
VERTEX
  8
0
  5
1E21
 10
136.616
 20
46.8841
 30
0.000000
  70
    32
  0
VERTEX
  8
0
  5
1E22
 10
136.571
 20
46.9303
 30
0.000000
  70
    32
  0
VERTEX
  8
0
  5
1E23
 10
136.524
 20
46.9760
 30
0.000000
  70
    32
  0
VERTEX
  8
0
  5
1E24
 10
136.475
 20
47.0211
 30
0.000000
  70
    32
  0
VERTEX
  8
0
  5
1E25
 10
136.426
 20
47.0657
 30
0.000000
  70
    32
  0
VERTEX
  8
0
  5
1E26
 10
136.376
 20
47.1098
 30
0.000000
  70
    32
  0
VERTEX
  8
0
  5
1E27
 10
136.325
 20
47.1533
 30
0.000000
  70
    32
  0
VERTEX
  8
0
  5
1E28
 10
136.272
 20
47.1962
 30
0.000000
  70
    32
  0
VERTEX
  8
0
  5
1E29
 10
136.219
 20
47.2385
 30
0.000000
  70
    32
  0
VERTEX
  8
0
  5
1E2A
 10
136.164
 20
47.2802
 30
0.000000
  70
    32
  0
VERTEX
  8
0
  5
1E2B
 10
136.109
 20
47.3213
 30
0.000000
  70
    32
  0
VERTEX
  8
0
  5
1E2C
 10
136.052
 20
47.3618
 30
0.000000
  70
    32
  0
VERTEX
  8
0
  5
1E2D
 10
135.995
 20
47.4017
 30
0.000000
  70
    32
  0
VERTEX
  8
0
  5
1E2E
 10
135.937
 20
47.4409
 30
0.000000
  70
    32
  0
VERTEX
  8
0
  5
1E2F
 10
135.877
 20
47.4794
 30
0.000000
  70
    32
  0
VERTEX
  8
0
  5
1E30
 10
135.817
 20
47.5173
 30
0.000000
  70
    32
  0
VERTEX
  8
0
  5
1E31
 10
135.756
 20
47.5545
 30
0.000000
  70
    32
  0
VERTEX
  8
0
  5
1E32
 10
135.694
 20
47.5910
 30
0.000000
  70
    32
  0
VERTEX
  8
0
  5
1E33
 10
135.631
 20
47.6269
 30
0.000000
  70
    32
  0
VERTEX
  8
0
  5
1E34
 10
135.567
 20
47.6620
 30
0.000000
  70
    32
  0
VERTEX
  8
0
  5
1E35
 10
135.502
 20
47.6964
 30
0.000000
  70
    32
  0
VERTEX
  8
0
  5
1E36
 10
135.436
 20
47.7301
 30
0.000000
  70
    32
  0
VERTEX
  8
0
  5
1E37
 10
135.370
 20
47.7630
 30
0.000000
  70
    32
  0
VERTEX
  8
0
  5
1E38
 10
135.303
 20
47.7953
 30
0.000000
  70
    32
  0
VERTEX
  8
0
  5
1E39
 10
135.235
 20
47.8267
 30
0.000000
  70
    32
  0
VERTEX
  8
0
  5
1E3A
 10
135.166
 20
47.8574
 30
0.000000
  70
    32
  0
VERTEX
  8
0
  5
1E3B
 10
135.097
 20
47.8873
 30
0.000000
  70
    32
  0
VERTEX
  8
0
  5
1E3C
 10
135.027
 20
47.9165
 30
0.000000
  70
    32
  0
VERTEX
  8
0
  5
1E3D
 10
134.956
 20
47.9449
 30
0.000000
  70
    32
  0
VERTEX
  8
0
  5
1E3E
 10
134.884
 20
47.9725
 30
0.000000
  70
    32
  0
VERTEX
  8
0
  5
1E3F
 10
134.812
 20
47.9992
 30
0.000000
  70
    32
  0
VERTEX
  8
0
  5
1E40
 10
134.739
 20
48.0252
 30
0.000000
  70
    32
  0
VERTEX
  8
0
  5
1E41
 10
134.666
 20
48.0504
 30
0.000000
  70
    32
  0
VERTEX
  8
0
  5
1E42
 10
134.592
 20
48.0747
 30
0.000000
  70
    32
  0
VERTEX
  8
0
  5
1E43
 10
134.517
 20
48.0982
 30
0.000000
  70
    32
  0
VERTEX
  8
0
  5
1E44
 10
134.442
 20
48.1209
 30
0.000000
  70
    32
  0
VERTEX
  8
0
  5
1E45
 10
134.366
 20
48.1428
 30
0.000000
  70
    32
  0
VERTEX
  8
0
  5
1E46
 10
134.290
 20
48.1637
 30
0.000000
  70
    32
  0
VERTEX
  8
0
  5
1E47
 10
134.213
 20
48.1839
 30
0.000000
  70
    32
  0
VERTEX
  8
0
  5
1E48
 10
134.135
 20
48.2032
 30
0.000000
  70
    32
  0
VERTEX
  8
0
  5
1E49
 10
134.058
 20
48.2216
 30
0.000000
  70
    32
  0
VERTEX
  8
0
  5
1E4A
 10
133.980
 20
48.2392
 30
0.000000
  70
    32
  0
VERTEX
  8
0
  5
1E4B
 10
133.901
 20
48.2559
 30
0.000000
  70
    32
  0
VERTEX
  8
0
  5
1E4C
 10
133.822
 20
48.2717
 30
0.000000
  70
    32
  0
VERTEX
  8
0
  5
1E4D
 10
133.743
 20
48.2866
 30
0.000000
  70
    32
  0
VERTEX
  8
0
  5
1E4E
 10
133.663
 20
48.3006
 30
0.000000
  70
    32
  0
VERTEX
  8
0
  5
1E4F
 10
133.583
 20
48.3138
 30
0.000000
  70
    32
  0
VERTEX
  8
0
  5
1E50
 10
133.502
 20
48.3261
 30
0.000000
  70
    32
  0
VERTEX
  8
0
  5
1E51
 10
133.422
 20
48.3374
 30
0.000000
  70
    32
  0
VERTEX
  8
0
  5
1E52
 10
133.341
 20
48.3479
 30
0.000000
  70
    32
  0
VERTEX
  8
0
  5
1E53
 10
133.260
 20
48.3575
 30
0.000000
  70
    32
  0
VERTEX
  8
0
  5
1E54
 10
133.178
 20
48.3662
 30
0.000000
  70
    32
  0
VERTEX
  8
0
  5
1E55
 10
133.097
 20
48.3739
 30
0.000000
  70
    32
  0
VERTEX
  8
0
  5
1E56
 10
133.015
 20
48.3808
 30
0.000000
  70
    32
  0
VERTEX
  8
0
  5
1E57
 10
132.933
 20
48.3867
 30
0.000000
  70
    32
  0
VERTEX
  8
0
  5
1E58
 10
132.851
 20
48.3917
 30
0.000000
  70
    32
  0
VERTEX
  8
0
  5
1E59
 10
132.769
 20
48.3959
 30
0.000000
  70
    32
  0
VERTEX
  8
0
  5
1E5A
 10
132.686
 20
48.3991
 30
0.000000
  70
    32
  0
VERTEX
  8
0
  5
1E5B
 10
132.604
 20
48.4014
 30
0.000000
  70
    32
  0
VERTEX
  8
0
  5
1E5C
 10
132.522
 20
48.4027
 30
0.000000
  70
    32
  0
VERTEX
  8
0
  5
1E5D
 10
132.439
 20
48.4032
 30
0.000000
  70
    32
  0
VERTEX
  8
0
  5
1E5E
 10
132.357
 20
48.4027
 30
0.000000
  70
    32
  0
VERTEX
  8
0
  5
1E5F
 10
132.274
 20
48.4014
 30
0.000000
  70
    32
  0
VERTEX
  8
0
  5
1E60
 10
132.192
 20
48.3991
 30
0.000000
  70
    32
  0
VERTEX
  8
0
  5
1E61
 10
132.110
 20
48.3959
 30
0.000000
  70
    32
  0
VERTEX
  8
0
  5
1E62
 10
132.028
 20
48.3917
 30
0.000000
  70
    32
  0
VERTEX
  8
0
  5
1E63
 10
131.946
 20
48.3867
 30
0.000000
  70
    32
  0
VERTEX
  8
0
  5
1E64
 10
131.864
 20
48.3808
 30
0.000000
  70
    32
  0
VERTEX
  8
0
  5
1E65
 10
131.782
 20
48.3739
 30
0.000000
  70
    32
  0
VERTEX
  8
0
  5
1E66
 10
131.700
 20
48.3662
 30
0.000000
  70
    32
  0
VERTEX
  8
0
  5
1E67
 10
131.619
 20
48.3575
 30
0.000000
  70
    32
  0
VERTEX
  8
0
  5
1E68
 10
131.538
 20
48.3479
 30
0.000000
  70
    32
  0
VERTEX
  8
0
  5
1E69
 10
131.457
 20
48.3374
 30
0.000000
  70
    32
  0
VERTEX
  8
0
  5
1E6A
 10
131.376
 20
48.3261
 30
0.000000
  70
    32
  0
VERTEX
  8
0
  5
1E6B
 10
131.296
 20
48.3138
 30
0.000000
  70
    32
  0
VERTEX
  8
0
  5
1E6C
 10
131.216
 20
48.3006
 30
0.000000
  70
    32
  0
VERTEX
  8
0
  5
1E6D
 10
131.136
 20
48.2866
 30
0.000000
  70
    32
  0
VERTEX
  8
0
  5
1E6E
 10
131.056
 20
48.2717
 30
0.000000
  70
    32
  0
VERTEX
  8
0
  5
1E6F
 10
130.977
 20
48.2559
 30
0.000000
  70
    32
  0
VERTEX
  8
0
  5
1E70
 10
130.899
 20
48.2392
 30
0.000000
  70
    32
  0
VERTEX
  8
0
  5
1E71
 10
130.821
 20
48.2216
 30
0.000000
  70
    32
  0
VERTEX
  8
0
  5
1E72
 10
130.743
 20
48.2032
 30
0.000000
  70
    32
  0
VERTEX
  8
0
  5
1E73
 10
130.666
 20
48.1839
 30
0.000000
  70
    32
  0
VERTEX
  8
0
  5
1E74
 10
130.589
 20
48.1637
 30
0.000000
  70
    32
  0
VERTEX
  8
0
  5
1E75
 10
130.512
 20
48.1428
 30
0.000000
  70
    32
  0
VERTEX
  8
0
  5
1E76
 10
130.437
 20
48.1209
 30
0.000000
  70
    32
  0
VERTEX
  8
0
  5
1E77
 10
130.361
 20
48.0982
 30
0.000000
  70
    32
  0
VERTEX
  8
0
  5
1E78
 10
130.287
 20
48.0747
 30
0.000000
  70
    32
  0
VERTEX
  8
0
  5
1E79
 10
130.213
 20
48.0504
 30
0.000000
  70
    32
  0
VERTEX
  8
0
  5
1E7A
 10
130.139
 20
48.0252
 30
0.000000
  70
    32
  0
VERTEX
  8
0
  5
1E7B
 10
130.066
 20
47.9992
 30
0.000000
  70
    32
  0
VERTEX
  8
0
  5
1E7C
 10
129.994
 20
47.9725
 30
0.000000
  70
    32
  0
VERTEX
  8
0
  5
1E7D
 10
129.923
 20
47.9449
 30
0.000000
  70
    32
  0
VERTEX
  8
0
  5
1E7E
 10
129.852
 20
47.9165
 30
0.000000
  70
    32
  0
VERTEX
  8
0
  5
1E7F
 10
129.782
 20
47.8873
 30
0.000000
  70
    32
  0
VERTEX
  8
0
  5
1E80
 10
129.712
 20
47.8574
 30
0.000000
  70
    32
  0
VERTEX
  8
0
  5
1E81
 10
129.643
 20
47.8267
 30
0.000000
  70
    32
  0
VERTEX
  8
0
  5
1E82
 10
129.575
 20
47.7953
 30
0.000000
  70
    32
  0
VERTEX
  8
0
  5
1E83
 10
129.508
 20
47.7630
 30
0.000000
  70
    32
  0
VERTEX
  8
0
  5
1E84
 10
129.442
 20
47.7301
 30
0.000000
  70
    32
  0
VERTEX
  8
0
  5
1E85
 10
129.376
 20
47.6964
 30
0.000000
  70
    32
  0
VERTEX
  8
0
  5
1E86
 10
129.312
 20
47.6620
 30
0.000000
  70
    32
  0
VERTEX
  8
0
  5
1E87
 10
129.248
 20
47.6269
 30
0.000000
  70
    32
  0
VERTEX
  8
0
  5
1E88
 10
129.185
 20
47.5910
 30
0.000000
  70
    32
  0
VERTEX
  8
0
  5
1E89
 10
129.123
 20
47.5545
 30
0.000000
  70
    32
  0
VERTEX
  8
0
  5
1E8A
 10
129.061
 20
47.5173
 30
0.000000
  70
    32
  0
VERTEX
  8
0
  5
1E8B
 10
129.001
 20
47.4794
 30
0.000000
  70
    32
  0
VERTEX
  8
0
  5
1E8C
 10
128.942
 20
47.4409
 30
0.000000
  70
    32
  0
VERTEX
  8
0
  5
1E8D
 10
128.883
 20
47.4017
 30
0.000000
  70
    32
  0
VERTEX
  8
0
  5
1E8E
 10
128.826
 20
47.3618
 30
0.000000
  70
    32
  0
VERTEX
  8
0
  5
1E8F
 10
128.769
 20
47.3213
 30
0.000000
  70
    32
  0
VERTEX
  8
0
  5
1E90
 10
128.714
 20
47.2802
 30
0.000000
  70
    32
  0
VERTEX
  8
0
  5
1E91
 10
128.660
 20
47.2385
 30
0.000000
  70
    32
  0
VERTEX
  8
0
  5
1E92
 10
128.606
 20
47.1962
 30
0.000000
  70
    32
  0
VERTEX
  8
0
  5
1E93
 10
128.554
 20
47.1533
 30
0.000000
  70
    32
  0
VERTEX
  8
0
  5
1E94
 10
128.502
 20
47.1098
 30
0.000000
  70
    32
  0
VERTEX
  8
0
  5
1E95
 10
128.452
 20
47.0657
 30
0.000000
  70
    32
  0
VERTEX
  8
0
  5
1E96
 10
128.403
 20
47.0211
 30
0.000000
  70
    32
  0
VERTEX
  8
0
  5
1E97
 10
128.355
 20
46.9760
 30
0.000000
  70
    32
  0
VERTEX
  8
0
  5
1E98
 10
128.308
 20
46.9303
 30
0.000000
  70
    32
  0
VERTEX
  8
0
  5
1E99
 10
128.262
 20
46.8841
 30
0.000000
  70
    32
  0
VERTEX
  8
0
  5
1E9A
 10
128.217
 20
46.8375
 30
0.000000
  70
    32
  0
VERTEX
  8
0
  5
1E9B
 10
128.174
 20
46.7903
 30
0.000000
  70
    32
  0
VERTEX
  8
0
  5
1E9C
 10
128.131
 20
46.7426
 30
0.000000
  70
    32
  0
VERTEX
  8
0
  5
1E9D
 10
128.090
 20
46.6945
 30
0.000000
  70
    32
  0
SEQEND
  8
0
  5
1E9E
  0
POLYLINE
  5
15A3
  8
0
 66
     1
 10
0.0
 20
0.0
 30
0.0
 70
   128
  0
VERTEX
  5
1D11
  8
0
 10
167.5127240993439
 20
46.14930465343943
 30
0.0
  0
VERTEX
  5
1D12
  8
0
 10
167.29538245318881
 20
46.351511555131871
 30
0.0
  0
VERTEX
  5
1D13
  8
0
 10
166.9883193562996
 20
46.694500285039418
 30
0.0
  0
SEQEND
  5
1D14
  8
0
  0
ARC
  5
15A4
  8
0
 10
155.08261554020439
 20
49.254792688837661
 30
0.0
 40
4.1039685710735707
 50
310.82554475739761
 51
321.40160511846358
  0
POLYLINE
  5
15A5
  8
0
 10
166.9883193562996
 20
46.694500285039425
 30
0.0
 66
     1
 70
     8
  0
VERTEX
  8
0
  5
1E9F
 10
166.988
 20
46.6945
 30
0.000000
  70
    32
  0
VERTEX
  8
0
  5
1EA0
 10
166.947
 20
46.7426
 30
0.000000
  70
    32
  0
VERTEX
  8
0
  5
1EA1
 10
166.905
 20
46.7903
 30
0.000000
  70
    32
  0
VERTEX
  8
0
  5
1EA2
 10
166.861
 20
46.8375
 30
0.000000
  70
    32
  0
VERTEX
  8
0
  5
1EA3
 10
166.816
 20
46.8841
 30
0.000000
  70
    32
  0
VERTEX
  8
0
  5
1EA4
 10
166.771
 20
46.9303
 30
0.000000
  70
    32
  0
VERTEX
  8
0
  5
1EA5
 10
166.724
 20
46.9760
 30
0.000000
  70
    32
  0
VERTEX
  8
0
  5
1EA6
 10
166.675
 20
47.0211
 30
0.000000
  70
    32
  0
VERTEX
  8
0
  5
1EA7
 10
166.626
 20
47.0657
 30
0.000000
  70
    32
  0
VERTEX
  8
0
  5
1EA8
 10
166.576
 20
47.1098
 30
0.000000
  70
    32
  0
VERTEX
  8
0
  5
1EA9
 10
166.525
 20
47.1533
 30
0.000000
  70
    32
  0
VERTEX
  8
0
  5
1EAA
 10
166.472
 20
47.1962
 30
0.000000
  70
    32
  0
VERTEX
  8
0
  5
1EAB
 10
166.419
 20
47.2385
 30
0.000000
  70
    32
  0
VERTEX
  8
0
  5
1EAC
 10
166.364
 20
47.2802
 30
0.000000
  70
    32
  0
VERTEX
  8
0
  5
1EAD
 10
166.309
 20
47.3213
 30
0.000000
  70
    32
  0
VERTEX
  8
0
  5
1EAE
 10
166.252
 20
47.3618
 30
0.000000
  70
    32
  0
VERTEX
  8
0
  5
1EAF
 10
166.195
 20
47.4017
 30
0.000000
  70
    32
  0
VERTEX
  8
0
  5
1EB0
 10
166.137
 20
47.4409
 30
0.000000
  70
    32
  0
VERTEX
  8
0
  5
1EB1
 10
166.077
 20
47.4794
 30
0.000000
  70
    32
  0
VERTEX
  8
0
  5
1EB2
 10
166.017
 20
47.5173
 30
0.000000
  70
    32
  0
VERTEX
  8
0
  5
1EB3
 10
165.956
 20
47.5545
 30
0.000000
  70
    32
  0
VERTEX
  8
0
  5
1EB4
 10
165.894
 20
47.5910
 30
0.000000
  70
    32
  0
VERTEX
  8
0
  5
1EB5
 10
165.831
 20
47.6269
 30
0.000000
  70
    32
  0
VERTEX
  8
0
  5
1EB6
 10
165.767
 20
47.6620
 30
0.000000
  70
    32
  0
VERTEX
  8
0
  5
1EB7
 10
165.702
 20
47.6964
 30
0.000000
  70
    32
  0
VERTEX
  8
0
  5
1EB8
 10
165.636
 20
47.7301
 30
0.000000
  70
    32
  0
VERTEX
  8
0
  5
1EB9
 10
165.570
 20
47.7630
 30
0.000000
  70
    32
  0
VERTEX
  8
0
  5
1EBA
 10
165.503
 20
47.7953
 30
0.000000
  70
    32
  0
VERTEX
  8
0
  5
1EBB
 10
165.435
 20
47.8267
 30
0.000000
  70
    32
  0
VERTEX
  8
0
  5
1EBC
 10
165.366
 20
47.8574
 30
0.000000
  70
    32
  0
VERTEX
  8
0
  5
1EBD
 10
165.297
 20
47.8873
 30
0.000000
  70
    32
  0
VERTEX
  8
0
  5
1EBE
 10
165.227
 20
47.9165
 30
0.000000
  70
    32
  0
VERTEX
  8
0
  5
1EBF
 10
165.156
 20
47.9449
 30
0.000000
  70
    32
  0
VERTEX
  8
0
  5
1EC0
 10
165.084
 20
47.9725
 30
0.000000
  70
    32
  0
VERTEX
  8
0
  5
1EC1
 10
165.012
 20
47.9992
 30
0.000000
  70
    32
  0
VERTEX
  8
0
  5
1EC2
 10
164.939
 20
48.0252
 30
0.000000
  70
    32
  0
VERTEX
  8
0
  5
1EC3
 10
164.866
 20
48.0504
 30
0.000000
  70
    32
  0
VERTEX
  8
0
  5
1EC4
 10
164.792
 20
48.0747
 30
0.000000
  70
    32
  0
VERTEX
  8
0
  5
1EC5
 10
164.717
 20
48.0982
 30
0.000000
  70
    32
  0
VERTEX
  8
0
  5
1EC6
 10
164.642
 20
48.1209
 30
0.000000
  70
    32
  0
VERTEX
  8
0
  5
1EC7
 10
164.566
 20
48.1428
 30
0.000000
  70
    32
  0
VERTEX
  8
0
  5
1EC8
 10
164.490
 20
48.1637
 30
0.000000
  70
    32
  0
VERTEX
  8
0
  5
1EC9
 10
164.413
 20
48.1839
 30
0.000000
  70
    32
  0
VERTEX
  8
0
  5
1ECA
 10
164.335
 20
48.2032
 30
0.000000
  70
    32
  0
VERTEX
  8
0
  5
1ECB
 10
164.258
 20
48.2216
 30
0.000000
  70
    32
  0
VERTEX
  8
0
  5
1ECC
 10
164.180
 20
48.2392
 30
0.000000
  70
    32
  0
VERTEX
  8
0
  5
1ECD
 10
164.101
 20
48.2559
 30
0.000000
  70
    32
  0
VERTEX
  8
0
  5
1ECE
 10
164.022
 20
48.2717
 30
0.000000
  70
    32
  0
VERTEX
  8
0
  5
1ECF
 10
163.943
 20
48.2866
 30
0.000000
  70
    32
  0
VERTEX
  8
0
  5
1ED0
 10
163.863
 20
48.3006
 30
0.000000
  70
    32
  0
VERTEX
  8
0
  5
1ED1
 10
163.783
 20
48.3138
 30
0.000000
  70
    32
  0
VERTEX
  8
0
  5
1ED2
 10
163.702
 20
48.3261
 30
0.000000
  70
    32
  0
VERTEX
  8
0
  5
1ED3
 10
163.622
 20
48.3374
 30
0.000000
  70
    32
  0
VERTEX
  8
0
  5
1ED4
 10
163.541
 20
48.3479
 30
0.000000
  70
    32
  0
VERTEX
  8
0
  5
1ED5
 10
163.460
 20
48.3575
 30
0.000000
  70
    32
  0
VERTEX
  8
0
  5
1ED6
 10
163.378
 20
48.3662
 30
0.000000
  70
    32
  0
VERTEX
  8
0
  5
1ED7
 10
163.297
 20
48.3739
 30
0.000000
  70
    32
  0
VERTEX
  8
0
  5
1ED8
 10
163.215
 20
48.3808
 30
0.000000
  70
    32
  0
VERTEX
  8
0
  5
1ED9
 10
163.133
 20
48.3867
 30
0.000000
  70
    32
  0
VERTEX
  8
0
  5
1EDA
 10
163.051
 20
48.3917
 30
0.000000
  70
    32
  0
VERTEX
  8
0
  5
1EDB
 10
162.969
 20
48.3959
 30
0.000000
  70
    32
  0
VERTEX
  8
0
  5
1EDC
 10
162.886
 20
48.3991
 30
0.000000
  70
    32
  0
VERTEX
  8
0
  5
1EDD
 10
162.804
 20
48.4014
 30
0.000000
  70
    32
  0
VERTEX
  8
0
  5
1EDE
 10
162.722
 20
48.4027
 30
0.000000
  70
    32
  0
VERTEX
  8
0
  5
1EDF
 10
162.639
 20
48.4032
 30
0.000000
  70
    32
  0
VERTEX
  8
0
  5
1EE0
 10
162.557
 20
48.4027
 30
0.000000
  70
    32
  0
VERTEX
  8
0
  5
1EE1
 10
162.474
 20
48.4014
 30
0.000000
  70
    32
  0
VERTEX
  8
0
  5
1EE2
 10
162.392
 20
48.3991
 30
0.000000
  70
    32
  0
VERTEX
  8
0
  5
1EE3
 10
162.310
 20
48.3959
 30
0.000000
  70
    32
  0
VERTEX
  8
0
  5
1EE4
 10
162.228
 20
48.3917
 30
0.000000
  70
    32
  0
VERTEX
  8
0
  5
1EE5
 10
162.146
 20
48.3867
 30
0.000000
  70
    32
  0
VERTEX
  8
0
  5
1EE6
 10
162.064
 20
48.3808
 30
0.000000
  70
    32
  0
VERTEX
  8
0
  5
1EE7
 10
161.982
 20
48.3739
 30
0.000000
  70
    32
  0
VERTEX
  8
0
  5
1EE8
 10
161.900
 20
48.3662
 30
0.000000
  70
    32
  0
VERTEX
  8
0
  5
1EE9
 10
161.819
 20
48.3575
 30
0.000000
  70
    32
  0
VERTEX
  8
0
  5
1EEA
 10
161.738
 20
48.3479
 30
0.000000
  70
    32
  0
VERTEX
  8
0
  5
1EEB
 10
161.657
 20
48.3374
 30
0.000000
  70
    32
  0
VERTEX
  8
0
  5
1EEC
 10
161.576
 20
48.3261
 30
0.000000
  70
    32
  0
VERTEX
  8
0
  5
1EED
 10
161.496
 20
48.3138
 30
0.000000
  70
    32
  0
VERTEX
  8
0
  5
1EEE
 10
161.416
 20
48.3006
 30
0.000000
  70
    32
  0
VERTEX
  8
0
  5
1EEF
 10
161.336
 20
48.2866
 30
0.000000
  70
    32
  0
VERTEX
  8
0
  5
1EF0
 10
161.256
 20
48.2717
 30
0.000000
  70
    32
  0
VERTEX
  8
0
  5
1EF1
 10
161.177
 20
48.2559
 30
0.000000
  70
    32
  0
VERTEX
  8
0
  5
1EF2
 10
161.099
 20
48.2392
 30
0.000000
  70
    32
  0
VERTEX
  8
0
  5
1EF3
 10
161.021
 20
48.2216
 30
0.000000
  70
    32
  0
VERTEX
  8
0
  5
1EF4
 10
160.943
 20
48.2032
 30
0.000000
  70
    32
  0
VERTEX
  8
0
  5
1EF5
 10
160.866
 20
48.1839
 30
0.000000
  70
    32
  0
VERTEX
  8
0
  5
1EF6
 10
160.789
 20
48.1637
 30
0.000000
  70
    32
  0
VERTEX
  8
0
  5
1EF7
 10
160.712
 20
48.1428
 30
0.000000
  70
    32
  0
VERTEX
  8
0
  5
1EF8
 10
160.637
 20
48.1209
 30
0.000000
  70
    32
  0
VERTEX
  8
0
  5
1EF9
 10
160.561
 20
48.0982
 30
0.000000
  70
    32
  0
VERTEX
  8
0
  5
1EFA
 10
160.487
 20
48.0747
 30
0.000000
  70
    32
  0
VERTEX
  8
0
  5
1EFB
 10
160.413
 20
48.0504
 30
0.000000
  70
    32
  0
VERTEX
  8
0
  5
1EFC
 10
160.339
 20
48.0252
 30
0.000000
  70
    32
  0
VERTEX
  8
0
  5
1EFD
 10
160.266
 20
47.9992
 30
0.000000
  70
    32
  0
VERTEX
  8
0
  5
1EFE
 10
160.194
 20
47.9725
 30
0.000000
  70
    32
  0
VERTEX
  8
0
  5
1EFF
 10
160.123
 20
47.9449
 30
0.000000
  70
    32
  0
VERTEX
  8
0
  5
1F00
 10
160.052
 20
47.9165
 30
0.000000
  70
    32
  0
VERTEX
  8
0
  5
1F01
 10
159.982
 20
47.8873
 30
0.000000
  70
    32
  0
VERTEX
  8
0
  5
1F02
 10
159.912
 20
47.8574
 30
0.000000
  70
    32
  0
VERTEX
  8
0
  5
1F03
 10
159.843
 20
47.8267
 30
0.000000
  70
    32
  0
VERTEX
  8
0
  5
1F04
 10
159.775
 20
47.7953
 30
0.000000
  70
    32
  0
VERTEX
  8
0
  5
1F05
 10
159.708
 20
47.7630
 30
0.000000
  70
    32
  0
VERTEX
  8
0
  5
1F06
 10
159.642
 20
47.7301
 30
0.000000
  70
    32
  0
VERTEX
  8
0
  5
1F07
 10
159.576
 20
47.6964
 30
0.000000
  70
    32
  0
VERTEX
  8
0
  5
1F08
 10
159.512
 20
47.6620
 30
0.000000
  70
    32
  0
VERTEX
  8
0
  5
1F09
 10
159.448
 20
47.6269
 30
0.000000
  70
    32
  0
VERTEX
  8
0
  5
1F0A
 10
159.385
 20
47.5910
 30
0.000000
  70
    32
  0
VERTEX
  8
0
  5
1F0B
 10
159.323
 20
47.5545
 30
0.000000
  70
    32
  0
VERTEX
  8
0
  5
1F0C
 10
159.261
 20
47.5173
 30
0.000000
  70
    32
  0
VERTEX
  8
0
  5
1F0D
 10
159.201
 20
47.4794
 30
0.000000
  70
    32
  0
VERTEX
  8
0
  5
1F0E
 10
159.142
 20
47.4409
 30
0.000000
  70
    32
  0
VERTEX
  8
0
  5
1F0F
 10
159.083
 20
47.4017
 30
0.000000
  70
    32
  0
VERTEX
  8
0
  5
1F10
 10
159.026
 20
47.3618
 30
0.000000
  70
    32
  0
VERTEX
  8
0
  5
1F11
 10
158.969
 20
47.3213
 30
0.000000
  70
    32
  0
VERTEX
  8
0
  5
1F12
 10
158.914
 20
47.2802
 30
0.000000
  70
    32
  0
VERTEX
  8
0
  5
1F13
 10
158.860
 20
47.2385
 30
0.000000
  70
    32
  0
VERTEX
  8
0
  5
1F14
 10
158.806
 20
47.1962
 30
0.000000
  70
    32
  0
VERTEX
  8
0
  5
1F15
 10
158.754
 20
47.1533
 30
0.000000
  70
    32
  0
VERTEX
  8
0
  5
1F16
 10
158.702
 20
47.1098
 30
0.000000
  70
    32
  0
VERTEX
  8
0
  5
1F17
 10
158.652
 20
47.0657
 30
0.000000
  70
    32
  0
VERTEX
  8
0
  5
1F18
 10
158.603
 20
47.0211
 30
0.000000
  70
    32
  0
VERTEX
  8
0
  5
1F19
 10
158.555
 20
46.9760
 30
0.000000
  70
    32
  0
VERTEX
  8
0
  5
1F1A
 10
158.508
 20
46.9303
 30
0.000000
  70
    32
  0
VERTEX
  8
0
  5
1F1B
 10
158.462
 20
46.8841
 30
0.000000
  70
    32
  0
VERTEX
  8
0
  5
1F1C
 10
158.417
 20
46.8375
 30
0.000000
  70
    32
  0
VERTEX
  8
0
  5
1F1D
 10
158.374
 20
46.7903
 30
0.000000
  70
    32
  0
VERTEX
  8
0
  5
1F1E
 10
158.331
 20
46.7426
 30
0.000000
  70
    32
  0
VERTEX
  8
0
  5
1F1F
 10
158.290
 20
46.6945
 30
0.000000
  70
    32
  0
SEQEND
  8
0
  5
1F20
  0
LINE
  5
15AE
  8
0
 10
165.53917103989639
 20
49.227780804833372
 30
0.0
 11
165.53917103989639
 21
49.125824748096477
 31
0.0
  0
LINE
  5
15AF
  8
0
 10
122.7891710398964
 20
49.125824748096477
 30
0.0
 11
165.53917103989639
 21
49.125824748096477
 31
0.0
  0
LINE
  5
15B3
  8
0
 10
129.53917103989639
 20
54.013505611654182
 30
0.0
 11
129.53917103989639
 21
49.125824748096477
 31
0.0
  0
LINE
  5
15B4
  8
0
 10
123.5391710398964
 20
54.01350561165426
 30
0.0
 11
123.5391710398964
 21
49.125824748096477
 31
0.0
  0
LINE
  5
15B5
  8
0
 10
135.53917103989639
 20
54.013505611654182
 30
0.0
 11
135.53917103989639
 21
49.125824748096477
 31
0.0
  0
LINE
  5
15B7
  8
0
 10
141.5391710398963
 20
54.013505611654182
 30
0.0
 11
141.53917103989639
 21
49.125824748096477
 31
0.0
  0
LINE
  5
15B9
  8
0
 10
153.53917103989639
 20
54.013505611654182
 30
0.0
 11
153.53917103989639
 21
49.125824748096477
 31
0.0
  0
LINE
  5
15BA
  8
0
 10
147.5391710398963
 20
54.013505611654182
 30
0.0
 11
147.53917103989639
 21
49.125824748096477
 31
0.0
  0
LINE
  5
15BC
  8
0
 10
165.53917103989639
 20
54.01350561165426
 30
0.0
 11
165.53917103989639
 21
49.227780804833372
 31
0.0
  0
LINE
  5
15BD
  8
0
 10
159.5391710398963
 20
54.013505611654182
 30
0.0
 11
159.53917103989639
 21
49.125824748096477
 31
0.0
  0
LINE
  5
160A
  8
2
 10
127.43917103989629
 20
40.452284947676759
 30
0.0
 11
137.43917103989631
 21
40.452284947676759
 31
0.0
  0
LINE
  5
160C
  8
2
 10
157.6391710398963
 20
40.452284947676759
 30
0.0
 11
167.63917103989641
 21
40.452284947676759
 31
0.0
  0
LINE
  5
1680
  8
2
 10
127.43917103989629
 20
45.952284947676731
 30
0.0
 11
127.43917103989629
 21
40.452284947676759
 31
0.0
  0
LINE
  5
1681
  8
2
 10
137.43917103989631
 20
40.452284947676759
 30
0.0
 11
137.43917103989631
 21
45.952284947676731
 31
0.0
  0
LINE
  5
1682
  8
2
 10
157.6391710398963
 20
45.952284947676731
 30
0.0
 11
157.6391710398963
 21
40.452284947676759
 31
0.0
  0
LINE
  5
1683
  8
2
 10
167.63917103989641
 20
40.452284947676759
 30
0.0
 11
167.63917103989641
 21
45.952284947676731
 31
0.0
  0
LINE
  5
1684
  8
2
 10
129.68917103989631
 20
40.452284947676759
 30
0.0
 11
129.68917103989631
 21
34.013505611654423
 31
0.0
  0
LINE
  5
1685
  8
2
 10
135.18917103989631
 20
34.013505611654423
 30
0.0
 11
135.18917103989631
 21
40.452284947676759
 31
0.0
  0
LINE
  5
1686
  8
2
 10
159.88917103989641
 20
40.452284947676759
 30
0.0
 11
159.88917103989641
 21
34.013505611654423
 31
0.0
  0
LINE
  5
1687
  8
2
 10
165.38917103989641
 20
34.013505611654423
 30
0.0
 11
165.38917103989641
 21
40.452284947676759
 31
0.0
  0
LINE
  5
197D
  8
1
 10
83.177987830263419
 20
47.013505611654381
 30
0.0
 11
69.177987830263405
 21
47.013505611654381
 31
0.0
  0
LINE
  5
197E
  8
1
 10
76.177987830263419
 20
54.013505611654409
 30
0.0
 11
76.177987830263419
 21
40.013505611654402
 31
0.0
  0
LINE
  5
1980
  8
1
 10
60.677987830263362
 20
32.013505611654438
 30
0.0
 11
60.677987830263362
 21
47.952284947676723
 31
0.0
  0
LINE
  5
1981
  8
1
 10
91.677987830263362
 20
32.013505611654431
 30
0.0
 11
91.677987830263362
 21
47.952284947676723
 31
0.0
  0
LINE
  5
19CE
  8
1
 10
147.53917103989639
 20
29.01350561165442
 30
0.0
 11
147.53917103989639
 21
59.013505611654182
 31
0.0
  0
LINE
  5
19D7
  8
1
 10
132.43917103989631
 20
32.013505611654438
 30
0.0
 11
132.43917103989631
 21
47.952284947676723
 31
0.0
  0
LINE
  5
19D8
  8
1
 10
162.63917103989641
 20
32.013505611654438
 30
0.0
 11
162.63917103989641
 21
47.952284947676723
 31
0.0
  0
CIRCLE
  5
1A1E
  8
0
 10
60.67798783026344
 20
131.7704361990387
 30
0.0
 40
5.0000000000000284
  0
LINE
  5
1A1F
  8
1
 10
53.677987830263419
 20
131.7704361990387
 30
0.0
 11
67.677987830263461
 21
131.7704361990387
 31
0.0
  0
LINE
  5
1A20
  8
1
 10
60.67798783026344
 20
138.7704361990387
 30
0.0
 11
60.67798783026344
 21
124.7704361990387
 31
0.0
  0
CIRCLE
  5
1A25
  8
0
 10
91.677987830263376
 20
131.7704361990387
 30
0.0
 40
2.7500000000000142
  0
CIRCLE
  5
1A26
  8
0
 10
91.677987830263376
 20
131.7704361990387
 30
0.0
 40
5.0000000000000284
  0
LINE
  5
1A27
  8
1
 10
84.677987830263376
 20
131.7704361990387
 30
0.0
 11
98.677987830263405
 21
131.7704361990387
 31
0.0
  0
LINE
  5
1A28
  8
1
 10
91.677987830263376
 20
138.7704361990387
 30
0.0
 11
91.677987830263376
 21
124.7704361990387
 31
0.0
  0
CIRCLE
  5
1A29
  8
0
 10
91.677987830263376
 20
101.5704361990387
 30
0.0
 40
2.7500000000000142
  0
CIRCLE
  5
1A2A
  8
0
 10
91.677987830263376
 20
101.5704361990387
 30
0.0
 40
5.0000000000000284
  0
LINE
  5
1A2B
  8
1
 10
84.677987830263376
 20
101.5704361990387
 30
0.0
 11
98.677987830263405
 21
101.5704361990387
 31
0.0
  0
LINE
  5
1A2C
  8
1
 10
91.677987830263376
 20
108.5704361990387
 30
0.0
 11
91.677987830263376
 21
94.570436199038696
 31
0.0
  0
CIRCLE
  5
1A2D
  8
0
 10
60.67798783026344
 20
101.5704361990387
 30
0.0
 40
2.7500000000000142
  0
CIRCLE
  5
1A2E
  8
0
 10
60.67798783026344
 20
101.5704361990387
 30
0.0
 40
5.0000000000000284
  0
LINE
  5
1A2F
  8
1
 10
53.677987830263419
 20
101.5704361990387
 30
0.0
 11
67.677987830263461
 21
101.5704361990387
 31
0.0
  0
LINE
  5
1A30
  8
1
 10
60.67798783026344
 20
108.5704361990387
 30
0.0
 11
60.67798783026344
 21
94.570436199038696
 31
0.0
  0
LINE
  5
1A85
  8
1
 10
105.1779878302634
 20
116.6704361990387
 30
0.0
 11
47.177987830263412
 21
116.6704361990387
 31
0.0
  0
LINE
  5
1A86
  8
1
 10
76.177987830263419
 20
146.4204361990387
 30
0.0
 11
76.177987830263419
 21
86.920436199038335
 31
0.0
  0
TEXT
  5
1CB3
  8
0
 62
     3
 10
0.0
 20
0.0
 30
0.0
 40
10.0
  1
EFH5050CH-90
  7
STANDARD1
  0
ENDSEC
  0
EOF
