  0
SECTION
  2
HEADER
  9
$ACADVER
  1
AC1009
  9
$INSBASE
 10
0.0
 20
0.0
 30
0.0
  9
$EXTMIN
 10
0.0
 20
-2.960436562073669
 30
0.0
  9
$EXTMAX
 10
409.28221098202619
 20
311.65590977094507
 30
0.0
  9
$LIMMIN
 10
0.0
 20
0.0
  9
$LIMMAX
 10
375.0
 20
278.0
  9
$ORTHOMODE
 70
     1
  9
$REGENMODE
 70
     1
  9
$FILLMODE
 70
     1
  9
$QTEXTMODE
 70
     0
  9
$MIRRTEXT
 70
     0
  9
$DRAGMODE
 70
     2
  9
$LTSCALE
 40
10.0
  9
$OSMODE
 70
  3071
  9
$ATTMODE
 70
     1
  9
$TEXTSIZE
 40
0.2
  9
$TRACEWID
 40
0.05
  9
$TEXTSTYLE
  7
STANDARD
  9
$CLAYER
  8
0
  9
$CELTYPE
  6
BYLAYER
  9
$CECOLOR
 62
   256
  9
$DIMSCALE
 40
1.0
  9
$DIMASZ
 40
3.0
  9
$DIMEXO
 40
1.0
  9
$DIMDLI
 40
6.0
  9
$DIMRND
 40
0.0
  9
$DIMDLE
 40
0.0
  9
$DIMEXE
 40
1.0
  9
$DIMTP
 40
495.0
  9
$DIMTM
 40
0.0
  9
$DIMTXT
 40
3.0
  9
$DIMCEN
 40
0.0
  9
$DIMTSZ
 40
0.0
  9
$DIMTOL
 70
     0
  9
$DIMLIM
 70
     0
  9
$DIMTIH
 70
     0
  9
$DIMTOH
 70
     0
  9
$DIMSE1
 70
     0
  9
$DIMSE2
 70
     0
  9
$DIMTAD
 70
     1
  9
$DIMZIN
 70
     0
  9
$DIMBLK
  1

  9
$DIMASO
 70
     0
  9
$DIMSHO
 70
     0
  9
$DIMPOST
  1

  9
$DIMAPOST
  1

  9
$DIMALT
 70
     0
  9
$DIMALTD
 70
     2
  9
$DIMALTF
 40
25.399999999999999
  9
$DIMLFAC
 40
1.0
  9
$DIMTOFL
 70
     1
  9
$DIMTVP
 40
0.0
  9
$DIMTIX
 70
     1
  9
$DIMSOXD
 70
     0
  9
$DIMSAH
 70
     0
  9
$DIMBLK1
  1

  9
$DIMBLK2
  1

  9
$DIMSTYLE
  2
STANDARD
  9
$DIMCLRD
 70
     0
  9
$DIMCLRE
 70
     0
  9
$DIMCLRT
 70
     4
  9
$DIMTFAC
 40
1.0
  9
$DIMGAP
 40
1.0
  9
$LUNITS
 70
     2
  9
$LUPREC
 70
     4
  9
$SKETCHINC
 40
0.1
  9
$FILLETRAD
 40
0.0
  9
$AUNITS
 70
     0
  9
$AUPREC
 70
     0
  9
$MENU
  1
C:\R13\WIN\SUPPORT\ACAD-I
  9
$ELEVATION
 40
0.0
  9
$PELEVATION
 40
0.0
  9
$THICKNESS
 40
0.0
  9
$LIMCHECK
 70
     0
  9
$BLIPMODE
 70
     0
  9
$CHAMFERA
 40
0.0
  9
$CHAMFERB
 40
0.0
  9
$SKPOLY
 70
     0
  9
$TDCREATE
 40
2450834.4199027782
  9
$TDUPDATE
 40
2456598.6564634261
  9
$TDINDWG
 40
0.1183737037
  9
$TDUSRTIMER
 40
0.1183737037
  9
$USRTIMER
 70
     1
  9
$ANGBASE
 50
0.0
  9
$ANGDIR
 70
     0
  9
$PDMODE
 70
     0
  9
$PDSIZE
 40
0.0
  9
$PLINEWID
 40
0.0
  9
$COORDS
 70
     1
  9
$SPLFRAME
 70
     0
  9
$SPLINETYPE
 70
     6
  9
$SPLINESEGS
 70
     8
  9
$ATTDIA
 70
     0
  9
$ATTREQ
 70
     1
  9
$HANDLING
 70
     1
  9
$HANDSEED
  5
92A2
  9
$SURFTAB1
 70
     6
  9
$SURFTAB2
 70
     6
  9
$SURFTYPE
 70
     6
  9
$SURFU
 70
     6
  9
$SURFV
 70
     6
  9
$UCSNAME
  2

  9
$UCSORG
 10
0.0
 20
0.0
 30
0.0
  9
$UCSXDIR
 10
1.0
 20
0.0
 30
0.0
  9
$UCSYDIR
 10
0.0
 20
1.0
 30
0.0
  9
$PUCSNAME
  2

  9
$PUCSORG
 10
0.0
 20
0.0
 30
0.0
  9
$PUCSXDIR
 10
1.0
 20
0.0
 30
0.0
  9
$PUCSYDIR
 10
0.0
 20
1.0
 30
0.0
  9
$USERI1
 70
     4
  9
$USERI2
 70
     1
  9
$USERI3
 70
     1
  9
$USERI4
 70
     0
  9
$USERI5
 70
     0
  9
$USERR1
 40
1.0
  9
$USERR2
 40
3.0
  9
$USERR3
 40
3.0
  9
$USERR4
 40
3.0
  9
$USERR5
 40
10.0
  9
$WORLDVIEW
 70
     1
  9
$SHADEDGE
 70
     3
  9
$SHADEDIF
 70
    70
  9
$TILEMODE
 70
     1
  9
$MAXACTVP
 70
    16
  9
$PLIMCHECK
 70
     0
  9
$PEXTMIN
 10
1.0000000000000000E+020
 20
1.0000000000000000E+020
 30
1.0000000000000000E+020
  9
$PEXTMAX
 10
-1.0000000000000000E+020
 20
-1.0000000000000000E+020
 30
-1.0000000000000000E+020
  9
$PLIMMIN
 10
0.0
 20
0.0
  9
$PLIMMAX
 10
12.0
 20
9.0
  9
$UNITMODE
 70
     0
  9
$VISRETAIN
 70
     0
  9
$PLINEGEN
 70
     0
  9
$PSLTSCALE
 70
     0
  0
ENDSEC
  0
SECTION
  2
TABLES
  0
TABLE
  2
VPORT
 70
     1
  0
VPORT
  2
*ACTIVE
 70
     0
 10
0.0
 20
0.0
 11
1.0
 21
1.0
 12
204.64110644394751
 22
196.2913404541616
 13
0.0
 23
0.0
 14
10.0
 24
10.0
 15
10.0
 25
10.0
 16
0.0
 26
0.0
 36
1.0
 17
0.0
 27
0.0
 37
0.0
 40
402.16269966075049
 41
1.8318713450292401
 42
50.0
 43
0.0
 44
0.0
 50
0.0
 51
0.0
 71
     0
 72
   100
 73
     1
 74
     0
 75
     0
 76
     0
 77
     0
 78
     0
  0
ENDTAB
  0
TABLE
  2
LTYPE
 70
     4
  0
LTYPE
  2
CONTINUOUS
 70
     0
  3
Solid Line
 72
    65
 73
     0
 40
0.0
  0
LTYPE
  2
CENTER
 70
     0
  3
____ _ ____ _ ____ _ ____ _ ____ _ ____ _ ____
 72
    65
 73
     4
 40
2.0
 49
1.25
 49
-0.25
 49
0.25
 49
-0.25
  0
LTYPE
  2
HIDDEN
 70
     0
  3
__ __ __ __ __ __ __ __ __ __ __ __ __ __ __ __
 72
    65
 73
     2
 40
0.375
 49
0.25
 49
-0.125
  0
LTYPE
  2
PHANTOM2
 70
     0
  3
___ _ _ ___ _ _ ___ _ _ ___ _ _
 72
    65
 73
     6
 40
1.25
 49
0.625
 49
-0.125
 49
0.125
 49
-0.125
 49
0.125
 49
-0.125
  0
ENDTAB
  0
TABLE
  2
LAYER
 70
     4
  0
LAYER
  2
0
 70
     0
 62
     7
  6
CONTINUOUS
  0
LAYER
  2
1
 70
     0
 62
     1
  6
CENTER
  0
LAYER
  2
3
 70
     0
 62
     3
  6
CONTINUOUS
  0
LAYER
  2
2
 70
     0
 62
     2
  6
HIDDEN
  0
ENDTAB
  0
TABLE
  2
STYLE
 70
     2
  0
STYLE
  2
STANDARD
 70
     0
 40
0.0
 41
1.0
 50
0.0
 71
     0
 42
0.2
  3
SIMPLEX
  4
BIGFONT
  0
STYLE
  2
STANDARD1
 70
     0
 40
0.0
 41
1.0
 50
0.0
 71
     0
 42
3.0
  3
txt
  4

  0
ENDTAB
  0
TABLE
  2
VIEW
 70
     0
  0
ENDTAB
  0
TABLE
  2
UCS
 70
     0
  0
ENDTAB
  0
TABLE
  2
APPID
 70
    38
  0
APPID
  2
ACAD
 70
     0
  0
APPID
  2
GENIUS_GENOBJ_13
 70
     0
  0
APPID
  2
GENIUS_GENODEF_13
 70
     0
  0
APPID
  2
GENIUS_GENOENT_13
 70
     0
  0
APPID
  2
GENIUS_GENOLIS_13
 70
     0
  0
APPID
  2
GENIUS_GENOREF_13
 70
     0
  0
APPID
  2
GENIUS_GENOBJ-N-TIT_13
 70
     0
  0
APPID
  2
GENIUS_GENTITLE_13
 70
     0
  0
APPID
  2
GENIUS_GENZVEED_13
 70
     0
  0
APPID
  2
GENIUS_GENOBJ-N-FIL_13
 70
     0
  0
APPID
  2
GENIUS_GENOBJ-N-CRS_13
 70
     0
  0
APPID
  2
GENIUS_GEFINERT_13
 70
     0
  0
APPID
  2
GENIUS_GENOBJ-F-INER_13
 70
     0
  0
APPID
  2
GENIUS_GENOBJ-N-ZOO_13
 70
     0
  0
APPID
  2
GENIUS_GENZOO_13
 70
     0
  0
APPID
  2
GENIUS_GENOBJ-F-TOL_13
 70
     0
  0
APPID
  2
GENIUS_GENOBJ-N-RSSYM_13
 70
     0
  0
APPID
  2
GENIUS_GENSYMENT_13
 70
     0
  0
APPID
  2
GENIUS_GENBH_13
 70
     0
  0
APPID
  2
GENIUS_GENOBJ-NBEHI-BHF_13
 70
     0
  0
APPID
  2
GENIUS_GENOBJ-NBEHI-BHB_13
 70
     0
  0
APPID
  2
GENIUS_GENOBJ-F-PART_13
 70
     0
  0
APPID
  2
GENIUS_GEFSTDP_13
 70
     0
  0
APPID
  2
GENIUS_GENOBJ-N-LEADER_13
 70
     0
  0
APPID
  2
GENIUS_GENOBJ-N-REV_13
 70
     0
  0
APPID
  2
GENIUS_GENCFG_13
 70
     0
  0
APPID
  2
GENIUS_GENCFG0_13
 70
     0
  0
APPID
  2
GENIUS_GENCFG1_13
 70
     0
  0
APPID
  2
GENIUS_GENCFG2_13
 70
     0
  0
APPID
  2
GENIUS_GENCFG3_13
 70
     0
  0
APPID
  2
GENIUS_GEVCFG0_13
 70
     0
  0
APPID
  2
GENIUS_GENCFG4_13
 70
     0
  0
APPID
  2
GENIUS_GENOBJ-N-REC_13
 70
     0
  0
APPID
  2
GENIUS_GENFIL_13
 70
     0
  0
APPID
  2
GENIUS_GENOBJ-N-CHA_13
 70
     0
  0
APPID
  2
GENIUS_GENREC_13
 70
     0
  0
APPID
  2
ACAD_MLEADERVER
 70
     0
  0
APPID
  2
ACAD_NAV_VCDISPLAY
 70
     0
  0
ENDTAB
  0
TABLE
  2
DIMSTYLE
 70
     1
  0
DIMSTYLE
  2
STANDARD
 70
     0
  3

  4

  5

  6

  7

 40
1.0
 41
0.18
 42
0.0625
 43
0.38
 44
0.18
 45
0.0
 46
0.0
 47
0.0
 48
0.0
140
0.18
141
0.09
142
0.0
143
25.399999999999999
144
1.0
145
0.0
146
1.0
147
0.09
 71
     0
 72
     0
 73
     1
 74
     1
 75
     0
 76
     0
 77
     0
 78
     0
170
     0
171
     2
172
     0
173
     0
174
     0
175
     0
176
     0
177
     0
178
     0
  0
ENDTAB
  0
ENDSEC
  0
SECTION
  2
BLOCKS
  0
BLOCK
  8
0
  2
$MODEL_SPACE
 70
     0
 10
0.0
 20
0.0
 30
0.0
  3
$MODEL_SPACE
  1

  0
ENDBLK
  5
904A
  8
0
  0
BLOCK
 67
     1
  8
0
  2
$PAPER_SPACE
 70
     0
 10
0.0
 20
0.0
 30
0.0
  3
$PAPER_SPACE
  1

  0
ENDBLK
  5
9048
 67
     1
  8
0
  0
BLOCK
  8
0
  2
STDGX5
 70
     0
 10
0.0
 20
0.0
 30
0.0
  3
STDGX5
  1

  0
ENDBLK
  5
4F
  8
0
  0
ENDSEC
  0
SECTION
  2
ENTITIES
  0
INSERT
  5
DE
  8
0
  2
STDGX5
 10
0.0
 20
0.0
 30
0.0
  0
INSERT
  5
DF
  8
0
  2
STDGX5
 10
0.0
 20
0.0
 30
0.0
  0
INSERT
  5
15C
  8
0
  2
STDGX5
 10
275.0
 20
0.0
 30
0.0
  0
INSERT
  5
15D
  8
0
  2
STDGX5
 10
275.0
 20
0.0
 30
0.0
  0
INSERT
  5
314
  8
0
  2
STDGX5
 10
0.0
 20
0.0
 30
0.0
  0
INSERT
  5
315
  8
0
  2
STDGX5
 10
0.0
 20
0.0
 30
0.0
  0
INSERT
  5
316
  8
0
  2
STDGX5
 10
275.0
 20
0.0
 30
0.0
  0
INSERT
  5
317
  8
0
  2
STDGX5
 10
275.0
 20
0.0
 30
0.0
  0
INSERT
  5
4EF
  8
0
  2
STDGX5
 10
0.0
 20
0.0
 30
0.0
  0
INSERT
  5
4F0
  8
0
  2
STDGX5
 10
0.0
 20
0.0
 30
0.0
  0
INSERT
  5
4F1
  8
0
  2
STDGX5
 10
275.0
 20
0.0
 30
0.0
  0
INSERT
  5
4F2
  8
0
  2
STDGX5
 10
275.0
 20
0.0
 30
0.0
  0
LINE
  5
8719
  8
1
 10
316.10612905108871
 20
257.90593119704232
 30
0.0
 11
394.95313280415752
 21
257.90593119704238
 31
0.0
  0
LINE
  5
871A
  8
3
 10
394.34584359158617
 20
255.8423632767321
 30
0.0
 11
394.57432864186057
 21
255.8423632767321
 31
0.0
  0
LINE
  5
871B
  8
3
 10
395.08541362273752
 20
254.7811103458522
 30
0.0
 11
393.8882990230934
 21
254.7616558925908
 31
0.0
  0
LINE
  5
871C
  8
2
 10
395.44052024085568
 20
113.7294468651738
 30
0.0
 11
378.1187396192239
 21
113.7294468651738
 31
0.0
1001
GENIUS_GENOREF_13
1005
0
  0
LINE
  5
871D
  8
2
 10
395.44052024085568
 20
104.7294468651739
 30
0.0
 11
393.52962993003979
 21
104.7294468651738
 31
0.0
  0
LINE
  5
8723
  8
1
 10
338.27964564692638
 20
287.65593920137462
 30
0.0
 11
310.2796456469294
 21
287.65595200831171
 31
0.0
  0
LINE
  5
8724
  8
3
 10
315.97384649375238
 20
261.04042366158632
 30
0.0
 11
317.17096108260461
 21
261.0598787789076
 31
0.0
  0
LINE
  5
8725
  8
3
 10
316.48493206332432
 20
259.97917101421422
 30
0.0
 11
316.23840871960721
 21
259.9791708774635
 31
0.0
  0
LINE
  5
8728
  8
0
 10
306.77962993004007
 20
303.65590977094502
 30
0.0
 11
306.77962993004002
 21
212.1559526231398
 31
0.0
  0
ARC
  5
8729
  8
0
 10
309.27962993004002
 20
212.1559526231398
 30
0.0
 40
2.5
 50
180.0
 51
270.0
1001
GENIUS_GENODEF_13
1002
{
1000
HIER
1070
     0
1002
}
1002
{
1000
MANEDIT
1070
     0
1002
}
1002
{
1000
NOSEL
1070
     0
1002
}
1002
{
1000
BEHIND
1070
     0
1002
}
1002
{
1000
REACTOR
1002
}
1001
GENIUS_GENOBJ-N-FIL_13
1002
{
1000
OWNER
1000
GEN
1002
}
  0
LINE
  5
872A
  8
1
 10
312.77798307965452
 20
257.9059549135398
 30
0.0
 11
301.77962993004002
 21
257.90596101451331
 31
0.0
  0
LINE
  5
872B
  8
3
 10
315.33048546889592
 20
252.43315095028589
 30
0.0
 11
315.18617917472039
 21
252.33694663854229
 31
0.0
  0
LINE
  5
872C
  8
3
 10
313.71906475144738
 20
252.13852459683901
 30
0.0
 11
313.55070734931729
 21
252.13251173896739
 31
0.0
  0
LINE
  5
872D
  8
3
 10
314.56085177210321
 20
252.15055059275451
 30
0.0
 11
314.39850713778958
 21
252.1385249737373
 31
0.0
  0
LINE
  5
872E
  8
3
 10
315.04187286720321
 20
252.2647933847222
 30
0.0
 11
314.88554102071828
 21
252.2106784176741
 31
0.0
  0
LINE
  5
872F
  8
3
 10
314.88554102071828
 20
252.2106784176741
 30
0.0
 11
314.72920916422697
 21
252.1746017440687
 31
0.0
  0
LINE
  5
8730
  8
3
 10
315.18617917472039
 20
252.33694663854229
 30
0.0
 11
315.04187286720321
 21
252.2647933847222
 31
0.0
  0
LINE
  5
8731
  8
3
 10
314.72920916422697
 20
252.1746017440687
 30
0.0
 11
314.56085177210321
 21
252.15055059275451
 31
0.0
  0
LINE
  5
8732
  8
3
 10
314.39850713778958
 20
252.1385249737373
 30
0.0
 11
314.23014973232421
 21
252.13852488034649
 31
0.0
  0
LINE
  5
8733
  8
3
 10
314.05577956237801
 20
252.1385247836204
 30
0.0
 11
313.88742215691269
 21
252.1385246902297
 31
0.0
  0
LINE
  5
8734
  8
3
 10
313.88742215691269
 20
252.1385246902297
 30
0.0
 11
313.71906475144738
 21
252.13852459683901
 31
0.0
  0
LINE
  5
8735
  8
3
 10
314.23014973232421
 20
252.13852488034649
 30
0.0
 11
314.05577956237801
 21
252.1385247836204
 31
0.0
  0
LINE
  5
8736
  8
3
 10
313.06367346305331
 20
252.0663710595114
 30
0.0
 11
312.76904807686742
 21
251.93409007749781
 31
0.0
  0
LINE
  5
8737
  8
3
 10
313.55070734931729
 20
252.13251173896739
 30
0.0
 11
313.38234995052278
 21
252.1204861166149
 31
0.0
  0
LINE
  5
8738
  8
3
 10
313.22000531954461
 20
252.1024477331168
 30
0.0
 11
313.06367346305331
 21
252.0663710595114
 31
0.0
  0
LINE
  5
8739
  8
3
 10
313.38234995052278
 20
252.1204861166149
 30
0.0
 11
313.22000531954461
 21
252.1024477331168
 31
0.0
  0
CIRCLE
  5
873A
  8
3
 10
315.85850929275398
 20
252.1537213774366
 30
0.0
 40
0.241100623305389
  0
LINE
  5
873B
  8
3
 10
312.99752925809793
 20
258.90889700209129
 30
0.0
 11
313.01556753486381
 21
258.93896083450198
 31
0.0
  0
LINE
  5
873C
  8
3
 10
315.05389270266687
 20
262.52858236029653
 30
0.0
 11
314.95167562644218
 21
262.6728886511367
 31
0.0
  0
LINE
  5
873D
  8
3
 10
314.91559904622773
 20
262.66086310216258
 30
0.0
 11
314.9095870121954
 21
261.3440676775092
 31
0.0
  0
LINE
  5
873E
  8
3
 10
314.20008014304301
 20
262.5345946511531
 30
0.0
 11
314.19406728517151
 21
262.70295205328313
 31
0.0
  0
LINE
  5
873F
  8
3
 10
314.0317226875469
 20
262.624786024976
 30
0.0
 11
313.9836206250659
 21
262.52858176659839
 31
0.0
  0
LINE
  5
8740
  8
3
 10
312.85923369048447
 20
262.4864917915155
 30
0.0
 11
312.87727192722559
 21
262.588708797697
 31
0.0
  0
LINE
  5
8741
  8
3
 10
315.0899685657742
 20
263.83335227266508
 30
0.0
 11
315.27636430804222
 21
263.75518643781021
 31
0.0
  0
LINE
  5
8742
  8
3
 10
315.5529515742254
 20
263.57480365681067
 30
0.0
 11
315.74536013434039
 21
263.40043359359669
 31
0.0
  0
LINE
  5
8743
  8
3
 10
315.3304792083826
 20
263.71910988094322
 30
0.0
 11
315.34851750849612
 21
263.70708436198748
 31
0.0
  0
LINE
  5
8744
  8
3
 10
315.3124409082692
 20
263.7311353998989
 30
0.0
 11
315.3304792083826
 21
263.71910988094322
 31
0.0
  0
LINE
  5
8745
  8
3
 10
315.27636430804222
 20
263.75518643781021
 30
0.0
 11
315.29440260815562
 21
263.74316091885453
 31
0.0
  0
LINE
  5
8746
  8
3
 10
315.29440260815562
 20
263.74316091885453
 30
0.0
 11
315.3124409082692
 21
263.7311353998989
 31
0.0
  0
LINE
  5
8747
  8
3
 10
315.34851750849612
 20
263.70708436198748
 30
0.0
 11
315.36655580860969
 21
263.69505884303192
 31
0.0
  0
LINE
  5
8748
  8
3
 10
315.36655580860969
 20
263.69505884303192
 30
0.0
 11
315.37858134424232
 21
263.68303332074078
 31
0.0
  0
LINE
  5
8749
  8
3
 10
315.37858134424232
 20
263.68303332074078
 30
0.0
 11
315.39661964435572
 21
263.67100780178509
 31
0.0
  0
LINE
  5
874A
  8
3
 10
315.39661964435572
 20
263.67100780178509
 30
0.0
 11
315.41465794446913
 21
263.65898228282953
 31
0.0
  0
LINE
  5
874B
  8
3
 10
315.41465794446913
 20
263.65898228282953
 30
0.0
 11
315.43269624458259
 21
263.6469567638739
 31
0.0
  0
LINE
  5
874C
  8
3
 10
315.43269624458259
 20
263.6469567638739
 30
0.0
 11
315.44472177687982
 21
263.64094400606382
 31
0.0
  0
LINE
  5
874D
  8
3
 10
315.44472177687982
 20
263.64094400606382
 30
0.0
 11
315.46276007699328
 21
263.62891848710808
 31
0.0
  0
LINE
  5
874E
  8
3
 10
315.46276007699328
 20
263.62891848710808
 30
0.0
 11
315.48079837710679
 21
263.6168929681524
 31
0.0
  0
LINE
  5
874F
  8
3
 10
315.48079837710679
 20
263.6168929681524
 30
0.0
 11
315.4928239127392
 21
263.60486744586132
 31
0.0
  0
LINE
  5
8750
  8
3
 10
315.4928239127392
 20
263.60486744586132
 30
0.0
 11
315.51086220951743
 21
263.59885469138658
 31
0.0
  0
LINE
  5
8751
  8
3
 10
315.51086220951743
 20
263.59885469138658
 30
0.0
 11
315.5529515742254
 21
263.57480365681067
 31
0.0
  0
LINE
  5
8752
  8
3
 10
315.84757720722951
 20
263.2621400672374
 30
0.0
 11
315.86561550734291
 21
263.25011454828172
 31
0.0
  0
LINE
  5
8753
  8
3
 10
315.78143675124431
 20
263.34631873328078
 30
0.0
 11
315.79346228687677
 21
263.33429321098981
 31
0.0
  0
LINE
  5
8754
  8
3
 10
315.74536013434039
 20
263.40043359359669
 30
0.0
 11
315.75738567330842
 21
263.38239530682472
 31
0.0
  0
LINE
  5
8755
  8
3
 10
315.75738567330842
 20
263.38239530682472
 30
0.0
 11
315.76941121227622
 21
263.36435702005281
 31
0.0
  0
LINE
  5
8756
  8
3
 10
315.76941121227622
 20
263.36435702005281
 30
0.0
 11
315.78143675124431
 21
263.34631873328078
 31
0.0
  0
LINE
  5
8757
  8
3
 10
315.79346228687677
 20
263.33429321098981
 30
0.0
 11
315.80548782584481
 21
263.31625492421779
 31
0.0
  0
LINE
  5
8758
  8
3
 10
315.80548782584481
 20
263.31625492421779
 30
0.0
 11
315.82352612929361
 21
263.29821664078128
 31
0.0
  0
LINE
  5
8759
  8
3
 10
315.82352612929361
 20
263.29821664078128
 30
0.0
 11
315.83555166826159
 21
263.28017835400931
 31
0.0
  0
LINE
  5
875A
  8
3
 10
315.83555166826159
 20
263.28017835400931
 30
0.0
 11
315.84757720722951
 21
263.2621400672374
 31
0.0
  0
LINE
  5
875B
  8
3
 10
313.34626706977019
 20
263.46657267206888
 30
0.0
 11
313.3763308754979
 21
263.49663651115043
 31
0.0
  0
LINE
  5
875C
  8
3
 10
313.68899450509582
 20
263.71910897038367
 30
0.0
 11
313.70703279186779
 21
263.7311345093517
 31
0.0
  0
LINE
  5
875D
  8
3
 10
314.41052612273057
 20
263.93556889194218
 30
0.0
 11
314.51274311890597
 21
263.93556894864361
 31
0.0
  0
LINE
  5
875E
  8
3
 10
314.90357283684779
 20
263.8874670495963
 30
0.0
 11
314.99376431740279
 21
263.86341604170349
 31
0.0
  0
LINE
  5
875F
  8
3
 10
314.70515158896552
 20
263.92354352641411
 30
0.0
 11
314.80135582733078
 21
263.91151805081847
 31
0.0
  0
LINE
  5
8760
  8
3
 10
314.80135582733078
 20
263.91151805081847
 30
0.0
 11
314.90357283684779
 21
263.8874670495963
 31
0.0
  0
LINE
  5
8761
  8
3
 10
314.99376431740279
 20
263.86341604170349
 30
0.0
 11
315.0899685657742
 21
263.83335227266508
 31
0.0
  0
LINE
  5
8762
  8
3
 10
314.51274311890597
 20
263.93556894864361
 30
0.0
 11
314.60894735060037
 21
263.9355690020098
 31
0.0
  0
LINE
  5
8763
  8
3
 10
314.60894735060037
 20
263.9355690020098
 30
0.0
 11
314.70515158896552
 21
263.92354352641411
 31
0.0
  0
LINE
  5
8764
  8
3
 10
314.21811767268309
 20
263.91151772728631
 30
0.0
 11
314.3143218943714
 21
263.92955607409522
 31
0.0
  0
LINE
  5
8765
  8
3
 10
314.3143218943714
 20
263.92955607409522
 30
0.0
 11
314.41052612273057
 21
263.93556889194218
 31
0.0
  0
LINE
  5
8766
  8
3
 10
314.02570923264187
 20
263.86942826918778
 30
0.0
 11
314.11590068651378
 21
263.89347937714211
 31
0.0
  0
LINE
  5
8767
  8
3
 10
313.83931357042297
 20
263.80328775650088
 30
0.0
 11
313.92950501762431
 21
263.8393643934171
 31
0.0
  0
LINE
  5
8768
  8
3
 10
313.92950501762431
 20
263.8393643934171
 30
0.0
 11
314.02570923264187
 21
263.86942826918778
 31
0.0
  0
LINE
  5
8769
  8
3
 10
313.71905831749427
 20
263.73714728050328
 30
0.0
 11
313.7491221298925
 21
263.755185590623
 31
0.0
  0
LINE
  5
876A
  8
3
 10
313.70703279186779
 20
263.7311345093517
 30
0.0
 11
313.71905831749427
 21
263.73714728050328
 31
0.0
  0
LINE
  5
876B
  8
3
 10
313.7491221298925
 20
263.755185590623
 30
0.0
 11
313.83931357042297
 21
263.80328775650088
 31
0.0
  0
LINE
  5
876C
  8
3
 10
314.11590068651378
 20
263.89347937714211
 30
0.0
 11
314.21811767268309
 21
263.91151772728631
 31
0.0
  0
LINE
  5
876D
  8
3
 10
313.3763308754979
 20
263.49663651115043
 30
0.0
 11
313.40639468456089
 21
263.52068758575092
 31
0.0
  0
LINE
  5
876E
  8
3
 10
313.65893068936202
 20
263.70708342474501
 30
0.0
 11
313.67696897946939
 21
263.71309619923198
 31
0.0
  0
LINE
  5
876F
  8
3
 10
313.43645849362377
 20
263.54473866035141
 30
0.0
 11
313.46652230268688
 21
263.56878973495191
 31
0.0
  0
LINE
  5
8770
  8
3
 10
313.46652230268688
 20
263.56878973495191
 30
0.0
 11
313.53266269196462
 21
263.60486635852658
 31
0.0
  0
LINE
  5
8771
  8
3
 10
313.53266269196462
 20
263.60486635852658
 30
0.0
 11
313.53867544643919
 21
263.62290465530469
 31
0.0
  0
LINE
  5
8772
  8
3
 10
313.53867544643919
 20
263.62290465530469
 30
0.0
 11
313.55070096873033
 21
263.63493019093733
 31
0.0
  0
LINE
  5
8773
  8
3
 10
313.55070096873033
 20
263.63493019093733
 30
0.0
 11
313.55671372987592
 21
263.64094295875361
 31
0.0
  0
LINE
  5
8774
  8
3
 10
313.55671372987592
 20
263.64094295875361
 30
0.0
 11
313.57475201664789
 21
263.65296849772147
 31
0.0
  0
LINE
  5
8775
  8
3
 10
313.57475201664789
 20
263.65296849772147
 30
0.0
 11
313.58677753893892
 21
263.66499403335411
 31
0.0
  0
LINE
  5
8776
  8
3
 10
313.58677753893892
 20
263.66499403335411
 30
0.0
 11
313.59880306456529
 21
263.67100680450568
 31
0.0
  0
LINE
  5
8777
  8
3
 10
313.59880306456529
 20
263.67100680450568
 30
0.0
 11
313.61082858685643
 21
263.68303234013831
 31
0.0
  0
LINE
  5
8778
  8
3
 10
313.61082858685643
 20
263.68303234013831
 30
0.0
 11
313.62886687696368
 21
263.68904511462529
 31
0.0
  0
LINE
  5
8779
  8
3
 10
313.62886687696368
 20
263.68904511462529
 30
0.0
 11
313.64690516707088
 21
263.69505788911249
 31
0.0
  0
LINE
  5
877A
  8
3
 10
313.64690516707088
 20
263.69505788911249
 30
0.0
 11
313.65893068936202
 21
263.70708342474501
 31
0.0
  0
LINE
  5
877B
  8
3
 10
313.67696897946939
 20
263.71309619923198
 30
0.0
 11
313.68899450509582
 21
263.71910897038367
 31
0.0
  0
LINE
  5
877C
  8
3
 10
313.40639468456089
 20
263.52068758575092
 30
0.0
 11
313.43645849362377
 21
263.54473866035141
 31
0.0
  0
LINE
  5
877D
  8
3
 10
314.95167562644218
 20
262.6728886511367
 30
0.0
 11
314.94566286196141
 21
262.67288864780141
 31
0.0
  0
LINE
  5
877E
  8
3
 10
314.94566286196141
 20
262.67288864780141
 30
0.0
 11
314.93965009748052
 21
262.6728886444659
 31
0.0
  0
LINE
  5
877F
  8
3
 10
314.93965009748052
 20
262.6728886444659
 30
0.0
 11
314.93363733299952
 21
262.67288864113061
 31
0.0
  0
LINE
  5
8780
  8
3
 10
314.93363733299952
 20
262.67288864113061
 30
0.0
 11
314.92762456851858
 21
262.67288863779521
 31
0.0
  0
LINE
  5
8781
  8
3
 10
314.92762456851858
 20
262.67288863779521
 30
0.0
 11
314.9216118040377
 21
262.67288863445981
 31
0.0
  0
LINE
  5
8782
  8
3
 10
314.9216118040377
 20
262.67288863445981
 30
0.0
 11
314.9216118073731
 21
262.66687586997892
 31
0.0
  0
LINE
  5
8783
  8
3
 10
314.9216118073731
 20
262.66687586997892
 30
0.0
 11
314.91559904289232
 21
262.66687586664352
 31
0.0
  0
LINE
  5
8784
  8
3
 10
314.91559904289232
 20
262.66687586664352
 30
0.0
 11
314.91559904622773
 21
262.66086310216258
 31
0.0
  0
LINE
  5
8785
  8
3
 10
314.19406728517151
 20
262.70295205328313
 30
0.0
 11
314.18805451401971
 21
262.71497757890938
 31
0.0
  0
LINE
  5
8786
  8
3
 10
314.18805451401971
 20
262.71497757890938
 30
0.0
 11
314.18204174286802
 21
262.72700310453592
 31
0.0
  0
LINE
  5
8787
  8
3
 10
314.18204174286802
 20
262.72700310453592
 30
0.0
 11
314.18204173953268
 21
262.7330158690167
 31
0.0
  0
LINE
  5
8788
  8
3
 10
314.18204173953268
 20
262.7330158690167
 30
0.0
 11
314.17602897505179
 21
262.73301586568141
 31
0.0
  0
LINE
  5
8789
  8
3
 10
314.17602897505179
 20
262.73301586568141
 30
0.0
 11
314.16400344275462
 21
262.73902862349149
 31
0.0
  0
LINE
  5
878A
  8
3
 10
314.16400344275462
 20
262.73902862349149
 30
0.0
 11
314.15799067827362
 21
262.7390286201562
 31
0.0
  0
LINE
  5
878B
  8
3
 10
314.15197791379279
 20
262.7390286168208
 30
0.0
 11
314.14596515264719
 21
262.73301584900452
 31
0.0
  0
LINE
  5
878C
  8
3
 10
314.14596515264719
 20
262.73301584900452
 30
0.0
 11
314.13393962368542
 21
262.73301584233371
 31
0.0
  0
LINE
  5
878D
  8
3
 10
314.13393962368542
 20
262.73301584233371
 30
0.0
 11
314.12792686253999
 21
262.72700307451748
 31
0.0
  0
LINE
  5
878E
  8
3
 10
314.12792686253999
 20
262.72700307451748
 30
0.0
 11
314.12191409805899
 21
262.72700307118208
 31
0.0
  0
LINE
  5
878F
  8
3
 10
314.12191409805899
 20
262.72700307118208
 30
0.0
 11
314.1159013369134
 21
262.7209903033658
 31
0.0
  0
LINE
  5
8790
  8
3
 10
314.1159013369134
 20
262.7209903033658
 30
0.0
 11
314.1038758112872
 21
262.71497753221411
 31
0.0
  0
LINE
  5
8791
  8
3
 10
314.1038758112872
 20
262.71497753221411
 30
0.0
 11
314.0978630468062
 21
262.71497752887871
 31
0.0
  0
LINE
  5
8792
  8
3
 10
314.0978630468062
 20
262.71497752887871
 30
0.0
 11
314.091850288996
 21
262.70295199658159
 31
0.0
  0
LINE
  5
8793
  8
3
 10
314.091850288996
 20
262.70295199658159
 30
0.0
 11
314.0317226875469
 21
262.624786024976
 31
0.0
  0
LINE
  5
8794
  8
3
 10
314.15799067827362
 20
262.7390286201562
 30
0.0
 11
314.15197791379279
 21
262.7390286168208
 31
0.0
  0
LINE
  5
8795
  8
3
 10
312.99752700004382
 20
262.97953855566351
 30
0.0
 11
313.09974389949321
 21
263.15390878231119
 31
0.0
  0
LINE
  5
8796
  8
3
 10
313.15987149093593
 20
263.25011304735949
 30
0.0
 11
313.18392252884752
 21
263.28618964758653
 31
0.0
  0
LINE
  5
8797
  8
3
 10
313.213986334575
 20
263.3162534866679
 30
0.0
 11
313.2380373758217
 21
263.346317322414
 31
0.0
  0
LINE
  5
8798
  8
3
 10
313.18392252884752
 20
263.28618964758653
 30
0.0
 11
313.213986334575
 21
263.3162534866679
 31
0.0
  0
LINE
  5
8799
  8
3
 10
313.09974389949321
 20
263.15390878231119
 30
0.0
 11
313.11778217292351
 21
263.18998537920271
 31
0.0
  0
LINE
  5
879A
  8
3
 10
313.11778217292351
 20
263.18998537920271
 30
0.0
 11
313.14183321417028
 21
263.2200492149488
 31
0.0
  0
LINE
  5
879B
  8
3
 10
313.14183321417028
 20
263.2200492149488
 30
0.0
 11
313.15987149093593
 21
263.25011304735949
 31
0.0
  0
LINE
  5
879C
  8
3
 10
313.2380373758217
 20
263.346317322414
 30
0.0
 11
313.2620884170683
 21
263.37638115815997
 31
0.0
  0
LINE
  5
879D
  8
3
 10
313.29215222279601
 20
263.40644499724152
 30
0.0
 11
313.31620326404271
 21
263.43650883298761
 31
0.0
  0
LINE
  5
879E
  8
3
 10
313.31620326404271
 20
263.43650883298761
 30
0.0
 11
313.34626706977019
 21
263.46657267206888
 31
0.0
  0
LINE
  5
879F
  8
3
 10
313.2620884170683
 20
263.37638115815997
 30
0.0
 11
313.29215222279601
 21
263.40644499724152
 31
0.0
  0
LINE
  5
87A0
  8
3
 10
312.92537392966977
 20
262.79314281673089
 30
0.0
 11
312.96145046318918
 21
262.88934706843759
 31
0.0
  0
LINE
  5
87A1
  8
3
 10
312.96145046318918
 20
262.88934706843759
 30
0.0
 11
312.99752700004382
 21
262.97953855566351
 31
0.0
  0
LINE
  5
87A2
  8
3
 10
312.90132292844771
 20
262.690925807214
 30
0.0
 11
312.92537392966977
 21
262.79314281673089
 31
0.0
  0
LINE
  5
87A3
  8
3
 10
312.87727192722559
 20
262.588708797697
 30
0.0
 11
312.90132292844771
 21
262.690925807214
 31
0.0
  0
LINE
  5
87A4
  8
3
 10
312.90132404913629
 20
260.67063694163011
 30
0.0
 11
313.14183456500018
 21
260.78487960018259
 31
0.0
  0
LINE
  5
87A5
  8
3
 10
315.01180416179841
 20
261.06748056808908
 30
0.0
 11
315.26434027333198
 21
261.06146794369431
 31
0.0
  0
LINE
  5
87A6
  8
3
 10
315.53491468164327
 20
261.04944256482469
 30
0.0
 11
315.8235273800621
 21
261.0434299604421
 31
0.0
  0
LINE
  5
87A7
  8
3
 10
315.26434027333198
 20
261.06146794369431
 30
0.0
 11
315.53491468164327
 21
261.04944256482469
 31
0.0
  0
LINE
  5
87A8
  8
3
 10
315.12003362894109
 20
261.59660390244562
 30
0.0
 11
315.12604634005578
 21
261.69280813747542
 31
0.0
  0
LINE
  5
87A9
  8
3
 10
314.19406787219879
 20
261.64470550464398
 30
0.0
 11
314.19406782550351
 21
261.72888420737661
 31
0.0
  0
LINE
  5
87AA
  8
3
 10
313.87539132802777
 20
261.69280744371582
 30
0.0
 11
313.88140415921629
 21
261.57255215743322
 31
0.0
  0
LINE
  5
87AB
  8
3
 10
312.8437769226523
 20
261.63267922522101
 30
0.0
 11
312.83776409813453
 21
261.74090898254178
 31
0.0
  0
LINE
  5
87AC
  8
3
 10
315.13807165221777
 20
262.083637835405
 30
0.0
 11
315.13807160218698
 21
262.17382930261851
 31
0.0
  0
LINE
  5
87AD
  8
3
 10
314.19406762538051
 20
262.08965007623078
 30
0.0
 11
314.20008033983061
 21
262.17984154677981
 31
0.0
  0
LINE
  5
87AE
  8
3
 10
313.89342934796912
 20
262.18585414115609
 30
0.0
 11
313.88140388571492
 21
262.06559884486728
 31
0.0
  0
LINE
  5
87AF
  8
3
 10
315.12604601985907
 20
262.27003352764228
 30
0.0
 11
315.11402044086662
 21
262.36022498818511
 31
0.0
  0
LINE
  5
87B0
  8
3
 10
315.13807160218698
 20
262.17382930261851
 30
0.0
 11
315.12604601985907
 21
262.27003352764228
 31
0.0
  0
LINE
  5
87B1
  8
3
 10
315.11402044086662
 20
262.36022498818511
 30
0.0
 11
315.08996933624758
 21
262.44440367757619
 31
0.0
  0
LINE
  5
87B2
  8
3
 10
315.08996933624758
 20
262.44440367757619
 30
0.0
 11
315.05389270266687
 21
262.52858236029653
 31
0.0
  0
LINE
  5
87B3
  8
3
 10
314.20008023976908
 20
262.3602244812069
 30
0.0
 11
314.2000801930738
 21
262.44440318393953
 31
0.0
  0
LINE
  5
87B4
  8
3
 10
314.2000801930738
 20
262.44440318393953
 30
0.0
 11
314.20008014304301
 21
262.5345946511531
 31
0.0
  0
LINE
  5
87B5
  8
3
 10
314.20008028979993
 20
262.27003301399333
 30
0.0
 11
314.20008023976908
 21
262.3602244812069
 31
0.0
  0
LINE
  5
87B6
  8
3
 10
314.20008033983061
 20
262.17984154677981
 30
0.0
 11
314.20008028979993
 21
262.27003301399333
 31
0.0
  0
LINE
  5
87B7
  8
3
 10
313.9174803391852
 20
262.30610944411569
 30
0.0
 11
313.89342934796912
 21
262.18585414115609
 31
0.0
  0
LINE
  5
87B8
  8
3
 10
313.94153133373652
 20
262.42035198259441
 30
0.0
 11
313.9174803391852
 21
262.30610944411569
 31
0.0
  0
LINE
  5
87B9
  8
3
 10
313.9836206250659
 20
262.52858176659839
 30
0.0
 11
313.94153133373652
 21
262.42035198259441
 31
0.0
  0
LINE
  5
87BA
  8
3
 10
315.1260462866897
 20
261.78901236917
 30
0.0
 11
315.13205899780462
 21
261.8852166041998
 31
0.0
  0
LINE
  5
87BB
  8
3
 10
315.12604634005578
 20
261.69280813747542
 30
0.0
 11
315.1260462866897
 21
261.78901236917
 31
0.0
  0
LINE
  5
87BC
  8
3
 10
315.13807170558391
 20
261.98743360371049
 30
0.0
 11
315.13807165221777
 21
262.083637835405
 31
0.0
  0
LINE
  5
87BD
  8
3
 10
315.13205899780462
 20
261.8852166041998
 30
0.0
 11
315.13807170558391
 21
261.98743360371049
 31
0.0
  0
LINE
  5
87BE
  8
3
 10
314.19406782550351
 20
261.72888420737661
 30
0.0
 11
314.19406777547272
 21
261.81907567459012
 31
0.0
  0
LINE
  5
87BF
  8
3
 10
313.87539126132009
 20
261.81306273333388
 30
0.0
 11
313.87539132802777
 21
261.69280744371582
 31
0.0
  0
LINE
  5
87C0
  8
3
 10
314.19406772544198
 20
261.9092671418037
 30
0.0
 11
314.1940676754113
 21
261.99945860901721
 31
0.0
  0
LINE
  5
87C1
  8
3
 10
314.1940676754113
 20
261.99945860901721
 30
0.0
 11
314.19406762538051
 21
262.08965007623078
 31
0.0
  0
LINE
  5
87C2
  8
3
 10
313.88140388571492
 20
262.06559884486728
 30
0.0
 11
313.87539119127712
 21
261.93933078743288
 31
0.0
  0
LINE
  5
87C3
  8
3
 10
313.87539119127712
 20
261.93933078743288
 30
0.0
 11
313.87539126132009
 21
261.81306273333388
 31
0.0
  0
LINE
  5
87C4
  8
3
 10
314.19406777547272
 20
261.81907567459012
 30
0.0
 11
314.19406772544198
 21
261.9092671418037
 31
0.0
  0
LINE
  5
87C5
  8
3
 10
312.83175115687828
 20
262.05958549669441
 30
0.0
 11
312.83776386132229
 21
262.1678152606861
 31
0.0
  0
LINE
  5
87C6
  8
3
 10
312.84377656576629
 20
262.27604502467773
 30
0.0
 11
312.84978927021041
 21
262.38427478866942
 31
0.0
  0
LINE
  5
87C7
  8
3
 10
312.84720821822418
 20
262.38427478866942
 30
0.0
 11
312.85923369048447
 21
262.4864917915155
 31
0.0
  0
LINE
  5
87C8
  8
3
 10
312.83776386132229
 20
262.1678152606861
 30
0.0
 11
312.84377656576629
 21
262.27604502467773
 31
0.0
  0
LINE
  5
87C9
  8
3
 10
312.83776409813453
 20
261.74090898254178
 30
0.0
 11
312.83776403809759
 21
261.84913874319818
 31
0.0
  0
LINE
  5
87CA
  8
3
 10
312.83175121357988
 20
261.95736850051912
 30
0.0
 11
312.83175115687828
 21
262.05958549669441
 31
0.0
  0
LINE
  5
87CB
  8
3
 10
312.83776403809759
 20
261.84913874319818
 30
0.0
 11
312.83175121357988
 21
261.95736850051912
 31
0.0
  0
LINE
  5
87CC
  8
3
 10
313.72507254287268
 20
261.10355644120273
 30
0.0
 11
313.67697042369008
 21
261.10956917900052
 31
0.0
  0
LINE
  5
87CD
  8
3
 10
313.60481734330989
 20
260.9412117335105
 30
0.0
 11
313.83330236356579
 21
260.99532674058321
 31
0.0
  0
LINE
  5
87CE
  8
3
 10
313.8994426260989
 20
261.25988841443228
 30
0.0
 11
313.90545543727518
 21
261.175709715035
 31
0.0
  0
LINE
  5
87CF
  8
3
 10
314.47065522176638
 20
261.31400361162167
 30
0.0
 11
314.42255310591918
 21
261.31400358493869
 31
0.0
  0
LINE
  5
87D0
  8
3
 10
315.13205931466592
 20
261.31400397851382
 30
0.0
 11
315.12003373567342
 21
261.40419543905659
 31
0.0
  0
LINE
  5
87D1
  8
3
 10
315.12003368230722
 20
261.50039967075111
 30
0.0
 11
315.12003362894109
 21
261.59660390244562
 31
0.0
  0
LINE
  5
87D2
  8
3
 10
315.12003373567342
 20
261.40419543905659
 30
0.0
 11
315.12003368230722
 21
261.50039967075111
 31
0.0
  0
LINE
  5
87D3
  8
3
 10
315.15009765813932
 20
261.2238125213064
 30
0.0
 11
315.13205931466592
 21
261.31400397851382
 31
0.0
  0
LINE
  5
87D4
  8
3
 10
314.9095870121954
 20
261.3440676775092
 30
0.0
 11
314.86749766416449
 21
261.33805488968062
 31
0.0
  0
LINE
  5
87D5
  8
3
 10
314.86749766416449
 20
261.33805488968062
 30
0.0
 11
314.82540831946892
 21
261.3260293373711
 31
0.0
  0
LINE
  5
87D6
  8
3
 10
314.82540831946892
 20
261.3260293373711
 30
0.0
 11
314.78331897143812
 21
261.32001654954257
 31
0.0
  0
LINE
  5
87D7
  8
3
 10
314.78331897143812
 20
261.32001654954257
 30
0.0
 11
314.74122962007169
 21
261.32001652619488
 31
0.0
  0
LINE
  5
87D8
  8
3
 10
314.74122962007169
 20
261.32001652619488
 30
0.0
 11
314.69312750755978
 21
261.31400373503089
 31
0.0
  0
LINE
  5
87D9
  8
3
 10
314.69312750755978
 20
261.31400373503089
 30
0.0
 11
314.65103815619358
 21
261.3140037116832
 31
0.0
  0
LINE
  5
87DA
  8
3
 10
314.51274457313269
 20
261.31400363496942
 30
0.0
 11
314.47065522176638
 21
261.31400361162167
 31
0.0
  0
LINE
  5
87DB
  8
3
 10
314.60293604034621
 20
261.3140036850001
 30
0.0
 11
314.56084668898012
 21
261.31400366165241
 31
0.0
  0
LINE
  5
87DC
  8
3
 10
314.56084668898012
 20
261.31400366165241
 30
0.0
 11
314.51274457313269
 21
261.31400363496942
 31
0.0
  0
LINE
  5
87DD
  8
3
 10
314.65103815619358
 20
261.3140037116832
 30
0.0
 11
314.60293604034621
 21
261.3140036850001
 31
0.0
  0
LINE
  5
87DE
  8
3
 10
314.20008078010108
 20
261.38615663530032
 30
0.0
 11
314.19406796892491
 21
261.47033533469772
 31
0.0
  0
LINE
  5
87DF
  8
3
 10
314.19406796892491
 20
261.47033533469772
 30
0.0
 11
314.19406792222958
 21
261.55451403743041
 31
0.0
  0
LINE
  5
87E0
  8
3
 10
314.19406792222958
 20
261.55451403743041
 30
0.0
 11
314.19406787219879
 21
261.64470550464398
 31
0.0
  0
LINE
  5
87E1
  8
3
 10
314.29027228733929
 20
261.3140035115602
 30
0.0
 11
314.20609359127741
 21
261.3019779359031
 31
0.0
  0
LINE
  5
87E2
  8
3
 10
314.20609359127741
 20
261.3019779359031
 30
0.0
 11
314.20008078010108
 21
261.38615663530032
 31
0.0
  0
LINE
  5
87E3
  8
3
 10
314.42255310591918
 20
261.31400358493869
 30
0.0
 11
314.37445099007192
 21
261.31400355825559
 31
0.0
  0
LINE
  5
87E4
  8
3
 10
314.33236163870561
 20
261.3140035349079
 30
0.0
 11
314.29027228733929
 21
261.3140035115602
 31
0.0
  0
LINE
  5
87E5
  8
3
 10
314.37445099007192
 20
261.31400355825559
 30
0.0
 11
314.33236163870561
 21
261.3140035349079
 31
0.0
  0
LINE
  5
87E6
  8
3
 10
313.89342980825188
 20
261.3560926427914
 30
0.0
 11
313.8994426260989
 21
261.25988841443228
 31
0.0
  0
LINE
  5
87E7
  8
3
 10
313.88140415921629
 20
261.57255215743322
 30
0.0
 11
313.88741698706968
 21
261.45830963563128
 31
0.0
  0
LINE
  5
87E8
  8
3
 10
313.88741698706968
 20
261.45830963563128
 30
0.0
 11
313.89342980825188
 21
261.3560926427914
 31
0.0
  0
LINE
  5
87E9
  8
3
 10
314.29027243076069
 20
261.05545463888137
 30
0.0
 11
314.52477023884529
 21
261.06748029792311
 31
0.0
  0
LINE
  5
87EA
  8
3
 10
314.75926805026518
 20
261.07349319248402
 30
0.0
 11
315.01180416179841
 21
261.06748056808908
 31
0.0
  0
LINE
  5
87EB
  8
3
 10
314.52477023884529
 20
261.06748029792311
 30
0.0
 11
314.75926805026518
 21
261.07349319248402
 31
0.0
  0
LINE
  5
87EC
  8
3
 10
313.83330236356579
 20
260.99532674058321
 30
0.0
 11
314.0617873938279
 21
261.0314034542132
 31
0.0
  0
LINE
  5
87ED
  8
3
 10
313.91146826846392
 20
261.05545442875228
 30
0.0
 11
313.86937890709129
 21
261.0734926988473
 31
0.0
  0
LINE
  5
87EE
  8
3
 10
313.77317466539068
 20
261.09153093892388
 30
0.0
 11
313.72507254287268
 21
261.10355644120273
 31
0.0
  0
LINE
  5
87EF
  8
3
 10
313.82127678457329
 20
261.08551820112598
 30
0.0
 11
313.77317466539068
 21
261.09153093892388
 31
0.0
  0
LINE
  5
87F0
  8
3
 10
313.86937890709129
 20
261.0734926988473
 30
0.0
 11
313.82127678457329
 21
261.08551820112598
 31
0.0
  0
LINE
  5
87F1
  8
3
 10
313.90545543727518
 20
261.175709715035
 30
0.0
 11
313.91146826846392
 21
261.05545442875228
 31
0.0
  0
LINE
  5
87F2
  8
3
 10
314.0617873938279
 20
261.0314034542132
 30
0.0
 11
314.29027243076069
 21
261.05545463888137
 31
0.0
  0
LINE
  5
87F3
  8
3
 10
313.17189816726938
 20
261.1817220725992
 30
0.0
 11
313.0696811577526
 21
261.20577307382132
 31
0.0
  0
LINE
  5
87F4
  8
3
 10
312.9494258147684
 20
261.30197723880809
 30
0.0
 11
312.93138751131949
 21
261.32001552224472
 31
0.0
  0
LINE
  5
87F5
  8
3
 10
313.0696811577526
 20
261.20577307382132
 30
0.0
 11
313.04563008982291
 21
261.22381135392249
 31
0.0
  0
LINE
  5
87F6
  8
3
 10
313.0215790252285
 20
261.23583686954282
 30
0.0
 11
313.00354072511499
 21
261.2478623884985
 31
0.0
  0
LINE
  5
87F7
  8
3
 10
313.00354072511499
 20
261.2478623884985
 30
0.0
 11
312.98550242166613
 21
261.26590067193513
 31
0.0
  0
LINE
  5
87F8
  8
3
 10
312.98550242166613
 20
261.26590067193513
 30
0.0
 11
312.96746411821721
 21
261.28393895537158
 31
0.0
  0
LINE
  5
87F9
  8
3
 10
312.96746411821721
 20
261.28393895537158
 30
0.0
 11
312.9494258147684
 21
261.30197723880809
 31
0.0
  0
LINE
  5
87FA
  8
3
 10
313.04563008982291
 20
261.22381135392249
 30
0.0
 11
313.0215790252285
 21
261.23583686954282
 31
0.0
  0
LINE
  5
87FB
  8
3
 10
312.93138751131949
 20
261.32001552224472
 30
0.0
 11
312.91936196901622
 21
261.34406657349751
 31
0.0
  0
LINE
  5
87FC
  8
3
 10
312.91936196901622
 20
261.34406657349751
 30
0.0
 11
312.9073364300483
 21
261.36210486026948
 31
0.0
  0
LINE
  5
87FD
  8
3
 10
312.9073364300483
 20
261.36210486026948
 30
0.0
 11
312.89531088774493
 21
261.38615591152228
 31
0.0
  0
LINE
  5
87FE
  8
3
 10
312.85322148301242
 20
261.48236011986921
 30
0.0
 11
312.84720869518389
 21
261.52444946790001
 31
0.0
  0
LINE
  5
87FF
  8
3
 10
312.84978974717012
 20
261.52444946790001
 30
0.0
 11
312.8437769226523
 21
261.63267922522101
 31
0.0
  0
LINE
  5
8800
  8
3
 10
312.88328534544161
 20
261.41020696277519
 30
0.0
 11
312.87125980313817
 21
261.43425801402799
 31
0.0
  0
LINE
  5
8801
  8
3
 10
312.8652470253158
 20
261.4583090686163
 30
0.0
 11
312.85322148301242
 21
261.48236011986921
 31
0.0
  0
LINE
  5
8802
  8
3
 10
312.87125980313817
 20
261.43425801402799
 30
0.0
 11
312.8652470253158
 21
261.4583090686163
 31
0.0
  0
LINE
  5
8803
  8
3
 10
312.89531088774493
 20
261.38615591152228
 30
0.0
 11
312.88328534544161
 21
261.41020696277519
 31
0.0
  0
LINE
  5
8804
  8
3
 10
313.67697042369008
 20
261.10956917900052
 30
0.0
 11
313.62285554002659
 21
261.11558191346302
 31
0.0
  0
LINE
  5
8805
  8
3
 10
313.62285554002659
 20
261.11558191346302
 30
0.0
 11
313.56874065302759
 21
261.12760741240629
 31
0.0
  0
LINE
  5
8806
  8
3
 10
313.56874065302759
 20
261.12760741240629
 30
0.0
 11
313.50861300488327
 21
261.13362014353339
 31
0.0
  0
LINE
  5
8807
  8
3
 10
313.37633232972479
 20
260.87507119747607
 30
0.0
 11
313.60481734330989
 21
260.9412117335105
 31
0.0
  0
LINE
  5
8808
  8
3
 10
313.45449812121967
 20
261.13963287799589
 30
0.0
 11
313.39437047307541
 21
261.14564560912288
 31
0.0
  0
LINE
  5
8809
  8
3
 10
313.39437047307541
 20
261.14564560912288
 30
0.0
 11
313.34025558941181
 21
261.15165834358538
 31
0.0
  0
LINE
  5
880A
  8
3
 10
313.34025558941181
 20
261.15165834358538
 30
0.0
 11
313.28012793793192
 21
261.16368383919342
 31
0.0
  0
LINE
  5
880B
  8
3
 10
313.50861300488327
 20
261.13362014353339
 30
0.0
 11
313.45449812121967
 21
261.13963287799589
 31
0.0
  0
LINE
  5
880C
  8
3
 10
313.22601305426849
 20
261.16969657365581
 30
0.0
 11
313.17189816726938
 21
261.1817220725992
 31
0.0
  0
LINE
  5
880D
  8
3
 10
313.14183456500018
 20
260.78487960018259
 30
0.0
 11
313.37633232972479
 21
260.87507119747607
 31
0.0
  0
LINE
  5
880E
  8
3
 10
313.28012793793192
 20
261.16368383919342
 30
0.0
 11
313.22601305426849
 21
261.16969657365581
 31
0.0
  0
LINE
  5
880F
  8
3
 10
315.19218788671128
 20
259.64245548617617
 30
0.0
 11
315.21623895130568
 21
259.63042997055601
 31
0.0
  0
LINE
  5
8810
  8
3
 10
315.24630258692872
 20
259.96714479816347
 30
0.0
 11
315.01781753998978
 21
259.96113190693808
 31
0.0
  0
LINE
  5
8811
  8
3
 10
315.49282593064572
 20
259.9671449349143
 30
0.0
 11
315.24630258692872
 21
259.96714479816347
 31
0.0
  0
LINE
  5
8812
  8
3
 10
315.73934927102761
 20
259.97315783614579
 30
0.0
 11
315.49282593064572
 21
259.9671449349143
 31
0.0
  0
LINE
  5
8813
  8
3
 10
315.54694111782919
 20
259.41397063268948
 30
0.0
 11
315.60706879599201
 21
259.35384302123441
 31
0.0
  0
LINE
  5
8814
  8
3
 10
315.36054533887187
 20
259.55827687683438
 30
0.0
 11
315.40864747139608
 21
259.52821308111288
 31
0.0
  0
LINE
  5
8815
  8
3
 10
315.40864747139608
 20
259.52821308111288
 30
0.0
 11
315.48080067518549
 21
259.47409824080938
 31
0.0
  0
LINE
  5
8816
  8
3
 10
315.31244320968329
 20
259.58232790807489
 30
0.0
 11
315.33649427427758
 21
259.57030239245472
 31
0.0
  0
LINE
  5
8817
  8
3
 10
315.33649427427758
 20
259.57030239245472
 30
0.0
 11
315.36054533887187
 21
259.55827687683438
 31
0.0
  0
LINE
  5
8818
  8
3
 10
315.24029001590009
 20
259.61840445493578
 30
0.0
 11
315.26434108049449
 21
259.6063789393155
 31
0.0
  0
LINE
  5
8819
  8
3
 10
315.26434108049449
 20
259.6063789393155
 30
0.0
 11
315.28839214508889
 21
259.59435342369522
 31
0.0
  0
LINE
  5
881A
  8
3
 10
315.28839214508889
 20
259.59435342369522
 30
0.0
 11
315.31244320968329
 21
259.58232790807489
 31
0.0
  0
LINE
  5
881B
  8
3
 10
315.21623895130568
 20
259.63042997055601
 30
0.0
 11
315.24029001590009
 21
259.61840445493578
 31
0.0
  0
LINE
  5
881C
  8
3
 10
315.48080067518549
 20
259.47409824080938
 30
0.0
 11
315.54694111782919
 21
259.41397063268948
 31
0.0
  0
LINE
  5
881D
  8
3
 10
315.82352846739678
 20
259.0832687396674
 30
0.0
 11
315.86561785878769
 21
259.01111558924418
 31
0.0
  0
LINE
  5
881E
  8
3
 10
315.60706879599201
 20
259.35384302123441
 30
0.0
 11
315.66719647749039
 21
259.28770264529811
 31
0.0
  0
LINE
  5
881F
  8
3
 10
315.66719647749039
 20
259.28770264529811
 30
0.0
 11
315.72131139450761
 21
259.22156226602658
 31
0.0
  0
LINE
  5
8820
  8
3
 10
315.72131139450761
 20
259.22156226602658
 30
0.0
 11
315.77542631152488
 21
259.15542188675511
 31
0.0
  0
LINE
  5
8821
  8
3
 10
315.77542631152488
 20
259.15542188675511
 30
0.0
 11
315.82352846739678
 21
259.0832687396674
 31
0.0
  0
LINE
  5
8822
  8
3
 10
313.66494560182917
 20
259.83486310237799
 30
0.0
 11
313.62886902161478
 21
259.82283755340387
 31
0.0
  0
LINE
  5
8823
  8
3
 10
312.83776545563529
 20
259.29371383881391
 30
0.0
 11
312.83776472852179
 21
260.60449649565101
 31
0.0
  0
LINE
  5
8824
  8
3
 10
313.70102218204408
 20
259.84688865135217
 30
0.0
 11
313.66494560182917
 21
259.83486310237799
 31
0.0
  0
LINE
  5
8825
  8
3
 10
314.59692402632658
 20
259.9611316734613
 30
0.0
 11
314.41654109523478
 21
259.955118808919
 31
0.0
  0
LINE
  5
8826
  8
3
 10
315.01781753998978
 20
259.96113190693808
 30
0.0
 11
314.79534525419638
 21
259.96113178352891
 31
0.0
  0
LINE
  5
8827
  8
3
 10
314.79534525419638
 20
259.96113178352891
 30
0.0
 11
314.59692402632658
 21
259.9611316734613
 31
0.0
  0
LINE
  5
8828
  8
3
 10
314.41654109523478
 20
259.955118808919
 30
0.0
 11
314.26622198654752
 21
259.94910596105348
 31
0.0
  0
LINE
  5
8829
  8
3
 10
313.92950719229378
 20
259.91904195186748
 30
0.0
 11
313.88741784759827
 21
259.90701639955802
 31
0.0
  0
LINE
  5
882A
  8
3
 10
313.88741784759827
 20
259.90701639955802
 30
0.0
 11
313.85134126738348
 21
259.89499085058389
 31
0.0
  0
LINE
  5
882B
  8
3
 10
314.00767312053938
 20
259.93708028867019
 30
0.0
 11
313.96558377250841
 21
259.93106750084149
 31
0.0
  0
LINE
  5
882C
  8
3
 10
313.96558377250841
 20
259.93106750084149
 30
0.0
 11
313.92950719229378
 21
259.91904195186748
 31
0.0
  0
LINE
  5
882D
  8
3
 10
314.14596669692929
 20
259.94910589434579
 30
0.0
 11
314.00767312053938
 21
259.93708028867019
 31
0.0
  0
LINE
  5
882E
  8
3
 10
313.77317534247328
 20
259.87093974930042
 30
0.0
 11
313.73709876225871
 21
259.85891420032618
 31
0.0
  0
LINE
  5
882F
  8
3
 10
313.73709876225871
 20
259.85891420032618
 30
0.0
 11
313.70102218204408
 21
259.84688865135217
 31
0.0
  0
LINE
  5
8830
  8
3
 10
313.80925192268802
 20
259.88296529827448
 30
0.0
 11
313.77317534247328
 21
259.87093974930042
 31
0.0
  0
LINE
  5
8831
  8
3
 10
313.85134126738348
 20
259.89499085058389
 30
0.0
 11
313.80925192268802
 21
259.88296529827448
 31
0.0
  0
LINE
  5
8832
  8
3
 10
314.26622198654752
 20
259.94910596105348
 30
0.0
 11
314.14596669692929
 21
259.94910589434579
 31
0.0
  0
LINE
  5
8833
  8
3
 10
312.83776472852179
 20
260.60449649565101
 30
0.0
 11
312.83776472518639
 21
260.61050926013189
 31
0.0
  0
LINE
  5
8834
  8
3
 10
312.83776472518639
 20
260.61050926013189
 30
0.0
 11
312.84377748633199
 21
260.61652202794812
 31
0.0
  0
LINE
  5
8835
  8
3
 10
312.84377748633199
 20
260.61652202794812
 30
0.0
 11
312.84979025081287
 21
260.61652203128352
 31
0.0
  0
LINE
  5
8836
  8
3
 10
312.8472091988267
 20
260.61652203128352
 30
0.0
 11
312.85322196330742
 21
260.61652203461892
 31
0.0
  0
LINE
  5
8837
  8
3
 10
312.85322196330742
 20
260.61652203461892
 30
0.0
 11
312.85923472445307
 21
260.62253480243521
 31
0.0
  0
LINE
  5
8838
  8
3
 10
312.85923472445307
 20
260.62253480243521
 30
0.0
 11
312.86524748893402
 21
260.62253480577061
 31
0.0
  0
LINE
  5
8839
  8
3
 10
312.86524748893402
 20
260.62253480577061
 30
0.0
 11
312.8712602500795
 21
260.6285475735869
 31
0.0
  0
LINE
  5
883A
  8
3
 10
312.8712602500795
 20
260.6285475735869
 30
0.0
 11
312.87727301456039
 21
260.62854757692219
 31
0.0
  0
LINE
  5
883B
  8
3
 10
312.87727301456039
 20
260.62854757692219
 30
0.0
 11
312.88929854352227
 21
260.62854758359299
 31
0.0
  0
LINE
  5
883C
  8
3
 10
312.88929854352227
 20
260.62854758359299
 30
0.0
 11
312.88929854018693
 21
260.63456034807388
 31
0.0
  0
LINE
  5
883D
  8
3
 10
312.88929854018693
 20
260.63456034807388
 30
0.0
 11
312.88929853685153
 21
260.64057311255482
 31
0.0
  0
LINE
  5
883E
  8
3
 10
312.88929853685153
 20
260.64057311255482
 30
0.0
 11
312.88929853351613
 21
260.6465858770357
 31
0.0
  0
LINE
  5
883F
  8
3
 10
312.88929853351613
 20
260.6465858770357
 30
0.0
 11
312.8953112979969
 21
260.64658588037111
 31
0.0
  0
LINE
  5
8840
  8
3
 10
312.89531129466161
 20
260.65259864485188
 30
0.0
 11
312.89531129132621
 21
260.65861140933288
 31
0.0
  0
LINE
  5
8841
  8
3
 10
312.89531129132621
 20
260.65861140933288
 30
0.0
 11
312.89531128799081
 21
260.66462417381382
 31
0.0
  0
LINE
  5
8842
  8
3
 10
312.89531128799081
 20
260.66462417381382
 30
0.0
 11
312.90132404913629
 21
260.67063694163011
 31
0.0
  0
LINE
  5
8843
  8
3
 10
312.8953112979969
 20
260.64658588037111
 30
0.0
 11
312.89531129466161
 21
260.65259864485188
 31
0.0
  0
LINE
  5
8844
  8
3
 10
313.640894677321
 20
259.59435250980027
 30
0.0
 11
313.70703506659868
 21
259.63042913337489
 31
0.0
  0
LINE
  5
8845
  8
3
 10
314.44660499768838
 20
259.81081247805412
 30
0.0
 11
314.50071987801653
 21
259.81081250807262
 31
0.0
  0
LINE
  5
8846
  8
3
 10
315.12003469292819
 20
259.67853203303707
 30
0.0
 11
315.14408575752248
 21
259.66650651741679
 31
0.0
  0
LINE
  5
8847
  8
3
 10
315.09598362833373
 20
259.69055754865752
 30
0.0
 11
315.12003469292819
 21
259.67853203303707
 31
0.0
  0
LINE
  5
8848
  8
3
 10
315.14408575752248
 20
259.66650651741679
 30
0.0
 11
315.16813682211688
 21
259.65448100179663
 31
0.0
  0
LINE
  5
8849
  8
3
 10
315.16813682211688
 20
259.65448100179663
 30
0.0
 11
315.19218788671128
 21
259.64245548617617
 31
0.0
  0
LINE
  5
884A
  8
3
 10
315.07193256373938
 20
259.70258306427769
 30
0.0
 11
315.09598362833373
 21
259.69055754865752
 31
0.0
  0
LINE
  5
884B
  8
3
 10
314.65705175785553
 20
259.80479983031159
 30
0.0
 11
314.7111666415189
 21
259.79878709584932
 31
0.0
  0
LINE
  5
884C
  8
3
 10
314.7111666415189
 20
259.79878709584932
 30
0.0
 11
314.7652815285179
 21
259.78676159690588
 31
0.0
  0
LINE
  5
884D
  8
3
 10
314.7652815285179
 20
259.78676159690588
 30
0.0
 11
314.8193964121815
 21
259.78074886244337
 31
0.0
  0
LINE
  5
884E
  8
3
 10
314.8193964121815
 20
259.78074886244337
 30
0.0
 11
314.87351129918039
 21
259.76872336349999
 31
0.0
  0
LINE
  5
884F
  8
3
 10
314.87351129918039
 20
259.76872336349999
 30
0.0
 11
314.92161342169828
 21
259.75669786122131
 31
0.0
  0
LINE
  5
8850
  8
3
 10
314.92161342169828
 20
259.75669786122131
 30
0.0
 11
315.02984319903157
 21
259.72663409885359
 31
0.0
  0
LINE
  5
8851
  8
3
 10
315.02984319903157
 20
259.72663409885359
 30
0.0
 11
315.04788149914498
 21
259.71460857989803
 31
0.0
  0
LINE
  5
8852
  8
3
 10
315.04788149914498
 20
259.71460857989803
 30
0.0
 11
315.07193256373938
 21
259.70258306427769
 31
0.0
  0
LINE
  5
8853
  8
3
 10
314.50071987801653
 20
259.81081250807262
 30
0.0
 11
314.55483475834473
 21
259.810812538091
 31
0.0
  0
LINE
  5
8854
  8
3
 10
314.55483475834473
 20
259.810812538091
 30
0.0
 11
314.60894964200833
 21
259.80479980362861
 31
0.0
  0
LINE
  5
8855
  8
3
 10
314.60894964200833
 20
259.80479980362861
 30
0.0
 11
314.65705175785553
 21
259.80479983031159
 31
0.0
  0
LINE
  5
8856
  8
3
 10
314.17001784157299
 20
259.79277403118391
 30
0.0
 11
314.2241327152305
 21
259.80479959016412
 31
0.0
  0
LINE
  5
8857
  8
3
 10
314.2241327152305
 20
259.80479959016412
 30
0.0
 11
314.27824759555858
 21
259.80479962018262
 31
0.0
  0
LINE
  5
8858
  8
3
 10
314.38647735287941
 20
259.81081244470028
 30
0.0
 11
314.44660499768838
 21
259.81081247805412
 31
0.0
  0
LINE
  5
8859
  8
3
 10
314.27824759555858
 20
259.80479962018262
 30
0.0
 11
314.33236247255132
 21
259.81081241468178
 31
0.0
  0
LINE
  5
885A
  8
3
 10
314.33236247255132
 20
259.81081241468178
 30
0.0
 11
314.38647735287941
 21
259.81081244470028
 31
0.0
  0
LINE
  5
885B
  8
3
 10
313.85134137745121
 20
259.69656962271409
 30
0.0
 11
313.92950729902611
 21
259.72663348847863
 31
0.0
  0
LINE
  5
885C
  8
3
 10
313.92950729902611
 20
259.72663348847863
 30
0.0
 11
314.00767322393631
 21
259.75068458976222
 31
0.0
  0
LINE
  5
885D
  8
3
 10
313.70703506659868
 20
259.63042913337489
 30
0.0
 11
313.7791882203573
 21
259.66650576028502
 31
0.0
  0
LINE
  5
885E
  8
3
 10
313.7791882203573
 20
259.66650576028502
 30
0.0
 11
313.85134137745121
 21
259.69656962271409
 31
0.0
  0
LINE
  5
885F
  8
3
 10
314.00767322393631
 20
259.75068458976222
 30
0.0
 11
314.17001784157299
 21
259.79277403118391
 31
0.0
  0
LINE
  5
8860
  8
3
 10
313.32221829324851
 20
259.35384175378891
 30
0.0
 11
313.3823459080391
 21
259.4079566674709
 31
0.0
  0
LINE
  5
8861
  8
3
 10
312.93740134645827
 20
259.38991812720991
 30
0.0
 11
312.90132477624968
 21
259.35985428479302
 31
0.0
  0
LINE
  5
8862
  8
3
 10
312.9734779166667
 20
259.41998196962669
 30
0.0
 11
312.93740134645827
 21
259.38991812720991
 31
0.0
  0
LINE
  5
8863
  8
3
 10
313.3823459080391
 20
259.4079566674709
 30
0.0
 11
313.44247352282969
 21
259.46207158115283
 31
0.0
  0
LINE
  5
8864
  8
3
 10
313.50861390877202
 20
259.50416096920827
 30
0.0
 11
313.5687415268979
 21
259.55226311840943
 31
0.0
  0
LINE
  5
8865
  8
3
 10
313.44247352282969
 20
259.46207158115283
 30
0.0
 11
313.50861390877202
 21
259.50416096920827
 31
0.0
  0
LINE
  5
8866
  8
3
 10
313.5687415268979
 20
259.55226311840943
 30
0.0
 11
313.640894677321
 21
259.59435250980027
 31
0.0
  0
LINE
  5
8867
  8
3
 10
313.43646060825643
 20
259.73264597945808
 30
0.0
 11
313.38835850241537
 21
259.71460765933239
 31
0.0
  0
LINE
  5
8868
  8
3
 10
313.38835850241537
 20
259.71460765933239
 30
0.0
 11
313.34025639990978
 21
259.69055657472569
 31
0.0
  0
LINE
  5
8869
  8
3
 10
313.34025639990978
 20
259.69055657472569
 30
0.0
 11
313.2981670618849
 21
259.66650549345439
 31
0.0
  0
LINE
  5
886A
  8
3
 10
313.2981670618849
 20
259.66650549345439
 30
0.0
 11
313.25607772386007
 21
259.64245441218299
 31
0.0
  0
LINE
  5
886B
  8
3
 10
313.59279244140009
 20
259.81081200442969
 30
0.0
 11
313.55671586452081
 21
259.79277369097491
 31
0.0
  0
LINE
  5
886C
  8
3
 10
313.55671586452081
 20
259.79277369097491
 30
0.0
 11
313.52665204878713
 21
259.78074814533619
 31
0.0
  0
LINE
  5
886D
  8
3
 10
313.52665204878713
 20
259.78074814533619
 30
0.0
 11
313.49057546857239
 21
259.76872259636201
 31
0.0
  0
LINE
  5
886E
  8
3
 10
313.49057546857239
 20
259.76872259636201
 30
0.0
 11
313.43646060825643
 21
259.73264597945808
 31
0.0
  0
LINE
  5
886F
  8
3
 10
313.62886902161478
 20
259.82283755340387
 30
0.0
 11
313.59279244140009
 21
259.81081200442969
 31
0.0
  0
LINE
  5
8870
  8
3
 10
313.0035417223944
 20
259.45004580870813
 30
0.0
 11
312.9734779166667
 21
259.41998196962669
 31
0.0
  0
LINE
  5
8871
  8
3
 10
313.22000115031619
 20
259.6184033342472
 30
0.0
 11
313.17791181562689
 21
259.58833948849502
 31
0.0
  0
LINE
  5
8872
  8
3
 10
313.17791181562689
 20
259.58833948849502
 30
0.0
 11
313.14183524208289
 21
259.56428841055907
 31
0.0
  0
LINE
  5
8873
  8
3
 10
313.14183524208289
 20
259.56428841055907
 30
0.0
 11
313.10575867187453
 21
259.53422456814218
 31
0.0
  0
LINE
  5
8874
  8
3
 10
313.10575867187453
 20
259.53422456814218
 30
0.0
 11
313.07569486281147
 21
259.51017349354169
 31
0.0
  0
LINE
  5
8875
  8
3
 10
313.07569486281147
 20
259.51017349354169
 30
0.0
 11
313.039618292603
 21
259.48010965112491
 31
0.0
  0
LINE
  5
8876
  8
3
 10
313.039618292603
 20
259.48010965112491
 30
0.0
 11
313.0035417223944
 21
259.45004580870813
 31
0.0
  0
LINE
  5
8877
  8
3
 10
313.25607772386007
 20
259.64245441218299
 30
0.0
 11
313.22000115031619
 21
259.6184033342472
 31
0.0
  0
LINE
  5
8878
  8
3
 10
313.2681034462741
 20
259.29371407896139
 30
0.0
 11
313.32221829324851
 21
259.35384175378891
 31
0.0
  0
LINE
  5
8879
  8
3
 10
313.01556753486381
 20
258.93896083450198
 30
0.0
 11
313.03360581162963
 21
258.96902466691267
 31
0.0
  0
LINE
  5
887A
  8
3
 10
313.03360581162963
 20
258.96902466691267
 30
0.0
 11
313.05164408505988
 21
259.00510126380419
 31
0.0
  0
LINE
  5
887B
  8
3
 10
313.05164408505988
 20
259.00510126380419
 30
0.0
 11
313.0756951263067
 21
259.03516509955028
 31
0.0
  0
LINE
  5
887C
  8
3
 10
313.0756951263067
 20
259.03516509955028
 30
0.0
 11
313.11778444431911
 21
259.09529276770689
 31
0.0
  0
LINE
  5
887D
  8
3
 10
313.16588652014173
 20
259.16744596816091
 30
0.0
 11
313.2139885992998
 21
259.23358640413392
 31
0.0
  0
LINE
  5
887E
  8
3
 10
313.11778444431911
 20
259.09529276770689
 30
0.0
 11
313.16588652014173
 21
259.16744596816091
 31
0.0
  0
LINE
  5
887F
  8
3
 10
313.2139885992998
 20
259.23358640413392
 30
0.0
 11
313.2681034462741
 21
259.29371407896139
 31
0.0
  0
LINE
  5
8880
  8
3
 10
312.90132477624968
 20
259.35985428479302
 30
0.0
 11
312.83518440364901
 21
259.29371383881391
 31
0.0
  0
LINE
  5
8881
  8
3
 10
315.0298457039039
 20
255.21104797369449
 30
0.0
 11
315.02383290940458
 21
255.26516285068729
 31
0.0
  0
LINE
  5
8882
  8
3
 10
314.18805864655877
 20
255.2651623870691
 30
0.0
 11
314.24818629803872
 21
255.2531368914612
 31
0.0
  0
LINE
  5
8883
  8
3
 10
313.640897092138
 20
255.24111102562571
 30
0.0
 11
313.71906302038383
 21
255.25914936242839
 31
0.0
  0
LINE
  5
8884
  8
3
 10
315.66719770157579
 20
257.0810180808063
 30
0.0
 11
315.6070700534313
 21
257.0870308119334
 31
0.0
  0
LINE
  5
8885
  8
3
 10
315.2282658911343
 20
257.08703060180432
 30
0.0
 11
315.1080106081871
 21
257.0750050061348
 31
0.0
  0
LINE
  5
8886
  8
3
 10
315.1080106081871
 20
257.0750050061348
 30
0.0
 11
315.09598502252368
 21
257.17722199563951
 31
0.0
  0
LINE
  5
8887
  8
3
 10
313.74912579214271
 20
257.15317019059012
 30
0.0
 11
313.76115138114142
 21
257.04494043660452
 31
0.0
  0
ARC
  5
8888
  8
3
 10
313.62949464827182
 20
256.9990260094205
 30
0.0
 40
0.1345755430122404
 50
11.95486916277236
 51
84.968390922131817
  0
LINE
  5
8889
  8
3
 10
315.6070700534313
 20
257.0870308119334
 30
0.0
 11
315.54694240862227
 21
257.08703077857962
 31
0.0
  0
LINE
  5
888A
  8
3
 10
315.42067435452333
 20
257.08703070853647
 30
0.0
 11
315.35453394189801
 21
257.09304343632817
 31
0.0
  0
LINE
  5
888B
  8
3
 10
315.4808019993323
 20
257.08703074189037
 30
0.0
 11
315.42067435452333
 21
257.08703070853647
 31
0.0
  0
LINE
  5
888C
  8
3
 10
315.29440630042421
 20
257.0870306384935
 30
0.0
 11
315.2282658911343
 21
257.08703060180432
 31
0.0
  0
LINE
  5
888D
  8
3
 10
315.35453394189801
 20
257.09304343632817
 30
0.0
 11
315.29440630042421
 21
257.0870306384935
 31
0.0
  0
LINE
  5
888E
  8
3
 10
315.54694240862227
 20
257.08703077857962
 30
0.0
 11
315.4808019993323
 21
257.08703074189037
 31
0.0
  0
LINE
  5
888F
  8
3
 10
315.09598457891781
 20
257.97691967159972
 30
0.0
 11
315.0839589965899
 21
258.07312389662337
 31
0.0
  0
LINE
  5
8890
  8
3
 10
314.83743540271911
 20
258.52408109594057
 30
0.0
 11
314.8374361365033
 21
257.2012729101416
 31
0.0
  0
LINE
  5
8891
  8
3
 10
313.77317636643579
 20
258.02502105366273
 30
0.0
 11
313.76115089751102
 21
257.91679128633569
 31
0.0
  0
LINE
  5
8892
  8
3
 10
314.1098916409847
 20
257.18924697759849
 30
0.0
 11
314.10387811270118
 21
258.5661700403902
 31
0.0
  0
LINE
  5
8893
  8
3
 10
312.78365129574979
 20
257.99495668091998
 30
0.0
 11
312.78966401687069
 21
258.07312262250719
 31
0.0
  0
LINE
  5
8894
  8
3
 10
314.98174181029782
 20
258.41585141533341
 30
0.0
 11
314.87351197292759
 21
258.5541449383573
 31
0.0
  0
LINE
  5
8895
  8
3
 10
313.95355906071541
 20
258.45794019634928
 30
0.0
 11
313.92950801613341
 21
258.43388912508419
 31
0.0
  0
LINE
  5
8896
  8
3
 10
314.87351197292759
 20
258.5541449383573
 30
0.0
 11
314.8674992084467
 21
258.55414493502201
 31
0.0
  0
LINE
  5
8897
  8
3
 10
314.8674992084467
 20
258.55414493502201
 30
0.0
 11
314.86148644396587
 21
258.55414493168661
 31
0.0
  0
LINE
  5
8898
  8
3
 10
314.86148644396587
 20
258.55414493168661
 30
0.0
 11
314.85547367948487
 21
258.55414492835121
 31
0.0
  0
LINE
  5
8899
  8
3
 10
314.85547367948487
 20
258.55414492835121
 30
0.0
 11
314.84946091500399
 21
258.55414492501581
 31
0.0
  0
LINE
  5
889A
  8
3
 10
314.84946091500399
 20
258.55414492501581
 30
0.0
 11
314.84946091833939
 21
258.54813216053492
 31
0.0
  0
LINE
  5
889B
  8
3
 10
314.84946091833939
 20
258.54813216053492
 30
0.0
 11
314.8434481538585
 21
258.54813215719952
 31
0.0
  0
LINE
  5
889C
  8
3
 10
314.8434481538585
 20
258.54813215719952
 30
0.0
 11
314.8434481571939
 21
258.54211939271858
 31
0.0
  0
LINE
  5
889D
  8
3
 10
314.8434481571939
 20
258.54211939271858
 30
0.0
 11
314.83743539271302
 21
258.54211938938329
 31
0.0
  0
LINE
  5
889E
  8
3
 10
314.83743539271302
 20
258.54211938938329
 30
0.0
 11
314.83743539604842
 21
258.5361066249024
 31
0.0
  0
LINE
  5
889F
  8
3
 10
314.83743539604842
 20
258.5361066249024
 30
0.0
 11
314.83743540271911
 21
258.52408109594057
 31
0.0
  0
LINE
  5
88A0
  8
3
 10
314.01969942998079
 20
258.53009340680939
 30
0.0
 11
313.99564838539868
 21
258.50604233554429
 31
0.0
  0
LINE
  5
88A1
  8
3
 10
313.99564838539868
 20
258.50604233554429
 30
0.0
 11
313.97761010196211
 21
258.48800403209538
 31
0.0
  0
LINE
  5
88A2
  8
3
 10
313.97761010196211
 20
258.48800403209538
 30
0.0
 11
313.95355906071541
 21
258.45794019634928
 31
0.0
  0
LINE
  5
88A3
  8
3
 10
314.08583981925852
 20
258.56617003038411
 30
0.0
 11
314.06178876467021
 21
258.56015725256162
 31
0.0
  0
LINE
  5
88A4
  8
3
 10
314.06178876467021
 20
258.56015725256162
 30
0.0
 11
314.04375047789819
 21
258.54813171359359
 31
0.0
  0
LINE
  5
88A5
  8
3
 10
314.04375047789819
 20
258.54813171359359
 30
0.0
 11
314.01969942998079
 21
258.53009340680939
 31
0.0
  0
LINE
  5
88A6
  8
3
 10
314.10387811270118
 20
258.5661700403902
 30
0.0
 11
314.08583981925852
 21
258.56617003038411
 31
0.0
  0
LINE
  5
88A7
  8
3
 10
315.0839589965899
 20
258.07312389662337
 30
0.0
 11
315.07193341759739
 21
258.1633153571662
 31
0.0
  0
LINE
  5
88A8
  8
3
 10
315.0478823129784
 20
258.24749404655728
 30
0.0
 11
315.01781844387853
 21
258.33167273261301
 31
0.0
  0
LINE
  5
88A9
  8
3
 10
315.01781844387853
 20
258.33167273261301
 30
0.0
 11
314.98174181029782
 21
258.41585141533341
 31
0.0
  0
LINE
  5
88AA
  8
3
 10
315.07193341759739
 20
258.1633153571662
 30
0.0
 11
315.0478823129784
 21
258.24749404655728
 31
0.0
  0
LINE
  5
88AB
  8
3
 10
313.92950801613341
 20
258.43388912508419
 30
0.0
 11
313.90545697155119
 21
258.40983805381899
 31
0.0
  0
LINE
  5
88AC
  8
3
 10
313.90545697155119
 20
258.40983805381899
 30
0.0
 11
313.88741869478548
 21
258.3797742214083
 31
0.0
  0
LINE
  5
88AD
  8
3
 10
313.88741869478548
 20
258.3797742214083
 30
0.0
 11
313.86336765020337
 21
258.35572315014321
 31
0.0
  0
LINE
  5
88AE
  8
3
 10
313.86336765020337
 20
258.35572315014321
 30
0.0
 11
313.84532937343761
 21
258.32565931773257
 31
0.0
  0
LINE
  5
88AF
  8
3
 10
313.84532937343761
 20
258.32565931773257
 30
0.0
 11
313.83330385781721
 21
258.30160825313823
 31
0.0
  0
LINE
  5
88B0
  8
3
 10
313.8152655743807
 20
258.28356994968931
 30
0.0
 11
313.79722730095023
 21
258.24749335279768
 31
0.0
  0
LINE
  5
88B1
  8
3
 10
313.79722730095023
 20
258.24749335279768
 30
0.0
 11
313.77918906754451
 21
258.1392635821353
 31
0.0
  0
LINE
  5
88B2
  8
3
 10
313.83330385781721
 20
258.30160825313823
 30
0.0
 11
313.8152655743807
 21
258.28356994968931
 31
0.0
  0
LINE
  5
88B3
  8
3
 10
313.77918906754451
 20
258.1392635821353
 30
0.0
 11
313.77317636643579
 21
258.02502105366273
 31
0.0
  0
LINE
  5
88B4
  8
3
 10
312.82917213614019
 20
258.39781192782368
 30
0.0
 11
312.85322310734369
 21
258.55414381766877
 31
0.0
  0
LINE
  5
88B5
  8
3
 10
312.93138892218627
 20
258.77661614682222
 30
0.0
 11
312.94341443447132
 21
258.80667997589751
 31
0.0
  0
LINE
  5
88B6
  8
3
 10
312.94341443447132
 20
258.80667997589751
 30
0.0
 11
312.96145270790169
 21
258.84275657278903
 31
0.0
  0
LINE
  5
88B7
  8
3
 10
312.97949098466739
 20
258.87282040519972
 30
0.0
 11
312.99752925809793
 21
258.90889700209129
 31
0.0
  0
LINE
  5
88B8
  8
3
 10
312.96145270790169
 20
258.84275657278903
 30
0.0
 11
312.97949098466739
 21
258.87282040519972
 31
0.0
  0
LINE
  5
88B9
  8
3
 10
312.90132513980637
 20
258.70446295637441
 30
0.0
 11
312.91335064875602
 21
258.74053954993059
 31
0.0
  0
LINE
  5
88BA
  8
3
 10
312.91335064875602
 20
258.74053954993059
 30
0.0
 11
312.93138892218627
 21
258.77661614682222
 31
0.0
  0
LINE
  5
88BB
  8
3
 10
312.85322310734369
 20
258.55414381766877
 30
0.0
 11
312.85923584847711
 21
258.59623317237049
 31
0.0
  0
LINE
  5
88BC
  8
3
 10
312.85923584847711
 20
258.59623317237049
 30
0.0
 11
312.87126135742648
 21
258.63230976592672
 31
0.0
  0
LINE
  5
88BD
  8
3
 10
312.87126135742648
 20
258.63230976592672
 30
0.0
 11
312.88929963085701
 21
258.6683863628183
 31
0.0
  0
LINE
  5
88BE
  8
3
 10
312.88929963085701
 20
258.6683863628183
 30
0.0
 11
312.90132513980637
 21
258.70446295637441
 31
0.0
  0
LINE
  5
88BF
  8
3
 10
312.80770221692279
 20
258.2414800379787
 30
0.0
 11
312.81972770252452
 21
258.31964598290131
 31
0.0
  0
LINE
  5
88C0
  8
3
 10
312.81972770252452
 20
258.31964598290131
 30
0.0
 11
312.83175318812641
 21
258.39781192782368
 31
0.0
  0
LINE
  5
88C1
  8
3
 10
312.7956767346563
 20
258.15730132857527
 30
0.0
 11
312.80770221692279
 21
258.2414800379787
 31
0.0
  0
LINE
  5
88C2
  8
3
 10
312.78966401687069
 20
258.07312262250719
 30
0.0
 11
312.7956767346563
 21
258.15730132857527
 31
0.0
  0
LINE
  5
88C3
  8
3
 10
315.08997209127369
 20
257.47786021634931
 30
0.0
 11
315.09598479905299
 21
257.58007721586011
 31
0.0
  0
LINE
  5
88C4
  8
3
 10
313.74912555199512
 20
257.58608923321532
 30
0.0
 11
313.74311284755117
 21
257.47785946922352
 31
0.0
  0
LINE
  5
88C5
  8
3
 10
315.095984632284
 20
257.8807154399052
 30
0.0
 11
315.09598457891781
 21
257.97691967159972
 31
0.0
  0
LINE
  5
88C6
  8
3
 10
315.09598468565002
 20
257.7845112082108
 30
0.0
 11
315.095984632284
 21
257.8807154399052
 31
0.0
  0
LINE
  5
88C7
  8
3
 10
315.09598474235162
 20
257.6822942120354
 30
0.0
 11
315.09598468565002
 21
257.7845112082108
 31
0.0
  0
LINE
  5
88C8
  8
3
 10
315.09598479905299
 20
257.58007721586011
 30
0.0
 11
315.09598474235162
 21
257.6822942120354
 31
0.0
  0
LINE
  5
88C9
  8
3
 10
313.76115089751102
 20
257.91679128633569
 30
0.0
 11
313.75513819640241
 21
257.80254875786318
 31
0.0
  0
LINE
  5
88CA
  8
3
 10
313.75513819640241
 20
257.80254875786318
 30
0.0
 11
313.7491254919583
 21
257.69431899387149
 31
0.0
  0
LINE
  5
88CB
  8
3
 10
313.7491254919583
 20
257.69431899387149
 30
0.0
 11
313.74912555199512
 21
257.58608923321532
 31
0.0
  0
LINE
  5
88CC
  8
3
 10
314.4646447453581
 20
257.18924717438608
 30
0.0
 11
314.42856815847267
 21
257.18924715437379
 31
0.0
  0
LINE
  5
88CD
  8
3
 10
315.09598502252368
 20
257.17722199563951
 30
0.0
 11
315.08997220134131
 21
257.2794389884794
 31
0.0
  0
LINE
  5
88CE
  8
3
 10
314.8374361365033
 20
257.2012729101416
 30
0.0
 11
314.77730849169433
 21
257.20127287678781
 31
0.0
  0
LINE
  5
88CF
  8
3
 10
314.77730849169433
 20
257.20127287678781
 30
0.0
 11
314.72319361136613
 21
257.20127284676943
 31
0.0
  0
LINE
  5
88D0
  8
3
 10
314.72319361136613
 20
257.20127284676943
 30
0.0
 11
314.67509149885427
 21
257.19526005560527
 31
0.0
  0
LINE
  5
88D1
  8
3
 10
314.67509149885427
 20
257.19526005560527
 30
0.0
 11
314.62698938300713
 21
257.19526002892229
 31
0.0
  0
LINE
  5
88D2
  8
3
 10
315.08997214797517
 20
257.37564322017391
 30
0.0
 11
315.08997209127369
 21
257.47786021634931
 31
0.0
  0
LINE
  5
88D3
  8
3
 10
315.08997220134131
 20
257.2794389884794
 30
0.0
 11
315.08997214797517
 21
257.37564322017391
 31
0.0
  0
LINE
  5
88D4
  8
3
 10
314.54281068360967
 20
257.18924721774607
 30
0.0
 11
314.50072133224342
 21
257.18924719439838
 31
0.0
  0
LINE
  5
88D5
  8
3
 10
314.50072133224342
 20
257.18924719439838
 30
0.0
 11
314.4646447453581
 21
257.18924717438608
 31
0.0
  0
LINE
  5
88D6
  8
3
 10
314.58490003164081
 20
257.1952600055746
 30
0.0
 11
314.54281068360967
 21
257.18924721774607
 31
0.0
  0
LINE
  5
88D7
  8
3
 10
314.62698938300713
 20
257.19526002892229
 30
0.0
 11
314.58490003164081
 21
257.1952600055746
 31
0.0
  0
LINE
  5
88D8
  8
3
 10
314.24818522738087
 20
257.18323428983138
 30
0.0
 11
314.17603205694547
 21
257.1772214853259
 31
0.0
  0
LINE
  5
88D9
  8
3
 10
314.17603205694547
 20
257.1772214853259
 30
0.0
 11
314.17001928912907
 21
257.18323424647139
 31
0.0
  0
LINE
  5
88DA
  8
3
 10
314.17001928912907
 20
257.18323424647139
 30
0.0
 11
314.1640065246483
 21
257.18323424313598
 31
0.0
  0
LINE
  5
88DB
  8
3
 10
314.1640065246483
 20
257.18323424313598
 30
0.0
 11
314.15799376016719
 21
257.1832342398007
 31
0.0
  0
LINE
  5
88DC
  8
3
 10
314.28426181426619
 20
257.18323430984373
 30
0.0
 11
314.24818522738087
 21
257.18323428983138
 31
0.0
  0
LINE
  5
88DD
  8
3
 10
314.3924915715873
 20
257.18924713436149
 30
0.0
 11
314.3564149847017
 21
257.1892471143492
 31
0.0
  0
LINE
  5
88DE
  8
3
 10
314.42856815847267
 20
257.18924715437379
 30
0.0
 11
314.3924915715873
 21
257.18924713436149
 31
0.0
  0
LINE
  5
88DF
  8
3
 10
314.32033839781627
 20
257.18924709433691
 30
0.0
 11
314.28426181426619
 21
257.18323430984373
 31
0.0
  0
LINE
  5
88E0
  8
3
 10
314.3564149847017
 20
257.1892471143492
 30
0.0
 11
314.32033839781627
 21
257.18924709433691
 31
0.0
  0
LINE
  5
88E1
  8
3
 10
314.1519809956863
 20
257.1832342364653
 30
0.0
 11
314.14596823120542
 21
257.18323423312989
 31
0.0
  0
LINE
  5
88E2
  8
3
 10
314.14596823120542
 20
257.18323423312989
 30
0.0
 11
314.13995546672447
 21
257.18323422979461
 31
0.0
  0
LINE
  5
88E3
  8
3
 10
314.13995546672447
 20
257.18323422979461
 30
0.0
 11
314.13394270224359
 21
257.18323422645909
 31
0.0
  0
LINE
  5
88E4
  8
3
 10
314.13394270224359
 20
257.18323422645909
 30
0.0
 11
314.13394269890819
 21
257.18924699093998
 31
0.0
  0
LINE
  5
88E5
  8
3
 10
314.13394269890819
 20
257.18924699093998
 30
0.0
 11
314.12792993442741
 21
257.18924698760469
 31
0.0
  0
LINE
  5
88E6
  8
3
 10
314.12792993442741
 20
257.18924698760469
 30
0.0
 11
314.12191716994641
 21
257.18924698426929
 31
0.0
  0
LINE
  5
88E7
  8
3
 10
314.12191716994641
 20
257.18924698426929
 30
0.0
 11
314.11590440546553
 21
257.18924698093389
 31
0.0
  0
LINE
  5
88E8
  8
3
 10
314.11590440546553
 20
257.18924698093389
 30
0.0
 11
314.1098916409847
 21
257.18924697759849
 31
0.0
  0
LINE
  5
88E9
  8
3
 10
313.74912573210582
 20
257.26139995124629
 30
0.0
 11
313.74912579214271
 21
257.15317019059012
 31
0.0
  0
LINE
  5
88EA
  8
3
 10
314.15799376016719
 20
257.1832342398007
 30
0.0
 11
314.1519809956863
 21
257.1832342364653
 31
0.0
  0
LINE
  5
88EB
  8
3
 10
313.74311284755117
 20
257.47785946922352
 30
0.0
 11
313.743112907588
 21
257.36962970856729
 31
0.0
  0
LINE
  5
88EC
  8
3
 10
313.743112907588
 20
257.36962970856729
 30
0.0
 11
313.74912573210582
 21
257.26139995124629
 31
0.0
  0
LINE
  5
88ED
  8
3
 10
312.80770262717482
 20
257.50191000682747
 30
0.0
 11
312.7956770515176
 21
257.58608870288941
 31
0.0
  0
LINE
  5
88EE
  8
3
 10
312.77763857796413
 20
257.91077797485201
 30
0.0
 11
312.78365129574979
 21
257.99495668091998
 31
0.0
  0
LINE
  5
88EF
  8
3
 10
312.77763862465952
 20
257.82659927211938
 30
0.0
 11
312.77763857796413
 21
257.91077797485201
 31
0.0
  0
LINE
  5
88F0
  8
3
 10
312.7836514791959
 20
257.66425463447041
 30
0.0
 11
312.78365143250051
 21
257.74843333720298
 31
0.0
  0
LINE
  5
88F1
  8
3
 10
312.78365143250051
 20
257.74843333720298
 30
0.0
 11
312.77763862465952
 21
257.82659927211938
 31
0.0
  0
LINE
  5
88F2
  8
3
 10
312.7956770515176
 20
257.58608870288941
 30
0.0
 11
312.7836514791959
 21
257.66425463447041
 31
0.0
  0
LINE
  5
88F3
  8
3
 10
312.9734791340814
 20
257.22532293409648
 30
0.0
 11
312.88328764018479
 21
257.27342499991312
 31
0.0
  0
LINE
  5
88F4
  8
3
 10
313.56874286438631
 20
257.14114456156682
 30
0.0
 11
313.51462798072288
 21
257.14715729602932
 31
0.0
  0
LINE
  5
88F5
  8
3
 10
313.51462798072288
 20
257.14715729602932
 30
0.0
 11
313.45450033591368
 21
257.14715726267542
 31
0.0
  0
LINE
  5
88F6
  8
3
 10
313.45450033591368
 20
257.14715726267542
 30
0.0
 11
313.40038545225019
 21
257.15316999713792
 31
0.0
  0
LINE
  5
88F7
  8
3
 10
313.40038545225019
 20
257.15316999713792
 30
0.0
 11
313.3462705719221
 21
257.15316996711948
 31
0.0
  0
LINE
  5
88F8
  8
3
 10
313.3462705719221
 20
257.15316996711948
 30
0.0
 11
313.28614292377767
 21
257.15918269824652
 31
0.0
  0
LINE
  5
88F9
  8
3
 10
313.64129763834268
 20
257.13308296076042
 30
0.0
 11
313.56874286438631
 21
257.14114456156682
 31
0.0
  0
LINE
  5
88FA
  8
3
 10
313.23202804011419
 20
257.16519543270903
 30
0.0
 11
313.1779131564507
 21
257.17120816717141
 31
0.0
  0
LINE
  5
88FB
  8
3
 10
313.1779131564507
 20
257.17120816717141
 30
0.0
 11
313.1237982727871
 21
257.17722090163392
 31
0.0
  0
LINE
  5
88FC
  8
3
 10
313.1237982727871
 20
257.17722090163392
 30
0.0
 11
313.07569615026921
 21
257.1892464039127
 31
0.0
  0
LINE
  5
88FD
  8
3
 10
313.07569615026921
 20
257.1892464039127
 30
0.0
 11
313.02158125993492
 21
257.20728466733698
 31
0.0
  0
LINE
  5
88FE
  8
3
 10
313.02158125993492
 20
257.20728466733698
 30
0.0
 11
312.9734791340814
 21
257.22532293409648
 31
0.0
  0
LINE
  5
88FF
  8
3
 10
313.28614292377767
 20
257.15918269824652
 30
0.0
 11
313.23202804011419
 21
257.16519543270903
 31
0.0
  0
LINE
  5
8900
  8
3
 10
312.88328764018479
 20
257.27342499991312
 30
0.0
 11
312.85322377442031
 21
257.35159092148791
 31
0.0
  0
LINE
  5
8901
  8
3
 10
312.83175372512301
 20
257.42975684639822
 30
0.0
 11
312.80770262717482
 21
257.50191000682747
 31
0.0
  0
LINE
  5
8902
  8
3
 10
312.85322377442031
 20
257.35159092148791
 30
0.0
 11
312.82917267313678
 21
257.42975684639822
 31
0.0
  0
LINE
  5
8903
  8
3
 10
315.20421498663819
 20
256.81044342234122
 30
0.0
 11
315.22225328341648
 21
256.80443066786643
 31
0.0
  0
LINE
  5
8904
  8
3
 10
315.59504476795229
 20
256.64809899815663
 30
0.0
 11
315.64314690714741
 21
256.60600967347341
 31
0.0
  0
LINE
  5
8905
  8
3
 10
315.85359340048382
 20
257.08101818420317
 30
0.0
 11
315.79346575567479
 21
257.08101815084939
 31
0.0
  0
LINE
  5
8906
  8
3
 10
315.79346575567479
 20
257.08101815084939
 30
0.0
 11
315.7333381108657
 21
257.08101811749549
 31
0.0
  0
LINE
  5
8907
  8
3
 10
315.7333381108657
 20
257.08101811749549
 30
0.0
 11
315.66719770157579
 21
257.0810180808063
 31
0.0
  0
LINE
  5
8908
  8
3
 10
315.54092986761202
 20
256.68417555502361
 30
0.0
 11
315.59504476795229
 21
256.64809899815663
 31
0.0
  0
LINE
  5
8909
  8
3
 10
315.48080219945541
 20
256.72626487303609
 30
0.0
 11
315.49282773175241
 21
256.72025211522589
 31
0.0
  0
LINE
  5
890A
  8
3
 10
315.3064319961552
 20
256.7863924211191
 30
0.0
 11
315.32447028959791
 21
256.78639243112519
 31
0.0
  0
LINE
  5
890B
  8
3
 10
315.32447028959791
 20
256.78639243112519
 30
0.0
 11
315.3364958218952
 21
256.78037967331511
 31
0.0
  0
LINE
  5
890C
  8
3
 10
315.3364958218952
 20
256.78037967331511
 30
0.0
 11
315.35453411867331
 21
256.77436691884031
 31
0.0
  0
LINE
  5
890D
  8
3
 10
315.22225328341648
 20
256.80443066786643
 30
0.0
 11
315.24029157685908
 21
256.80443067787257
 31
0.0
  0
LINE
  5
890E
  8
3
 10
315.24029157685908
 20
256.80443067787257
 30
0.0
 11
315.25832987363719
 21
256.79841792339778
 31
0.0
  0
LINE
  5
890F
  8
3
 10
315.25832987363719
 20
256.79841792339778
 30
0.0
 11
315.27035540593442
 21
256.7924051655877
 31
0.0
  0
LINE
  5
8910
  8
3
 10
315.27035540593442
 20
256.7924051655877
 30
0.0
 11
315.2883936993772
 21
256.79240517559379
 31
0.0
  0
LINE
  5
8911
  8
3
 10
315.2883936993772
 20
256.79240517559379
 30
0.0
 11
315.3064319961552
 21
256.7863924211191
 31
0.0
  0
LINE
  5
8912
  8
3
 10
315.3665596509706
 20
256.76835416103017
 30
0.0
 11
315.37858518326772
 21
256.76234140321998
 31
0.0
  0
LINE
  5
8913
  8
3
 10
315.35453411867331
 20
256.77436691884031
 30
0.0
 11
315.3665596509706
 21
256.76835416103017
 31
0.0
  0
LINE
  5
8914
  8
3
 10
315.37858518326772
 20
256.76234140321998
 30
0.0
 11
315.40864901567829
 21
256.7443031264541
 31
0.0
  0
LINE
  5
8915
  8
3
 10
315.40864901567829
 20
256.7443031264541
 30
0.0
 11
315.41466178015912
 21
256.74430312978961
 31
0.0
  0
LINE
  5
8916
  8
3
 10
315.41466178015912
 20
256.74430312978961
 30
0.0
 11
315.42067454464018
 21
256.7443031331249
 31
0.0
  0
LINE
  5
8917
  8
3
 10
315.42067454464018
 20
256.7443031331249
 30
0.0
 11
315.42668730912101
 21
256.74430313646042
 31
0.0
  0
LINE
  5
8918
  8
3
 10
315.42668730912101
 20
256.74430313646042
 30
0.0
 11
315.43270007360189
 21
256.7443031397957
 31
0.0
  0
LINE
  5
8919
  8
3
 10
315.43270007360189
 20
256.7443031397957
 30
0.0
 11
315.43871283808272
 21
256.74430314313111
 31
0.0
  0
LINE
  5
891A
  8
3
 10
315.43871283808272
 20
256.74430314313111
 30
0.0
 11
315.44472560589912
 21
256.73829038198568
 31
0.0
  0
LINE
  5
891B
  8
3
 10
315.44472560589912
 20
256.73829038198568
 30
0.0
 11
315.45073837038001
 21
256.73829038532102
 31
0.0
  0
LINE
  5
891C
  8
3
 10
315.45073837038001
 20
256.73829038532102
 30
0.0
 11
315.45675113486101
 21
256.73829038865642
 31
0.0
  0
LINE
  5
891D
  8
3
 10
315.45675113486101
 20
256.73829038865642
 30
0.0
 11
315.46276389934178
 21
256.73829039199182
 31
0.0
  0
LINE
  5
891E
  8
3
 10
315.46276389934178
 20
256.73829039199182
 30
0.0
 11
315.46877666382272
 21
256.73829039532723
 31
0.0
  0
LINE
  5
891F
  8
3
 10
315.46877666382272
 20
256.73829039532723
 30
0.0
 11
315.47478943163901
 21
256.73227763418163
 31
0.0
  0
LINE
  5
8920
  8
3
 10
315.47478943163901
 20
256.73227763418163
 30
0.0
 11
315.48080219612001
 21
256.73227763751697
 31
0.0
  0
LINE
  5
8921
  8
3
 10
315.48080219612001
 20
256.73227763751697
 30
0.0
 11
315.48080219945541
 21
256.72626487303609
 31
0.0
  0
LINE
  5
8922
  8
3
 10
315.49282773175241
 20
256.72025211522589
 30
0.0
 11
315.54092986761202
 21
256.68417555502361
 31
0.0
  0
LINE
  5
8923
  8
3
 10
315.7453639533536
 20
256.51581826296132
 30
0.0
 11
315.78745333140279
 21
256.46771617046181
 31
0.0
  0
LINE
  5
8924
  8
3
 10
315.69726181082308
 20
256.56392035212548
 30
0.0
 11
315.7453639533536
 21
256.51581826296132
 31
0.0
  0
LINE
  5
8925
  8
3
 10
315.78745333140279
 20
256.46771617046181
 30
0.0
 11
315.8295427094522
 21
256.41961407796219
 31
0.0
  0
LINE
  5
8926
  8
3
 10
315.64314690714741
 20
256.60600967347341
 30
0.0
 11
315.69726181082308
 21
256.56392035212548
 31
0.0
  0
LINE
  5
8927
  8
3
 10
312.87126273827488
 20
256.14302527083242
 30
0.0
 11
312.83518609135263
 21
256.2512550114763
 31
0.0
  0
LINE
  5
8928
  8
3
 10
313.51462805076591
 20
257.02088924193032
 30
0.0
 11
313.76115139114762
 21
257.02690214316181
 31
0.0
  0
LINE
  5
8929
  8
3
 10
314.17001961266118
 20
256.59999609182381
 30
0.0
 11
314.21812170849608
 21
256.63607270539211
 31
0.0
  0
LINE
  5
892A
  8
3
 10
313.79121538699189
 20
256.71423840683178
 30
0.0
 11
313.82127933280572
 21
256.49176613771522
 31
0.0
  0
LINE
  5
892B
  8
3
 10
314.43458116310097
 20
256.7563281150841
 30
0.0
 11
314.5007215590494
 21
256.78037920969689
 31
0.0
  0
LINE
  5
892C
  8
3
 10
315.15010009630407
 20
256.8284816857655
 30
0.0
 11
315.16813839308219
 21
256.8224689312907
 31
0.0
  0
LINE
  5
892D
  8
3
 10
315.16813839308219
 20
256.8224689312907
 30
0.0
 11
315.1861766898603
 21
256.81645617681602
 31
0.0
  0
LINE
  5
892E
  8
3
 10
315.1861766898603
 20
256.81645617681602
 30
0.0
 11
315.20421498663819
 21
256.81044342234122
 31
0.0
  0
LINE
  5
892F
  8
3
 10
314.62097682865522
 20
256.81645586328989
 30
0.0
 11
314.68711723127439
 21
256.82848142894102
 31
0.0
  0
LINE
  5
8930
  8
3
 10
314.68711723127439
 20
256.82848142894102
 30
0.0
 11
314.75325763389361
 21
256.84050699459198
 31
0.0
  0
LINE
  5
8931
  8
3
 10
314.75325763389361
 20
256.84050699459198
 30
0.0
 11
314.81939803984818
 21
256.84651979576211
 31
0.0
  0
LINE
  5
8932
  8
3
 10
314.81939803984818
 20
256.84651979576211
 30
0.0
 11
314.88553844580292
 21
256.85253259693218
 31
0.0
  0
LINE
  5
8933
  8
3
 10
314.88553844580292
 20
256.85253259693218
 30
0.0
 11
314.95167885509261
 21
256.85253263362142
 31
0.0
  0
LINE
  5
8934
  8
3
 10
314.95167885509261
 20
256.85253263362142
 30
0.0
 11
315.01781926438269
 21
256.85253267031061
 31
0.0
  0
LINE
  5
8935
  8
3
 10
315.01781926438269
 20
256.85253267031061
 30
0.0
 11
315.15010009630407
 21
256.8284816857655
 31
0.0
  0
LINE
  5
8936
  8
3
 10
314.5007215590494
 20
256.78037920969689
 30
0.0
 11
314.56084919385239
 21
256.7984175364935
 31
0.0
  0
LINE
  5
8937
  8
3
 10
314.56084919385239
 20
256.7984175364935
 30
0.0
 11
314.62097682865522
 21
256.81645586328989
 31
0.0
  0
LINE
  5
8938
  8
3
 10
314.21812170849608
 20
256.63607270539211
 30
0.0
 11
314.2662238043311
 21
256.67214931896058
 31
0.0
  0
LINE
  5
8939
  8
3
 10
314.38046629611449
 20
256.732277027142
 30
0.0
 11
314.43458116310097
 21
256.7563281150841
 31
0.0
  0
LINE
  5
893A
  8
3
 10
314.2662238043311
 20
256.67214931896058
 30
0.0
 11
314.3203386679823
 21
256.70221317138368
 31
0.0
  0
LINE
  5
893B
  8
3
 10
314.3203386679823
 20
256.70221317138368
 30
0.0
 11
314.38046629611449
 21
256.732277027142
 31
0.0
  0
LINE
  5
893C
  8
3
 10
313.76115138114142
 20
257.04494043660452
 30
0.0
 11
313.76716420565918
 21
256.93671067928369
 31
0.0
  0
LINE
  5
893D
  8
3
 10
313.76115139114762
 20
257.02690214316181
 30
0.0
 11
313.76115138114142
 21
257.04494043660452
 31
0.0
  0
LINE
  5
893E
  8
3
 10
313.7791897946579
 20
256.82848092529821
 30
0.0
 11
313.79121538699189
 21
256.71423840683178
 31
0.0
  0
LINE
  5
893F
  8
3
 10
313.76716420565918
 20
256.93671067928369
 30
0.0
 11
313.7791897946579
 21
256.82848092529821
 31
0.0
  0
LINE
  5
8940
  8
3
 10
313.91147081002549
 20
256.47372789430318
 30
0.0
 11
313.93552186794898
 21
256.47372790764479
 31
0.0
  0
LINE
  5
8941
  8
3
 10
313.85735592636189
 20
256.47974062876568
 30
0.0
 11
313.87539422313989
 21
256.473727874291
 31
0.0
  0
LINE
  5
8942
  8
3
 10
313.83330486510278
 20
256.48575337990502
 30
0.0
 11
313.84533039740012
 21
256.47974062209499
 31
0.0
  0
LINE
  5
8943
  8
3
 10
313.84533039740012
 20
256.47974062209499
 30
0.0
 11
313.85735592636189
 21
256.47974062876568
 31
0.0
  0
LINE
  5
8944
  8
3
 10
313.87539422313989
 20
256.473727874291
 30
0.0
 11
313.89343251658272
 21
256.47372788429709
 31
0.0
  0
LINE
  5
8945
  8
3
 10
313.89343251658272
 20
256.47372788429709
 30
0.0
 11
313.91147081002549
 21
256.47372789430318
 31
0.0
  0
LINE
  5
8946
  8
3
 10
314.00166227390349
 20
256.47974070881492
 30
0.0
 11
314.01970056734632
 21
256.47974071882112
 31
0.0
  0
LINE
  5
8947
  8
3
 10
313.97761121931529
 20
256.47372793099242
 30
0.0
 11
314.00166227390349
 21
256.47974070881492
 31
0.0
  0
LINE
  5
8948
  8
3
 10
313.93552186794898
 20
256.47372790764479
 30
0.0
 11
313.95356016139158
 21
256.47372791765088
 31
0.0
  0
LINE
  5
8949
  8
3
 10
313.95356016139158
 20
256.47372791765088
 30
0.0
 11
313.97761121931529
 21
256.47372793099242
 31
0.0
  0
LINE
  5
894A
  8
3
 10
314.01970056734632
 20
256.47974071882112
 30
0.0
 11
314.03773885745358
 21
256.48575349330798
 31
0.0
  0
LINE
  5
894B
  8
3
 10
314.03773885745358
 20
256.48575349330798
 30
0.0
 11
314.07381544100372
 21
256.49176627780122
 31
0.0
  0
LINE
  5
894C
  8
3
 10
313.82127933280572
 20
256.49176613771522
 30
0.0
 11
313.82127933614112
 21
256.48575337323427
 31
0.0
  0
LINE
  5
894D
  8
3
 10
313.82127933614112
 20
256.48575337323427
 30
0.0
 11
313.83330486510278
 21
256.48575337990502
 31
0.0
  0
LINE
  5
894E
  8
3
 10
314.07381544100372
 20
256.49176627780122
 30
0.0
 11
314.17001961266118
 21
256.59999609182381
 31
0.0
  0
LINE
  5
894F
  8
3
 10
312.78966484404549
 20
256.58195703124301
 30
0.0
 11
312.78365205288162
 21
256.63005914375481
 31
0.0
  0
LINE
  5
8950
  8
3
 10
312.90132608038431
 20
257.00886337275938
 30
0.0
 11
312.94942819289622
 21
257.01487616392342
 31
0.0
  0
LINE
  5
8951
  8
3
 10
313.27411747486508
 20
257.01487634403412
 30
0.0
 11
313.34025788415499
 21
257.01487638072331
 31
0.0
  0
LINE
  5
8952
  8
3
 10
313.34025788415499
 20
257.01487638072331
 30
0.0
 11
313.41842382240668
 21
257.01487642408318
 31
0.0
  0
LINE
  5
8953
  8
3
 10
313.41842382240668
 20
257.01487642408318
 30
0.0
 11
313.51462805076591
 21
257.02088924193032
 31
0.0
  0
LINE
  5
8954
  8
3
 10
312.94942819289622
 20
257.01487616392342
 30
0.0
 11
312.98550477978159
 21
257.01487618393571
 31
0.0
  0
LINE
  5
8955
  8
3
 10
312.98550477978159
 20
257.01487618393571
 30
0.0
 11
313.02158136666719
 21
257.01487620394801
 31
0.0
  0
LINE
  5
8956
  8
3
 10
313.02158136666719
 20
257.01487620394801
 30
0.0
 11
313.05765795355251
 21
257.0148762239603
 31
0.0
  0
LINE
  5
8957
  8
3
 10
313.05765795355251
 20
257.0148762239603
 30
0.0
 11
313.09373454043782
 21
257.01487624397259
 31
0.0
  0
LINE
  5
8958
  8
3
 10
313.09373454043782
 20
257.01487624397259
 30
0.0
 11
313.12981112732342
 21
257.01487626398489
 31
0.0
  0
LINE
  5
8959
  8
3
 10
313.12981112732342
 20
257.01487626398489
 30
0.0
 11
313.17190047868962
 21
257.01487628733253
 31
0.0
  0
LINE
  5
895A
  8
3
 10
313.17190047868962
 20
257.01487628733253
 30
0.0
 11
313.22000259453688
 21
257.01487631401562
 31
0.0
  0
LINE
  5
895B
  8
3
 10
313.22000259453688
 20
257.01487631401562
 30
0.0
 11
313.27411747486508
 21
257.01487634403412
 31
0.0
  0
LINE
  5
895C
  8
3
 10
312.84721120339162
 20
257.00285057826
 30
0.0
 11
312.90132608038431
 21
257.00886337275938
 31
0.0
  0
LINE
  5
895D
  8
3
 10
312.78966461390422
 20
256.99683778042532
 30
0.0
 11
312.84979225537791
 21
257.00285057826
 31
0.0
  0
LINE
  5
895E
  8
3
 10
312.7896646639349
 20
256.9066463132117
 30
0.0
 11
312.78966461390422
 21
256.99683778042532
 31
0.0
  0
LINE
  5
895F
  8
3
 10
312.789664690618
 20
256.85854419736449
 30
0.0
 11
312.7896646639349
 21
256.9066463132117
 31
0.0
  0
LINE
  5
8960
  8
3
 10
312.78365202619858
 20
256.67816125960201
 30
0.0
 11
312.78365200285089
 21
256.72025061096838
 31
0.0
  0
LINE
  5
8961
  8
3
 10
312.78365200285089
 20
256.72025061096838
 30
0.0
 11
312.78365197616779
 21
256.76835272681569
 31
0.0
  0
LINE
  5
8962
  8
3
 10
312.78365197616779
 20
256.76835272681569
 30
0.0
 11
312.78365194948481
 21
256.81645484266289
 31
0.0
  0
LINE
  5
8963
  8
3
 10
312.78365205288162
 20
256.63005914375481
 30
0.0
 11
312.78365202619858
 21
256.67816125960201
 31
0.0
  0
LINE
  5
8964
  8
3
 10
312.78365194948481
 20
256.81645484266289
 30
0.0
 11
312.789664690618
 21
256.85854419736449
 31
0.0
  0
LINE
  5
8965
  8
3
 10
312.79567768524032
 20
256.44366345151758
 30
0.0
 11
312.79567765855728
 21
256.49176556736472
 31
0.0
  0
LINE
  5
8966
  8
3
 10
312.79567765855728
 20
256.49176556736472
 30
0.0
 11
312.78966487072859
 21
256.53385491539569
 31
0.0
  0
LINE
  5
8967
  8
3
 10
312.81371603204911
 20
256.34745922982933
 30
0.0
 11
312.80169047640419
 21
256.39556133900572
 31
0.0
  0
LINE
  5
8968
  8
3
 10
312.80169047640419
 20
256.39556133900572
 30
0.0
 11
312.79567768524032
 21
256.44366345151758
 31
0.0
  0
LINE
  5
8969
  8
3
 10
312.8197288232131
 20
256.29935711731741
 30
0.0
 11
312.81371603204911
 21
256.34745922982933
 31
0.0
  0
LINE
  5
896A
  8
3
 10
312.83776714333879
 20
256.2512550114763
 30
0.0
 11
312.8197288232131
 21
256.29935711731741
 31
0.0
  0
LINE
  5
896B
  8
3
 10
312.78966487072859
 20
256.53385491539569
 30
0.0
 11
312.78966484404549
 21
256.58195703124301
 31
0.0
  0
LINE
  5
896C
  8
3
 10
313.70703737468352
 20
255.46959611258919
 30
0.0
 11
313.63488419090652
 21
255.48763436600731
 31
0.0
  0
LINE
  5
896D
  8
3
 10
315.02383267592779
 20
255.68605636435061
 30
0.0
 11
315.01781987475761
 21
255.75219677030509
 31
0.0
  0
LINE
  5
896E
  8
3
 10
314.72920719968658
 20
255.71612002332139
 30
0.0
 11
314.71718167739562
 21
255.70409448768879
 31
0.0
  0
LINE
  5
896F
  8
3
 10
314.77730929552149
 20
255.75219663688989
 30
0.0
 11
314.75927100874958
 21
255.74017109792189
 31
0.0
  0
LINE
  5
8970
  8
3
 10
315.01781987475761
 20
255.75219677030509
 30
0.0
 11
315.00579433912498
 21
255.76422229259609
 31
0.0
  0
LINE
  5
8971
  8
3
 10
315.00579433912498
 20
255.76422229259609
 30
0.0
 11
314.9997815713088
 21
255.77023505374169
 31
0.0
  0
LINE
  5
8972
  8
3
 10
314.9997815713088
 20
255.77023505374169
 30
0.0
 11
314.99376880015711
 21
255.78226057936811
 31
0.0
  0
LINE
  5
8973
  8
3
 10
314.99376880015711
 20
255.78226057936811
 30
0.0
 11
314.98174326786
 21
255.78827333717831
 31
0.0
  0
LINE
  5
8974
  8
3
 10
314.98174326786
 20
255.78827333717831
 30
0.0
 11
314.96971773556282
 21
255.79428609498831
 31
0.0
  0
LINE
  5
8975
  8
3
 10
314.96971773556282
 20
255.79428609498831
 30
0.0
 11
314.95769220326559
 21
255.80029885279859
 31
0.0
  0
LINE
  5
8976
  8
3
 10
314.95769220326559
 20
255.80029885279859
 30
0.0
 11
314.94566667430382
 21
255.80029884612779
 31
0.0
  0
LINE
  5
8977
  8
3
 10
314.94566667430382
 20
255.80029884612779
 30
0.0
 11
314.93364114200648
 21
255.80631160393779
 31
0.0
  0
LINE
  5
8978
  8
3
 10
314.93364114200648
 20
255.80631160393779
 30
0.0
 11
314.92161561304482
 21
255.8063115972671
 31
0.0
  0
LINE
  5
8979
  8
3
 10
314.92161561304482
 20
255.8063115972671
 30
0.0
 11
314.90959008074748
 21
255.81232435507729
 31
0.0
  0
LINE
  5
897A
  8
3
 10
314.90959008074748
 20
255.81232435507729
 30
0.0
 11
314.89756455178582
 21
255.81232434840649
 31
0.0
  0
LINE
  5
897B
  8
3
 10
314.89756455178582
 20
255.81232434840649
 30
0.0
 11
314.87952625834299
 21
255.81232433840029
 31
0.0
  0
LINE
  5
897C
  8
3
 10
314.87952625834299
 20
255.81232433840029
 30
0.0
 11
314.86750073271662
 21
255.8063115672486
 31
0.0
  0
LINE
  5
897D
  8
3
 10
314.86750073271662
 20
255.8063115672486
 30
0.0
 11
314.85547520375479
 21
255.80631156057791
 31
0.0
  0
LINE
  5
897E
  8
3
 10
314.85547520375479
 20
255.80631156057791
 30
0.0
 11
314.831424152502
 21
255.79428601827459
 31
0.0
  0
LINE
  5
897F
  8
3
 10
314.831424152502
 20
255.79428601827459
 30
0.0
 11
314.81338586573003
 21
255.7822604793067
 31
0.0
  0
LINE
  5
8980
  8
3
 10
314.81338586573003
 20
255.7822604793067
 30
0.0
 11
314.80136034343889
 21
255.7702349436741
 31
0.0
  0
LINE
  5
8981
  8
3
 10
314.80136034343889
 20
255.7702349436741
 30
0.0
 11
314.78933482114792
 21
255.75820940804141
 31
0.0
  0
LINE
  5
8982
  8
3
 10
314.78933482114792
 20
255.75820940804141
 30
0.0
 11
314.77730929552149
 21
255.75219663688989
 31
0.0
  0
LINE
  5
8983
  8
3
 10
314.75927100874958
 20
255.74017109792189
 30
0.0
 11
314.7472454864585
 21
255.72814556228931
 31
0.0
  0
LINE
  5
8984
  8
3
 10
314.7472454864585
 20
255.72814556228931
 30
0.0
 11
314.72920719968658
 21
255.71612002332139
 31
0.0
  0
LINE
  5
8985
  8
3
 10
314.51876051956867
 20
255.5778263235222
 30
0.0
 11
314.44660736247482
 21
255.54776246109299
 31
0.0
  0
LINE
  5
8986
  8
3
 10
315.02383283602609
 20
255.39744366926709
 30
0.0
 11
315.02383281601379
 21
255.4335202561526
 31
0.0
  0
LINE
  5
8987
  8
3
 10
315.02383281601379
 20
255.4335202561526
 30
0.0
 11
315.0298455604825
 21
255.46959684637341
 31
0.0
  0
LINE
  5
8988
  8
3
 10
315.0298455604825
 20
255.46959684637341
 30
0.0
 11
315.02984554380549
 21
255.49966066877801
 31
0.0
  0
LINE
  5
8989
  8
3
 10
315.02984554380549
 20
255.49966066877801
 30
0.0
 11
315.0298455237932
 21
255.53573725566329
 31
0.0
  0
LINE
  5
898A
  8
3
 10
315.0298455237932
 20
255.53573725566329
 30
0.0
 11
315.02984550711642
 21
255.56580107806789
 31
0.0
  0
LINE
  5
898B
  8
3
 10
315.02984550711642
 20
255.56580107806789
 30
0.0
 11
315.02984549043953
 21
255.59586490047241
 31
0.0
  0
LINE
  5
898C
  8
3
 10
315.02984549043953
 20
255.59586490047241
 30
0.0
 11
315.02984547376252
 21
255.62592872287689
 31
0.0
  0
LINE
  5
898D
  8
3
 10
315.02984547376252
 20
255.62592872287689
 30
0.0
 11
315.02984545708563
 21
255.65599254528149
 31
0.0
  0
LINE
  5
898E
  8
3
 10
315.02984545708563
 20
255.65599254528149
 30
0.0
 11
315.02383267592779
 21
255.68605636435061
 31
0.0
  0
LINE
  5
898F
  8
3
 10
314.71718167739562
 20
255.70409448768879
 30
0.0
 11
314.69914339062359
 21
255.6920689487209
 31
0.0
  0
LINE
  5
8990
  8
3
 10
314.69914339062359
 20
255.6920689487209
 30
0.0
 11
314.68110510385162
 21
255.68004340975281
 31
0.0
  0
LINE
  5
8991
  8
3
 10
314.68110510385162
 20
255.68004340975281
 30
0.0
 11
314.6690795815606
 21
255.6680178741203
 31
0.0
  0
LINE
  5
8992
  8
3
 10
314.6690795815606
 20
255.6680178741203
 30
0.0
 11
314.65104129478863
 21
255.6559923351524
 31
0.0
  0
LINE
  5
8993
  8
3
 10
314.65104129478863
 20
255.6559923351524
 30
0.0
 11
314.6330030046812
 21
255.64997956066529
 31
0.0
  0
LINE
  5
8994
  8
3
 10
314.6330030046812
 20
255.64997956066529
 30
0.0
 11
314.62097748239017
 21
255.63795402503271
 31
0.0
  0
LINE
  5
8995
  8
3
 10
315.02383288272148
 20
255.31326496653449
 30
0.0
 11
315.02383285937378
 21
255.3553543179008
 31
0.0
  0
LINE
  5
8996
  8
3
 10
315.02383285937378
 20
255.3553543179008
 30
0.0
 11
315.02383283602609
 21
255.39744366926709
 31
0.0
  0
LINE
  5
8997
  8
3
 10
315.02383290940458
 20
255.26516285068729
 30
0.0
 11
315.02383288272148
 21
255.31326496653449
 31
0.0
  0
LINE
  5
8998
  8
3
 10
314.59091367666258
 20
255.60789018595131
 30
0.0
 11
314.51876051956867
 21
255.5778263235222
 31
0.0
  0
LINE
  5
8999
  8
3
 10
314.62097748239017
 20
255.63795402503271
 30
0.0
 11
314.59091367666258
 21
255.60789018595131
 31
0.0
  0
LINE
  5
899A
  8
3
 10
314.23014787785138
 20
255.48162193172939
 30
0.0
 11
314.15799471075121
 21
255.469596362743
 31
0.0
  0
LINE
  5
899B
  8
3
 10
314.44660736247482
 20
255.54776246109299
 30
0.0
 11
314.37445420538069
 21
255.51769859866391
 31
0.0
  0
LINE
  5
899C
  8
3
 10
314.37445420538069
 20
255.51769859866391
 30
0.0
 11
314.30230104161598
 21
255.4996602651967
 31
0.0
  0
LINE
  5
899D
  8
3
 10
314.30230104161598
 20
255.4996602651967
 30
0.0
 11
314.23014787785138
 21
255.48162193172939
 31
0.0
  0
LINE
  5
899E
  8
3
 10
313.92950967048313
 20
255.4515579425557
 30
0.0
 11
313.85735649671233
 21
255.45155790253111
 31
0.0
  0
LINE
  5
899F
  8
3
 10
313.88742040917231
 20
255.2892132782236
 30
0.0
 11
313.94754805398111
 21
255.28921331157741
 31
0.0
  0
LINE
  5
89A0
  8
3
 10
314.00767560873493
 20
255.45155798591571
 30
0.0
 11
313.92950967048313
 21
255.4515579425557
 31
0.0
  0
LINE
  5
89A1
  8
3
 10
313.94754805398111
 20
255.28921331157741
 30
0.0
 11
314.00767569879019
 21
255.28921334493131
 31
0.0
  0
LINE
  5
89A2
  8
3
 10
314.06780334693462
 20
255.28320061380421
 30
0.0
 11
314.12793099507911
 21
255.27718788267711
 31
0.0
  0
LINE
  5
89A3
  8
3
 10
314.0798287791705
 20
255.4575707904211
 30
0.0
 11
314.00767560873493
 21
255.45155798591571
 31
0.0
  0
LINE
  5
89A4
  8
3
 10
314.00767569879019
 20
255.28921334493131
 30
0.0
 11
314.06780334693462
 21
255.28320061380421
 31
0.0
  0
LINE
  5
89A5
  8
3
 10
313.77919055178978
 20
255.46358338813289
 30
0.0
 11
313.70703737468352
 21
255.46959611258919
 31
0.0
  0
LINE
  5
89A6
  8
3
 10
313.71906302038383
 20
255.25914936242839
 30
0.0
 11
313.88742040917231
 21
255.2892132782236
 31
0.0
  0
LINE
  5
89A7
  8
3
 10
313.85735649671233
 20
255.45155790253111
 30
0.0
 11
313.77919055178978
 21
255.46358338813289
 31
0.0
  0
LINE
  5
89A8
  8
3
 10
314.12793099507911
 20
255.27718788267711
 30
0.0
 11
314.18805864655877
 21
255.2651623870691
 31
0.0
  0
LINE
  5
89A9
  8
3
 10
314.15799471075121
 20
255.469596362743
 30
0.0
 11
314.0798287791705
 21
255.4575707904211
 31
0.0
  0
LINE
  5
89AA
  8
3
 10
313.22601609613753
 20
255.68605536707119
 30
0.0
 11
313.17791396027792
 21
255.72213192727349
 31
0.0
  0
LINE
  5
89AB
  8
3
 10
312.9494287632466
 20
255.98669343768881
 30
0.0
 11
312.9253776753045
 21
256.04080830467541
 31
0.0
  0
LINE
  5
89AC
  8
3
 10
313.17791396027792
 20
255.72213192727349
 30
0.0
 11
313.13582458556391
 21
255.76422125529211
 31
0.0
  0
LINE
  5
89AD
  8
3
 10
313.13582458556391
 20
255.76422125529211
 30
0.0
 11
313.09373521084967
 21
255.80631058331079
 31
0.0
  0
LINE
  5
89AE
  8
3
 10
312.98550537681518
 20
255.93859134185379
 30
0.0
 11
312.9494287632466
 21
255.98669343768881
 31
0.0
  0
LINE
  5
89AF
  8
3
 10
313.05765860061672
 20
255.8483999146649
 30
0.0
 11
313.01556922590282
 21
255.8904892426836
 31
0.0
  0
LINE
  5
89B0
  8
3
 10
313.01556922590282
 20
255.8904892426836
 30
0.0
 11
312.98550537681518
 21
255.93859134185379
 31
0.0
  0
LINE
  5
89B1
  8
3
 10
313.09373521084967
 20
255.80631058331079
 30
0.0
 11
313.05765860061672
 21
255.8483999146649
 31
0.0
  0
LINE
  5
89B2
  8
3
 10
312.89531382621698
 20
256.08891040384572
 30
0.0
 11
312.87126273827488
 21
256.14302527083242
 31
0.0
  0
LINE
  5
89B3
  8
3
 10
312.9253776753045
 20
256.04080830467541
 30
0.0
 11
312.89531382621698
 21
256.08891040384572
 31
0.0
  0
LINE
  5
89B4
  8
3
 10
313.56273100712951
 20
255.5056726194255
 30
0.0
 11
313.43045015853107
 21
255.55978742637521
 31
0.0
  0
LINE
  5
89B5
  8
3
 10
313.43045015853107
 20
255.55978742637521
 30
0.0
 11
313.37633526152609
 21
255.58985121876131
 31
0.0
  0
LINE
  5
89B6
  8
3
 10
313.37633526152609
 20
255.58985121876131
 30
0.0
 11
313.32222036452112
 21
255.6199150111473
 31
0.0
  0
LINE
  5
89B7
  8
3
 10
313.32222036452112
 20
255.6199150111473
 30
0.0
 11
313.27411823199702
 21
255.6499788068688
 31
0.0
  0
LINE
  5
89B8
  8
3
 10
313.63488419090652
 20
255.48763436600731
 30
0.0
 11
313.56273100712951
 21
255.5056726194255
 31
0.0
  0
LINE
  5
89B9
  8
3
 10
313.27411823199702
 20
255.6499788068688
 30
0.0
 11
313.22601609613753
 21
255.68605536707119
 31
0.0
  0
LINE
  5
89BA
  8
3
 10
314.84946376675617
 20
253.4132312938427
 30
0.0
 11
314.90357859371818
 21
253.5094355555556
 31
0.0
  0
POLYLINE
  5
89BB
  8
3
 66
     1
 10
0.0
 20
0.0
 30
0.0
 70
     1
  0
VERTEX
  5
91FC
  8
3
 10
314.0738167051137
 20
254.21292853953861
 30
0.0
  0
VERTEX
  5
91FD
  8
3
 10
314.07381717206732
 20
253.37114151221201
 30
0.0
  0
VERTEX
  5
91FE
  8
3
 10
314.06179164644089
 20
253.36512874106029
 30
0.0
  0
VERTEX
  5
91FF
  8
3
 10
314.04976612081441
 20
253.35911596990869
 30
0.0
  0
VERTEX
  5
9200
  8
3
 10
314.04375335633353
 20
253.35911596657331
 30
0.0
  0
VERTEX
  5
9201
  8
3
 10
314.03172782737158
 20
253.35911595990251
 30
0.0
  0
VERTEX
  5
9202
  8
3
 10
314.0257150595553
 20
253.36512872104799
 30
0.0
  0
VERTEX
  5
9203
  8
3
 10
314.01368952725818
 20
253.37114147885819
 30
0.0
  0
VERTEX
  5
9204
  8
3
 10
314.00166399496089
 20
253.3771542366683
 30
0.0
  0
VERTEX
  5
9205
  8
3
 10
313.98963845932838
 20
253.38917975895939
 30
0.0
  0
VERTEX
  5
9206
  8
3
 10
313.9836256881768
 20
253.4012052845857
 30
0.0
  0
VERTEX
  5
9207
  8
3
 10
313.97160015254411
 20
253.4132308068769
 30
0.0
  0
VERTEX
  5
9208
  8
3
 10
313.95957461691148
 20
253.42525632916789
 30
0.0
  0
VERTEX
  5
9209
  8
3
 10
313.94754908127891
 20
253.43728185145889
 30
0.0
  0
VERTEX
  5
920A
  8
3
 10
313.94153631012739
 20
253.44930737708529
 30
0.0
  0
VERTEX
  5
920B
  8
3
 10
313.92951077449482
 20
253.4613328993764
 30
0.0
  0
VERTEX
  5
920C
  8
3
 10
313.91147247104601
 20
253.47937118281291
 30
0.0
  0
VERTEX
  5
920D
  8
3
 10
313.88742139311012
 20
253.51544775635679
 30
0.0
  0
VERTEX
  5
920E
  8
3
 10
313.86337031183871
 20
253.5575370943817
 30
0.0
  0
VERTEX
  5
920F
  8
3
 10
313.8453319983837
 20
253.5936136712609
 30
0.0
  0
VERTEX
  5
9210
  8
3
 10
313.83330644940952
 20
253.62969025147549
 30
0.0
  0
VERTEX
  5
9211
  8
3
 10
313.82128089710011
 20
253.67177959617109
 30
0.0
  0
VERTEX
  5
9212
  8
3
 10
313.80925534812599
 20
253.7078561763858
 30
0.0
  0
VERTEX
  5
9213
  8
3
 10
313.79722979581641
 20
253.74994552108129
 30
0.0
  0
VERTEX
  5
9214
  8
3
 10
313.79121700798788
 20
253.79203486911231
 30
0.0
  0
VERTEX
  5
9215
  8
3
 10
313.78520422015941
 20
253.83412421714331
 30
0.0
  0
VERTEX
  5
9216
  8
3
 10
313.78520419681172
 20
253.8762135685096
 30
0.0
  0
VERTEX
  5
9217
  8
3
 10
313.78520417346402
 20
253.91830291987591
 30
0.0
  0
VERTEX
  5
9218
  8
3
 10
313.78520415011627
 20
253.9603922712422
 30
0.0
  0
VERTEX
  5
9219
  8
3
 10
313.79121689458498
 20
253.996468861463
 30
0.0
  0
VERTEX
  5
921A
  8
3
 10
313.79722963571811
 20
254.03855821616469
 30
0.0
  0
VERTEX
  5
921B
  8
3
 10
313.81526788580089
 20
254.11672416442269
 30
0.0
  0
VERTEX
  5
921C
  8
3
 10
313.82128064027569
 20
254.13476246120069
 30
0.0
  0
VERTEX
  5
921D
  8
3
 10
313.82729339808571
 20
254.14678799349801
 30
0.0
  0
VERTEX
  5
921E
  8
3
 10
313.8333061525604
 20
254.16482629027601
 30
0.0
  0
VERTEX
  5
921F
  8
3
 10
313.84533167485159
 20
254.17685182590861
 30
0.0
  0
VERTEX
  5
9220
  8
3
 10
313.85134443266168
 20
254.18887735820579
 30
0.0
  0
VERTEX
  5
9221
  8
3
 10
313.86336995495282
 20
254.20090289383839
 30
0.0
  0
VERTEX
  5
9222
  8
3
 10
313.87539547724379
 20
254.21292842947091
 30
0.0
  0
VERTEX
  5
9223
  8
3
 10
313.88742100287033
 20
254.2189412006226
 30
0.0
  0
VERTEX
  5
9224
  8
3
 10
313.8994465251613
 20
254.23096673625531
 30
0.0
  0
VERTEX
  5
9225
  8
3
 10
313.91147205078778
 20
254.23697950740689
 30
0.0
  0
VERTEX
  5
9226
  8
3
 10
313.92349757641421
 20
254.2429922785586
 30
0.0
  0
VERTEX
  5
9227
  8
3
 10
313.93552310204052
 20
254.24900504971029
 30
0.0
  0
VERTEX
  5
9228
  8
3
 10
313.947548627667
 20
254.25501782086189
 30
0.0
  0
VERTEX
  5
9229
  8
3
 10
313.9655869177742
 20
254.2610305953489
 30
0.0
  0
VERTEX
  5
922A
  8
3
 10
313.99565073684352
 20
254.26704337650679
 30
0.0
  0
VERTEX
  5
922B
  8
3
 10
314.0678039339619
 20
254.22495406516501
 30
0.0
  0
VERTEX
  5
922C
  8
3
 10
314.06780393729741
 20
254.21894130068421
 30
0.0
  0
VERTEX
  5
922D
  8
3
 10
314.0738167051137
 20
254.21292853953861
 30
0.0
  0
SEQEND
  5
922E
  8
3
  0
LINE
  5
89EF
  8
3
 10
312.85923872024148
 20
253.4192429543119
 30
0.0
 11
312.85322594908968
 21
253.43126847993841
 31
0.0
  0
LINE
  5
89F0
  8
3
 10
314.78933526141839
 20
254.96452449656209
 30
0.0
 11
314.8073744120544
 21
253.41924403497589
 31
0.0
  0
LINE
  5
89F1
  8
3
 10
315.18617762710278
 20
255.1268693576819
 30
0.0
 11
315.24029251410172
 21
255.11484385873851
 31
0.0
  0
LINE
  5
89F2
  8
3
 10
315.75137754834469
 20
255.01863991055151
 30
0.0
 11
315.84758180338679
 21
254.97655061255139
 31
0.0
  0
LINE
  5
89F3
  8
3
 10
315.5469435326462
 20
255.06072914851481
 30
0.0
 11
315.6010584163098
 21
255.05471641405231
 31
0.0
  0
LINE
  5
89F4
  8
3
 10
315.6010584163098
 20
255.05471641405231
 30
0.0
 11
315.6491605354924
 21
255.04870367625449
 31
0.0
  0
LINE
  5
89F5
  8
3
 10
315.6491605354924
 20
255.04870367625449
 30
0.0
 11
315.70327542249129
 21
255.0366781773111
 31
0.0
  0
LINE
  5
89F6
  8
3
 10
315.70327542249129
 20
255.0366781773111
 30
0.0
 11
315.75137754834469
 21
255.01863991055151
 31
0.0
  0
LINE
  5
89F7
  8
3
 10
315.44472652646459
 20
255.07876738525599
 30
0.0
 11
315.49884141012819
 21
255.07275465079351
 31
0.0
  0
LINE
  5
89F8
  8
3
 10
315.3425095236185
 20
255.09079285751631
 30
0.0
 11
315.39061164280122
 21
255.08478011971849
 31
0.0
  0
LINE
  5
89F9
  8
3
 10
315.24029251410172
 20
255.11484385873851
 30
0.0
 11
315.28839463661973
 21
255.10281835645969
 31
0.0
  0
LINE
  5
89FA
  8
3
 10
315.28839463661973
 20
255.10281835645969
 30
0.0
 11
315.3425095236185
 21
255.09079285751631
 31
0.0
  0
LINE
  5
89FB
  8
3
 10
315.39061164280122
 20
255.08478011971849
 30
0.0
 11
315.44472652646459
 21
255.07876738525599
 31
0.0
  0
LINE
  5
89FC
  8
3
 10
315.49884141012819
 20
255.07275465079351
 30
0.0
 11
315.5469435326462
 21
255.06072914851481
 31
0.0
  0
LINE
  5
89FD
  8
3
 10
315.02984623756521
 20
254.24900565674989
 30
0.0
 11
315.02383340971198
 21
254.3632481785516
 31
0.0
  0
LINE
  5
89FE
  8
3
 10
312.7776405891999
 20
254.2850809928668
 30
0.0
 11
312.78966608147249
 21
254.3512214088274
 31
0.0
  0
LINE
  5
89FF
  8
3
 10
315.0057949261523
 20
254.705975743957
 30
0.0
 11
315.00579486278008
 21
254.8202182690942
 31
0.0
  0
LINE
  5
8A00
  8
3
 10
314.42255649466802
 20
255.20503487234001
 30
0.0
 11
314.47667138833771
 21
255.18098384443479
 31
0.0
  0
LINE
  5
8A01
  8
3
 10
315.13807550124938
 20
255.1449076244414
 30
0.0
 11
315.18617762710278
 21
255.1268693576819
 31
0.0
  0
LINE
  5
8A02
  8
3
 10
315.08997337206063
 20
255.16895865568199
 30
0.0
 11
315.13807550124938
 21
255.1449076244414
 31
0.0
  0
LINE
  5
8A03
  8
3
 10
314.77129694462809
 20
255.00661383792229
 30
0.0
 11
314.77129694796349
 21
255.0006010734414
 31
0.0
  0
LINE
  5
8A04
  8
3
 10
314.68110543738987
 20
255.07876696166241
 30
0.0
 11
314.77129694462809
 21
255.00661383792229
 31
0.0
  0
LINE
  5
8A05
  8
3
 10
315.00579486278008
 20
254.8202182690942
 30
0.0
 11
315.00579479940779
 21
254.9344607942314
 31
0.0
  0
LINE
  5
8A06
  8
3
 10
314.77129694796349
 20
255.0006010734414
 30
0.0
 11
314.77730971244438
 21
255.0006010767768
 31
0.0
  0
LINE
  5
8A07
  8
3
 10
314.77730971244438
 20
255.0006010767768
 30
0.0
 11
314.77730971577978
 21
254.99458831229589
 31
0.0
  0
LINE
  5
8A08
  8
3
 10
314.77730971577978
 20
254.99458831229589
 30
0.0
 11
314.77730971911512
 21
254.988575547815
 31
0.0
  0
LINE
  5
8A09
  8
3
 10
314.77730971911512
 20
254.988575547815
 30
0.0
 11
314.78332248693152
 21
254.98256278666949
 31
0.0
  0
LINE
  5
8A0A
  8
3
 10
314.78332248693152
 20
254.98256278666949
 30
0.0
 11
314.78332249026693
 21
254.9765500221886
 31
0.0
  0
LINE
  5
8A0B
  8
3
 10
314.78332249026693
 20
254.9765500221886
 30
0.0
 11
314.78332249360221
 21
254.97053725770769
 31
0.0
  0
LINE
  5
8A0C
  8
3
 10
314.78332249360221
 20
254.97053725770769
 30
0.0
 11
314.78933526141839
 21
254.96452449656209
 31
0.0
  0
LINE
  5
8A0D
  8
3
 10
315.04788399734662
 20
255.21104798370069
 30
0.0
 11
315.04187123286567
 21
255.21104798036529
 31
0.0
  0
LINE
  5
8A0E
  8
3
 10
315.04187123286567
 20
255.21104798036529
 30
0.0
 11
315.04187123620108
 21
255.20503521588441
 31
0.0
  0
LINE
  5
8A0F
  8
3
 10
315.04187123620108
 20
255.20503521588441
 30
0.0
 11
315.04788400735271
 21
255.19300969025801
 31
0.0
  0
LINE
  5
8A10
  8
3
 10
315.03585850173857
 20
255.15092033222081
 30
0.0
 11
315.0298457039039
 21
255.21104797369449
 31
0.0
  0
LINE
  5
8A11
  8
3
 10
315.00579479940779
 20
254.9344607942314
 30
0.0
 11
315.03585850173857
 21
255.15092033222081
 31
0.0
  0
LINE
  5
8A12
  8
3
 10
314.63300330486572
 20
255.10883075738391
 30
0.0
 11
314.68110543738987
 21
255.07876696166241
 31
0.0
  0
LINE
  5
8A13
  8
3
 10
315.04788400735271
 20
255.19300969025801
 30
0.0
 11
315.08997337206063
 21
255.16895865568199
 31
0.0
  0
LINE
  5
8A14
  8
3
 10
314.47667138833771
 20
255.18098384443479
 30
0.0
 11
314.53078627867188
 21
255.16294558101049
 31
0.0
  0
LINE
  5
8A15
  8
3
 10
314.53078627867188
 20
255.16294558101049
 30
0.0
 11
314.58490117567698
 21
255.13288178862439
 31
0.0
  0
LINE
  5
8A16
  8
3
 10
314.58490117567698
 20
255.13288178862439
 30
0.0
 11
314.63300330486572
 21
255.10883075738391
 31
0.0
  0
LINE
  5
8A17
  8
3
 10
314.36844160433373
 20
255.22307313576431
 30
0.0
 11
314.42255649466802
 21
255.20503487234001
 31
0.0
  0
LINE
  5
8A18
  8
3
 10
314.30831394951838
 20
255.2411113958531
 30
0.0
 11
314.36844160433373
 21
255.22307313576431
 31
0.0
  0
LINE
  5
8A19
  8
3
 10
314.24818629803872
 20
255.2531368914612
 30
0.0
 11
314.30831394951838
 21
255.2411113958531
 31
0.0
  0
LINE
  5
8A1A
  8
3
 10
315.01180775400547
 20
254.59173322215531
 30
0.0
 11
315.0057949261523
 21
254.705975743957
 31
0.0
  0
LINE
  5
8A1B
  8
3
 10
315.01782058185881
 20
254.4774907003534
 30
0.0
 11
315.01180775400547
 21
254.59173322215531
 31
0.0
  0
LINE
  5
8A1C
  8
3
 10
315.02383340971198
 20
254.3632481785516
 30
0.0
 11
315.01782058185881
 21
254.4774907003534
 31
0.0
  0
LINE
  5
8A1D
  8
3
 10
312.96145496262051
 20
254.77812778369781
 30
0.0
 11
313.00354428063292
 21
254.83825545185451
 31
0.0
  0
LINE
  5
8A1E
  8
3
 10
313.49057801013402
 20
255.18699606191291
 30
0.0
 11
313.56273116722792
 21
255.2170599243421
 31
0.0
  0
LINE
  5
8A1F
  8
3
 10
313.34627169928137
 20
255.12085557257379
 30
0.0
 11
313.41842485303988
 21
255.1569321994838
 31
0.0
  0
LINE
  5
8A20
  8
3
 10
313.41842485303988
 20
255.1569321994838
 30
0.0
 11
313.49057801013402
 21
255.18699606191291
 31
0.0
  0
LINE
  5
8A21
  8
3
 10
313.56273116722792
 20
255.2170599243421
 30
0.0
 11
313.640897092138
 21
255.24111102562571
 31
0.0
  0
LINE
  5
8A22
  8
3
 10
313.2861440778201
 20
255.07876618785369
 30
0.0
 11
313.34627169928137
 21
255.12085557257379
 31
0.0
  0
LINE
  5
8A23
  8
3
 10
313.15987607041632
 20
254.994587415078
 30
0.0
 11
313.22000369187788
 21
255.0366767997981
 31
0.0
  0
LINE
  5
8A24
  8
3
 10
313.00354428063292
 20
254.83825545185451
 30
0.0
 11
313.05164636646168
 21
254.89237035886569
 31
0.0
  0
LINE
  5
8A25
  8
3
 10
313.05164636646168
 20
254.89237035886569
 30
0.0
 11
313.10576121677138
 21
254.9464852692123
 31
0.0
  0
LINE
  5
8A26
  8
3
 10
313.10576121677138
 20
254.9464852692123
 30
0.0
 11
313.15987607041632
 21
254.994587415078
 31
0.0
  0
LINE
  5
8A27
  8
3
 10
313.22000369187788
 20
255.0366767997981
 30
0.0
 11
313.2861440778201
 21
255.07876618785369
 31
0.0
  0
LINE
  5
8A28
  8
3
 10
312.91936564794321
 20
254.71198735106009
 30
0.0
 11
312.96145496262051
 21
254.77812778369781
 31
0.0
  0
LINE
  5
8A29
  8
3
 10
312.88328909774702
 20
254.64584692175791
 30
0.0
 11
312.91936564794321
 21
254.71198735106009
 31
0.0
  0
LINE
  5
8A2A
  8
3
 10
312.80770433822607
 20
254.41736182812349
 30
0.0
 11
312.84378085173307
 21
254.54964266671581
 31
0.0
  0
LINE
  5
8A2B
  8
3
 10
312.84378085173307
 20
254.54964266671581
 30
0.0
 11
312.84378084506233
 21
254.56166819567761
 31
0.0
  0
LINE
  5
8A2C
  8
3
 10
312.84378084506233
 20
254.56166819567761
 30
0.0
 11
312.84979360620792
 21
254.5676809634939
 31
0.0
  0
LINE
  5
8A2D
  8
3
 10
312.84979360620792
 20
254.5676809634939
 30
0.0
 11
312.84979360287252
 21
254.57369372797481
 31
0.0
  0
LINE
  5
8A2E
  8
3
 10
312.84721255088618
 20
254.57369372797481
 30
0.0
 11
312.85322531203161
 21
254.5797064957911
 31
0.0
  0
LINE
  5
8A2F
  8
3
 10
312.85322531203161
 20
254.5797064957911
 30
0.0
 11
312.85322530869621
 21
254.58571926027199
 31
0.0
  0
LINE
  5
8A30
  8
3
 10
312.85923806984192
 20
254.59173202808819
 30
0.0
 11
312.86525083098741
 21
254.59774479590459
 31
0.0
  0
LINE
  5
8A31
  8
3
 10
312.86525083098741
 20
254.59774479590459
 30
0.0
 11
312.86525082765212
 21
254.6037575603855
 31
0.0
  0
LINE
  5
8A32
  8
3
 10
312.86525082765212
 20
254.6037575603855
 30
0.0
 11
312.87126358879749
 21
254.60977032820179
 31
0.0
  0
LINE
  5
8A33
  8
3
 10
312.87126358879749
 20
254.60977032820179
 30
0.0
 11
312.8712635854622
 21
254.6157830926827
 31
0.0
  0
LINE
  5
8A34
  8
3
 10
312.8712635854622
 20
254.6157830926827
 30
0.0
 11
312.87126358212669
 21
254.62179585716359
 31
0.0
  0
LINE
  5
8A35
  8
3
 10
312.87126358212669
 20
254.62179585716359
 30
0.0
 11
312.87727634660769
 21
254.62179586049899
 31
0.0
  0
LINE
  5
8A36
  8
3
 10
312.87727634660769
 20
254.62179586049899
 30
0.0
 11
312.87727634327229
 21
254.62780862497979
 31
0.0
  0
LINE
  5
8A37
  8
3
 10
312.877276339937
 20
254.63382138946071
 30
0.0
 11
312.88328909774702
 21
254.64584692175791
 31
0.0
  0
LINE
  5
8A38
  8
3
 10
312.87727634327229
 20
254.62780862497979
 30
0.0
 11
312.877276339937
 21
254.63382138946071
 31
0.0
  0
LINE
  5
8A39
  8
3
 10
312.85322530869621
 20
254.58571926027199
 30
0.0
 11
312.85923806984192
 21
254.59173202808819
 31
0.0
  0
LINE
  5
8A3A
  8
3
 10
312.78966608147249
 20
254.3512214088274
 30
0.0
 11
312.80770433822607
 21
254.41736182812349
 31
0.0
  0
LINE
  5
8A3B
  8
3
 10
315.01180819094071
 20
253.8040610751568
 30
0.0
 11
315.02383365986572
 21
253.91229084248371
 31
0.0
  0
LINE
  5
8A3C
  8
3
 10
315.02984636430972
 20
254.02052060647549
 30
0.0
 11
315.02984630093738
 21
254.1347631316126
 31
0.0
  0
LINE
  5
8A3D
  8
3
 10
315.02984630093738
 20
254.1347631316126
 30
0.0
 11
315.02984623756521
 21
254.24900565674989
 31
0.0
  0
LINE
  5
8A3E
  8
3
 10
315.02383365986572
 20
253.91229084248371
 30
0.0
 11
315.02984636430972
 21
254.02052060647549
 31
0.0
  0
LINE
  5
8A3F
  8
3
 10
314.9516806595347
 20
253.5996270494521
 30
0.0
 11
314.98775718971859
 21
253.7018440656399
 31
0.0
  0
LINE
  5
8A40
  8
3
 10
314.98775718971859
 20
253.7018440656399
 30
0.0
 11
315.01180819094071
 21
253.8040610751568
 31
0.0
  0
LINE
  5
8A41
  8
3
 10
314.90357859371818
 20
253.5094355555556
 30
0.0
 11
314.9516806595347
 21
253.5996270494521
 31
0.0
  0
LINE
  5
8A42
  8
3
 10
312.76561528370871
 20
253.88222576597551
 30
0.0
 11
312.7596024825387
 21
253.94836617192991
 31
0.0
  0
LINE
  5
8A43
  8
3
 10
312.75960240582492
 20
254.08665975499079
 30
0.0
 11
312.76561513361651
 21
254.15280016761611
 31
0.0
  0
LINE
  5
8A44
  8
3
 10
312.76561513361651
 20
254.15280016761611
 30
0.0
 11
312.77162786140821
 21
254.21894058024139
 31
0.0
  0
LINE
  5
8A45
  8
3
 10
312.7596024825387
 20
253.94836617192991
 30
0.0
 11
312.75960244584951
 21
254.01450658121991
 31
0.0
  0
LINE
  5
8A46
  8
3
 10
312.75960244584951
 20
254.01450658121991
 30
0.0
 11
312.75960240582492
 21
254.08665975499079
 31
0.0
  0
LINE
  5
8A47
  8
3
 10
312.77162786140821
 20
254.21894058024139
 30
0.0
 11
312.7776405891999
 21
254.2850809928668
 31
0.0
  0
LINE
  5
8A48
  8
3
 10
312.85322594908968
 20
253.43126847993841
 30
0.0
 11
312.8472131779381
 21
253.44329400556481
 31
0.0
  0
LINE
  5
8A49
  8
3
 10
312.84979422992438
 20
253.44329400556481
 30
0.0
 11
312.83776869095641
 21
253.46133229233669
 31
0.0
  0
LINE
  5
8A4A
  8
3
 10
312.83776869095641
 20
253.46133229233669
 30
0.0
 11
312.81973035748911
 21
253.5334854561014
 31
0.0
  0
LINE
  5
8A4B
  8
3
 10
312.80169202402169
 20
253.60563861986611
 30
0.0
 11
312.78966645503539
 21
253.6777917869662
 31
0.0
  0
LINE
  5
8A4C
  8
3
 10
312.81973035748911
 20
253.5334854561014
 30
0.0
 11
312.80169202402169
 21
253.60563861986611
 31
0.0
  0
LINE
  5
8A4D
  8
3
 10
312.7716280848789
 20
253.81608536002091
 30
0.0
 11
312.76561528370871
 21
253.88222576597551
 31
0.0
  0
LINE
  5
8A4E
  8
3
 10
312.77764088938432
 20
253.74393218958531
 30
0.0
 11
312.7716280848789
 21
253.81608536002091
 31
0.0
  0
LINE
  5
8A4F
  8
3
 10
312.78966645503539
 20
253.6777917869662
 30
0.0
 11
312.77764088938432
 21
253.74393218958531
 31
0.0
  0
LINE
  5
8A50
  8
3
 10
315.70928943440532
 20
252.78790426478841
 30
0.0
 11
315.64314906847528
 21
252.70973828984751
 31
0.0
  0
LINE
  5
8A51
  8
3
 10
315.64314906847528
 20
252.70973828984751
 30
0.0
 11
315.57099593806453
 21
252.63157231157109
 31
0.0
  0
LINE
  5
8A52
  8
3
 10
315.82954462396179
 20
252.96828726592321
 30
0.0
 11
315.76941702918361
 21
252.87809576535579
 31
0.0
  0
LINE
  5
8A53
  8
3
 10
315.76941702918361
 20
252.87809576535579
 30
0.0
 11
315.70928943440532
 21
252.78790426478841
 31
0.0
  0
LINE
  5
8A54
  8
3
 10
315.57099593806453
 20
252.63157231157109
 30
0.0
 11
315.49283003983709
 21
252.55941909444019
 31
0.0
  0
LINE
  5
8A55
  8
3
 10
314.8073744120544
 20
253.41924403497589
 30
0.0
 11
314.8133871765354
 21
253.41924403831129
 31
0.0
  0
LINE
  5
8A56
  8
3
 10
314.8133871765354
 20
253.41924403831129
 30
0.0
 11
314.8193999410164
 21
253.41924404164669
 31
0.0
  0
LINE
  5
8A57
  8
3
 10
314.8193999410164
 20
253.41924404164669
 30
0.0
 11
314.82541270549711
 21
253.41924404498201
 31
0.0
  0
LINE
  5
8A58
  8
3
 10
314.82541270549711
 20
253.41924404498201
 30
0.0
 11
314.83142546997811
 21
253.41924404831741
 31
0.0
  0
LINE
  5
8A59
  8
3
 10
314.83142546997811
 20
253.41924404831741
 30
0.0
 11
314.837438234459
 21
253.41924405165281
 31
0.0
  0
LINE
  5
8A5A
  8
3
 10
314.837438234459
 20
253.41924405165281
 30
0.0
 11
314.84946376675617
 21
253.4132312938427
 31
0.0
  0
LINE
  5
8A5B
  8
3
 10
312.77162865522928
 20
252.78790263378619
 30
0.0
 11
312.77162848846012
 21
253.08854085783139
 31
0.0
  0
LINE
  5
8A5C
  8
3
 10
312.9374047485486
 20
253.2568983566874
 30
0.0
 11
312.94341750969409
 21
253.2629111245038
 31
0.0
  0
LINE
  5
8A5D
  8
3
 10
312.94341750969409
 20
253.2629111245038
 30
0.0
 11
312.93139197406151
 21
253.2749366467948
 31
0.0
  0
LINE
  5
8A5E
  8
3
 10
312.83175609991542
 20
253.14866853599429
 30
0.0
 11
312.84378162554191
 21
253.15468130714601
 31
0.0
  0
LINE
  5
8A5F
  8
3
 10
312.84378162554191
 20
253.15468130714601
 30
0.0
 11
312.84979438668739
 21
253.16069407496221
 31
0.0
  0
LINE
  5
8A60
  8
3
 10
312.84721333470122
 20
253.16069407496221
 30
0.0
 11
312.85923886032759
 21
253.1667068461139
 31
0.0
  0
LINE
  5
8A61
  8
3
 10
312.85923886032759
 20
253.1667068461139
 30
0.0
 11
312.87126438928942
 21
253.1667068527847
 31
0.0
  0
LINE
  5
8A62
  8
3
 10
312.87126438928942
 20
253.1667068527847
 30
0.0
 11
312.88328991491579
 21
253.1727196239363
 31
0.0
  0
LINE
  5
8A63
  8
3
 10
312.88328991491579
 20
253.1727196239363
 30
0.0
 11
312.89531544054228
 21
253.17873239508799
 31
0.0
  0
LINE
  5
8A64
  8
3
 10
312.89531544054228
 20
253.17873239508799
 30
0.0
 11
312.9253792596113
 21
253.1847451762458
 31
0.0
  0
LINE
  5
8A65
  8
3
 10
312.9253792596113
 20
253.1847451762458
 30
0.0
 11
312.9253792562759
 21
253.19075794072671
 31
0.0
  0
LINE
  5
8A66
  8
3
 10
312.9253792562759
 20
253.19075794072671
 30
0.0
 11
312.9253792529405
 21
253.1967707052076
 31
0.0
  0
LINE
  5
8A67
  8
3
 10
312.9253792529405
 20
253.1967707052076
 30
0.0
 11
312.93139201742139
 21
253.196770708543
 31
0.0
  0
LINE
  5
8A68
  8
3
 10
312.93139201742139
 20
253.196770708543
 30
0.0
 11
312.9313920140861
 21
253.202783473024
 31
0.0
  0
LINE
  5
8A69
  8
3
 10
312.9313920140861
 20
253.202783473024
 30
0.0
 11
312.9374047752317
 21
253.2087962408402
 31
0.0
  0
LINE
  5
8A6A
  8
3
 10
312.9374047752317
 20
253.2087962408402
 30
0.0
 11
312.93740477189641
 21
253.21480900532109
 31
0.0
  0
LINE
  5
8A6B
  8
3
 10
312.93740477189641
 20
253.21480900532109
 30
0.0
 11
312.93740476856101
 21
253.220821769802
 31
0.0
  0
LINE
  5
8A6C
  8
3
 10
312.93740476856101
 20
253.220821769802
 30
0.0
 11
312.93740476522561
 21
253.226834534283
 31
0.0
  0
LINE
  5
8A6D
  8
3
 10
312.93740476522561
 20
253.226834534283
 30
0.0
 11
312.93740476189021
 21
253.2328472987638
 31
0.0
  0
LINE
  5
8A6E
  8
3
 10
312.93740476189021
 20
253.2328472987638
 30
0.0
 11
312.93740475855481
 21
253.23886006324469
 31
0.0
  0
LINE
  5
8A6F
  8
3
 10
312.93740475855481
 20
253.23886006324469
 30
0.0
 11
312.9374047552194
 21
253.24487282772569
 31
0.0
  0
LINE
  5
8A70
  8
3
 10
312.9374047552194
 20
253.24487282772569
 30
0.0
 11
312.93740475188412
 21
253.2508855922066
 31
0.0
  0
LINE
  5
8A71
  8
3
 10
312.93740475188412
 20
253.2508855922066
 30
0.0
 11
312.9374047485486
 21
253.2568983566874
 31
0.0
  0
LINE
  5
8A72
  8
3
 10
312.93139197406151
 20
253.2749366467948
 30
0.0
 11
312.92537920290982
 21
253.2869621724212
 31
0.0
  0
LINE
  5
8A73
  8
3
 10
312.92537920290982
 20
253.2869621724212
 30
0.0
 11
312.91936643175808
 21
253.2989876980476
 31
0.0
  0
LINE
  5
8A74
  8
3
 10
312.91936643175808
 20
253.2989876980476
 30
0.0
 11
312.9133536572711
 21
253.317025988155
 31
0.0
  0
LINE
  5
8A75
  8
3
 10
312.9133536572711
 20
253.317025988155
 30
0.0
 11
312.90132812163853
 21
253.32905151044599
 31
0.0
  0
LINE
  5
8A76
  8
3
 10
312.90132812163853
 20
253.32905151044599
 30
0.0
 11
312.89531535048701
 21
253.34107703607239
 31
0.0
  0
LINE
  5
8A77
  8
3
 10
312.89531535048701
 20
253.34107703607239
 30
0.0
 11
312.88930257933532
 21
253.35310256169879
 31
0.0
  0
LINE
  5
8A78
  8
3
 10
312.88930257933532
 20
253.35310256169879
 30
0.0
 11
312.88328980818358
 21
253.3651280873253
 31
0.0
  0
LINE
  5
8A79
  8
3
 10
312.88328980818358
 20
253.3651280873253
 30
0.0
 11
312.87727703369649
 21
253.38316637743259
 31
0.0
  0
LINE
  5
8A7A
  8
3
 10
312.87727703369649
 20
253.38316637743259
 30
0.0
 11
312.87126426254491
 21
253.3951919030591
 31
0.0
  0
LINE
  5
8A7B
  8
3
 10
312.87126426254491
 20
253.3951919030591
 30
0.0
 11
312.86525149139322
 21
253.4072174286855
 31
0.0
  0
LINE
  5
8A7C
  8
3
 10
312.86525149139322
 20
253.4072174286855
 30
0.0
 11
312.85923872024148
 21
253.4192429543119
 31
0.0
  0
LINE
  5
8A7D
  8
3
 10
312.819730574289
 20
253.14265576484269
 30
0.0
 11
312.83175609991542
 21
253.14866853599429
 31
0.0
  0
LINE
  5
8A7E
  8
3
 10
312.789666765226
 20
253.11860469024211
 30
0.0
 11
312.7956795263716
 21
253.1246174580584
 31
0.0
  0
LINE
  5
8A7F
  8
3
 10
312.7956795263716
 20
253.1246174580584
 30
0.0
 11
312.80169228751703
 21
253.1306302258748
 31
0.0
  0
LINE
  5
8A80
  8
3
 10
312.80169228751703
 20
253.1306302258748
 30
0.0
 11
312.81371781314351
 21
253.1366429970264
 31
0.0
  0
LINE
  5
8A81
  8
3
 10
312.81371781314351
 20
253.1366429970264
 30
0.0
 11
312.819730574289
 21
253.14265576484269
 31
0.0
  0
LINE
  5
8A82
  8
3
 10
312.77162848846012
 20
253.08854085783139
 30
0.0
 11
312.77162848178938
 21
253.10056638679319
 31
0.0
  0
LINE
  5
8A83
  8
3
 10
312.77162848178938
 20
253.10056638679319
 30
0.0
 11
312.78365400741592
 21
253.10657915794499
 31
0.0
  0
LINE
  5
8A84
  8
3
 10
312.78365400741592
 20
253.10657915794499
 30
0.0
 11
312.789666765226
 21
253.11860469024211
 31
0.0
  0
LINE
  5
8A85
  8
3
 10
315.90770725017882
 20
258.93896243882102
 30
0.0
 11
315.94378388042389
 21
258.86079652058157
 31
0.0
  0
LINE
  5
8A86
  8
3
 10
316.15422856931849
 20
262.58871061548058
 30
0.0
 11
316.1542285859955
 21
262.55864679307609
 31
0.0
  0
LINE
  5
8A87
  8
3
 10
315.99789644599662
 20
263.03365510034757
 30
0.0
 11
316.00390922381922
 21
263.00960404575932
 31
0.0
  0
LINE
  5
8A88
  8
3
 10
315.9618198290928
 20
263.08776996066342
 30
0.0
 11
315.97384536806078
 21
263.06973167389151
 31
0.0
  0
LINE
  5
8A89
  8
3
 10
315.98587090702858
 20
263.0516933871196
 30
0.0
 11
315.99789644599662
 21
263.03365510034757
 31
0.0
  0
LINE
  5
8A8A
  8
3
 10
315.97384536806078
 20
263.06973167389151
 30
0.0
 11
315.98587090702858
 21
263.0516933871196
 31
0.0
  0
LINE
  5
8A8B
  8
3
 10
315.87764104631088
 20
263.2320762615098
 30
0.0
 11
315.88966658527892
 21
263.21403797473778
 31
0.0
  0
LINE
  5
8A8C
  8
3
 10
315.88966658527892
 20
263.21403797473778
 30
0.0
 11
315.90169212424689
 21
263.19599968796581
 31
0.0
  0
LINE
  5
8A8D
  8
3
 10
315.90169212424689
 20
263.19599968796581
 30
0.0
 11
315.91371766655021
 21
263.17194863671301
 31
0.0
  0
LINE
  5
8A8E
  8
3
 10
315.91371766655021
 20
263.17194863671301
 30
0.0
 11
315.93175596999902
 21
263.1539103532765
 31
0.0
  0
LINE
  5
8A8F
  8
3
 10
315.93175596999902
 20
263.1539103532765
 30
0.0
 11
315.95580705460583
 21
263.10580825077079
 31
0.0
  0
LINE
  5
8A90
  8
3
 10
315.95580705460583
 20
263.10580825077079
 30
0.0
 11
315.9618198290928
 21
263.08776996066342
 31
0.0
  0
LINE
  5
8A91
  8
3
 10
316.14821578816083
 20
262.61877443454972
 30
0.0
 11
316.15422856931849
 21
262.58871061548058
 31
0.0
  0
LINE
  5
8A92
  8
3
 10
316.02194753727412
 20
262.97352746887998
 30
0.0
 11
316.03397307624209
 21
262.95548918210812
 31
0.0
  0
LINE
  5
8A93
  8
3
 10
316.00390922381922
 20
263.00960404575932
 30
0.0
 11
316.01593476278703
 21
262.99156575898741
 31
0.0
  0
LINE
  5
8A94
  8
3
 10
316.01593476278703
 20
262.99156575898741
 30
0.0
 11
316.02194753727412
 21
262.97352746887998
 31
0.0
  0
LINE
  5
8A95
  8
3
 10
316.03397307624209
 20
262.95548918210812
 30
0.0
 11
316.03998585072912
 21
262.93745089200081
 31
0.0
  0
LINE
  5
8A96
  8
3
 10
316.03998585072912
 20
262.93745089200081
 30
0.0
 11
316.0459986285515
 21
262.91339983741261
 31
0.0
  0
LINE
  5
8A97
  8
3
 10
316.0459986285515
 20
262.91339983741261
 30
0.0
 11
316.05802416751948
 21
262.89536155064059
 31
0.0
  0
LINE
  5
8A98
  8
3
 10
316.05802416751948
 20
262.89536155064059
 30
0.0
 11
316.06403694200662
 21
262.87732326053327
 31
0.0
  0
LINE
  5
8A99
  8
3
 10
316.06403694200662
 20
262.87732326053327
 30
0.0
 11
316.07606248097449
 21
262.85928497376131
 31
0.0
  0
LINE
  5
8A9A
  8
3
 10
316.07606248097449
 20
262.85928497376131
 30
0.0
 11
316.08808801994252
 21
262.84124668698928
 31
0.0
  0
LINE
  5
8A9B
  8
3
 10
316.08808801994252
 20
262.84124668698928
 30
0.0
 11
316.1121390978783
 21
262.80517011344551
 31
0.0
  0
LINE
  5
8A9C
  8
3
 10
316.1121390978783
 20
262.80517011344551
 30
0.0
 11
316.1181518790363
 21
262.77510629437631
 31
0.0
  0
LINE
  5
8A9D
  8
3
 10
316.1181518790363
 20
262.77510629437631
 30
0.0
 11
316.12416466019403
 21
262.74504247530717
 31
0.0
  0
LINE
  5
8A9E
  8
3
 10
316.12416466019403
 20
262.74504247530717
 30
0.0
 11
316.1301774413518
 21
262.71497865623797
 31
0.0
  0
LINE
  5
8A9F
  8
3
 10
316.1301774413518
 20
262.71497865623797
 30
0.0
 11
316.13619022250958
 21
262.684914837169
 31
0.0
  0
LINE
  5
8AA0
  8
3
 10
316.13619022250958
 20
262.684914837169
 30
0.0
 11
316.14220300366748
 21
262.65485101809981
 31
0.0
  0
LINE
  5
8AA1
  8
3
 10
316.14220300366748
 20
262.65485101809981
 30
0.0
 11
316.14821578816083
 21
262.61877443454972
 31
0.0
  0
LINE
  5
8AA2
  8
3
 10
316.18429253847978
 20
262.32414899499781
 30
0.0
 11
316.19030592000661
 21
261.21178756936592
 31
0.0
  0
LINE
  5
8AA3
  8
3
 10
316.17827974064511
 20
262.3842766364715
 30
0.0
 11
316.18429253847978
 21
262.32414899499781
 31
0.0
  0
LINE
  5
8AA4
  8
3
 10
316.1542285859955
 20
262.55864679307609
 30
0.0
 11
316.16024136715328
 21
262.52858297400689
 31
0.0
  0
LINE
  5
8AA5
  8
3
 10
316.16024136715328
 20
262.52858297400689
 30
0.0
 11
316.166254148311
 21
262.4985191549377
 31
0.0
  0
LINE
  5
8AA6
  8
3
 10
316.166254148311
 20
262.4985191549377
 30
0.0
 11
316.166254164988
 21
262.46845533253332
 31
0.0
  0
LINE
  5
8AA7
  8
3
 10
316.166254164988
 20
262.46845533253332
 30
0.0
 11
316.17226694281032
 21
262.44440427794513
 31
0.0
  0
LINE
  5
8AA8
  8
3
 10
316.17226694281032
 20
262.44440427794513
 30
0.0
 11
316.1782797239681
 21
262.41434045887593
 31
0.0
  0
LINE
  5
8AA9
  8
3
 10
316.1782797239681
 20
262.41434045887593
 30
0.0
 11
316.17827974064511
 21
262.3842766364715
 31
0.0
  0
LINE
  5
8AAA
  8
3
 10
316.18429253847978
 20
262.32414899499781
 30
0.0
 11
316.18429253847978
 21
262.32414899499781
 31
0.0
  0
LINE
  5
8AAB
  8
3
 10
316.23840871960721
 20
259.9791708774635
 30
0.0
 11
315.99188537922549
 21
259.97315797623202
 31
0.0
  0
LINE
  5
8AAC
  8
3
 10
316.0941049703286
 20
255.29522726678991
 30
0.0
 11
316.09410501702388
 21
255.21104856405719
 31
0.0
  0
LINE
  5
8AAD
  8
3
 10
316.10612885828232
 20
258.25350739806549
 30
0.0
 11
316.10612949867573
 21
257.09905661773189
 31
0.0
  0
LINE
  5
8AAE
  8
3
 10
316.05201382452651
 20
258.53009453416871
 30
0.0
 11
316.09410327595418
 21
258.34971162308932
 31
0.0
  0
LINE
  5
8AAF
  8
3
 10
315.94378388042389
 20
258.86079652058157
 30
0.0
 11
315.9738477461886
 21
258.78263059900672
 31
0.0
  0
LINE
  5
8AB0
  8
3
 10
316.00391161528847
 20
258.69845191295099
 30
0.0
 11
316.02796271990741
 21
258.61427322355991
 31
0.0
  0
LINE
  5
8AB1
  8
3
 10
316.02796271990741
 20
258.61427322355991
 30
0.0
 11
316.05201382452651
 21
258.53009453416871
 31
0.0
  0
LINE
  5
8AB2
  8
3
 10
315.9738477461886
 20
258.78263059900672
 30
0.0
 11
316.00391161528847
 21
258.69845191295099
 31
0.0
  0
LINE
  5
8AB3
  8
3
 10
316.1001160804596
 20
258.27755845265381
 30
0.0
 11
316.10011608379511
 21
258.27154568817292
 31
0.0
  0
LINE
  5
8AB4
  8
3
 10
316.10011608379511
 20
258.27154568817292
 30
0.0
 11
316.1001160871304
 21
258.26553292369198
 31
0.0
  0
LINE
  5
8AB5
  8
3
 10
316.1001160871304
 20
258.26553292369198
 30
0.0
 11
316.10612885828232
 21
258.25350739806549
 31
0.0
  0
LINE
  5
8AB6
  8
3
 10
316.10612885828232
 20
258.25350739806549
 30
0.0
 11
316.10612885828232
 21
258.25350739806549
 31
0.0
  0
LINE
  5
8AB7
  8
3
 10
316.10011607712431
 20
258.28357121713469
 30
0.0
 11
316.1001160804596
 21
258.27755845265381
 31
0.0
  0
LINE
  5
8AB8
  8
3
 10
316.09410330597262
 20
258.29559674276118
 30
0.0
 11
316.09410330930803
 21
258.28958397828029
 31
0.0
  0
LINE
  5
8AB9
  8
3
 10
316.09410330930803
 20
258.28958397828029
 30
0.0
 11
316.09410331264343
 21
258.28357121379941
 31
0.0
  0
LINE
  5
8ABA
  8
3
 10
316.09410331264343
 20
258.28357121379941
 30
0.0
 11
316.10011607712431
 21
258.28357121713469
 31
0.0
  0
LINE
  5
8ABB
  8
3
 10
316.08809053482088
 20
258.30762226838749
 30
0.0
 11
316.08809053815639
 21
258.30160950390672
 31
0.0
  0
LINE
  5
8ABC
  8
3
 10
316.08809053815639
 20
258.30160950390672
 30
0.0
 11
316.09410330597262
 21
258.29559674276118
 31
0.0
  0
LINE
  5
8ABD
  8
3
 10
316.08809051480858
 20
258.34369885527292
 30
0.0
 11
316.0880905181441
 21
258.33768609079198
 31
0.0
  0
LINE
  5
8ABE
  8
3
 10
316.0880905181441
 20
258.33768609079198
 30
0.0
 11
316.08809052147939
 21
258.33167332631109
 31
0.0
  0
LINE
  5
8ABF
  8
3
 10
316.08809052147939
 20
258.33167332631109
 30
0.0
 11
316.08809052481479
 21
258.32566056183032
 31
0.0
  0
LINE
  5
8AC0
  8
3
 10
316.08809052481479
 20
258.32566056183032
 30
0.0
 11
316.08809053148559
 21
258.31363503286849
 31
0.0
  0
LINE
  5
8AC1
  8
3
 10
316.09410327595418
 20
258.34971162308932
 30
0.0
 11
316.08809051480858
 21
258.34369885527292
 31
0.0
  0
LINE
  5
8AC2
  8
3
 10
316.08809053148559
 20
258.31363503286849
 30
0.0
 11
316.08809053482088
 21
258.30762226838749
 31
0.0
  0
LINE
  5
8AC3
  8
3
 10
315.97986145124742
 20
257.08703101872709
 30
0.0
 11
315.91973380643827
 21
257.0870309853733
 31
0.0
  0
LINE
  5
8AC4
  8
3
 10
316.10612949867573
 20
257.09905661773189
 30
0.0
 11
316.0399890927211
 21
257.09304381656182
 31
0.0
  0
LINE
  5
8AC5
  8
3
 10
316.0399890927211
 20
257.09304381656182
 30
0.0
 11
315.97986145124742
 21
257.08703101872709
 31
0.0
  0
LINE
  5
8AC6
  8
3
 10
315.97986194488408
 20
256.19714187555331
 30
0.0
 11
316.00992580064218
 21
256.13701424742118
 31
0.0
  0
LINE
  5
8AC7
  8
3
 10
315.94979808912569
 20
256.25726950368539
 30
0.0
 11
315.97986194488408
 21
256.19714187555331
 31
0.0
  0
LINE
  5
8AC8
  8
3
 10
315.87163209083701
 20
256.36549922098169
 30
0.0
 11
315.91372147222182
 21
256.31138436400119
 31
0.0
  0
LINE
  5
8AC9
  8
3
 10
315.91372147222182
 20
256.31138436400119
 30
0.0
 11
315.94979808912569
 21
256.25726950368539
 31
0.0
  0
LINE
  5
8ACA
  8
3
 10
316.09410472017493
 20
255.74618460285771
 30
0.0
 11
316.09410474352251
 21
255.7040952514914
 31
0.0
  0
LINE
  5
8ACB
  8
3
 10
316.09410469682717
 20
255.788273954224
 30
0.0
 11
316.09410472017493
 21
255.74618460285771
 31
0.0
  0
LINE
  5
8ACC
  8
3
 10
316.09410467347948
 20
255.8303633055904
 30
0.0
 11
316.09410469682717
 21
255.788273954224
 31
0.0
  0
LINE
  5
8ACD
  8
3
 10
316.05802798986809
 20
256.00473345552427
 30
0.0
 11
316.09410465346718
 21
255.8664398924758
 31
0.0
  0
LINE
  5
8ACE
  8
3
 10
316.00992580064218
 20
256.13701424742118
 30
0.0
 11
316.03998965973619
 21
256.0708738548081
 31
0.0
  0
LINE
  5
8ACF
  8
3
 10
316.03998965973619
 20
256.0708738548081
 30
0.0
 11
316.05802798986809
 21
256.00473345552427
 31
0.0
  0
LINE
  5
8AD0
  8
3
 10
316.09410465346718
 20
255.8664398924758
 30
0.0
 11
316.09410467347948
 21
255.8303633055904
 31
0.0
  0
LINE
  5
8AD1
  8
3
 10
316.09410488027322
 20
255.45757190777431
 30
0.0
 11
316.09410490362092
 21
255.41548255640799
 31
0.0
  0
LINE
  5
8AD2
  8
3
 10
316.09410474352251
 20
255.7040952514914
 30
0.0
 11
316.0941047668702
 21
255.66200590012511
 31
0.0
  0
LINE
  5
8AD3
  8
3
 10
316.0941047668702
 20
255.66200590012511
 30
0.0
 11
316.0941047902179
 21
255.61991654875871
 31
0.0
  0
LINE
  5
8AD4
  8
3
 10
316.0941047902179
 20
255.61991654875871
 30
0.0
 11
316.09410481356559
 21
255.57782719739239
 31
0.0
  0
LINE
  5
8AD5
  8
3
 10
316.09410481356559
 20
255.57782719739239
 30
0.0
 11
316.09410483357789
 21
255.54175061050699
 31
0.0
  0
LINE
  5
8AD6
  8
3
 10
316.09410483357789
 20
255.54175061050699
 30
0.0
 11
316.09410485692558
 21
255.49966125914071
 31
0.0
  0
LINE
  5
8AD7
  8
3
 10
316.09410485692558
 20
255.49966125914071
 30
0.0
 11
316.09410488027322
 21
255.45757190777431
 31
0.0
  0
LINE
  5
8AD8
  8
3
 10
316.09410490362092
 20
255.41548255640799
 30
0.0
 11
316.09410492363321
 21
255.37940596952251
 31
0.0
  0
LINE
  5
8AD9
  8
3
 10
316.09410492363321
 20
255.37940596952251
 30
0.0
 11
316.09410494698091
 21
255.33731661815619
 31
0.0
  0
LINE
  5
8ADA
  8
3
 10
316.09410494698091
 20
255.33731661815619
 30
0.0
 11
316.0941049703286
 21
255.29522726678991
 31
0.0
  0
LINE
  5
8ADB
  8
3
 10
316.03397832946979
 20
253.485385124684
 30
0.0
 11
316.00391456710219
 21
253.37715534735071
 31
0.0
  0
LINE
  5
8ADC
  8
3
 10
316.07606720054099
 20
254.35122323328179
 30
0.0
 11
316.07606722722397
 21
254.30312111743461
 31
0.0
  0
LINE
  5
8ADD
  8
3
 10
316.05802871364608
 20
254.6999635631681
 30
0.0
 11
316.06404150481012
 21
254.6518614506563
 31
0.0
  0
LINE
  5
8ADE
  8
3
 10
316.05201592248221
 20
254.7480656756799
 30
0.0
 11
316.05802871364608
 21
254.6999635631681
 31
0.0
  0
LINE
  5
8ADF
  8
3
 10
316.07005432265697
 20
254.55565722229721
 30
0.0
 11
316.07005435267553
 21
254.50154234196901
 31
0.0
  0
LINE
  5
8AE0
  8
3
 10
316.06404150481012
 20
254.6518614506563
 30
0.0
 11
316.07005429597399
 21
254.60375933814441
 31
0.0
  0
LINE
  5
8AE1
  8
3
 10
316.07005429597399
 20
254.60375933814441
 30
0.0
 11
316.07005432265697
 21
254.55565722229721
 31
0.0
  0
LINE
  5
8AE2
  8
3
 10
316.07005435267553
 20
254.50154234196901
 30
0.0
 11
316.07606714383951
 21
254.45344022945719
 31
0.0
  0
LINE
  5
8AE3
  8
3
 10
316.07606714383951
 20
254.45344022945719
 30
0.0
 11
316.07606717052249
 21
254.4053381136099
 31
0.0
  0
LINE
  5
8AE4
  8
3
 10
316.07606717052249
 20
254.4053381136099
 30
0.0
 11
316.07606720054099
 21
254.35122323328179
 31
0.0
  0
LINE
  5
8AE5
  8
3
 10
316.09410571745428
 20
253.9483680230673
 30
0.0
 11
316.08809301634568
 21
253.83412549459479
 31
0.0
  0
LINE
  5
8AE6
  8
3
 10
316.07606722722397
 20
254.30312111743461
 30
0.0
 11
316.07606725390713
 21
254.25501900158741
 31
0.0
  0
LINE
  5
8AE7
  8
3
 10
316.07606731060861
 20
254.15280200541201
 30
0.0
 11
316.07606734062699
 21
254.09868712508381
 31
0.0
  0
LINE
  5
8AE8
  8
3
 10
316.07606728392562
 20
254.20090412125921
 30
0.0
 11
316.07606731060861
 21
254.15280200541201
 31
0.0
  0
LINE
  5
8AE9
  8
3
 10
316.07606725390713
 20
254.25501900158741
 30
0.0
 11
316.07606728392562
 21
254.20090412125921
 31
0.0
  0
LINE
  5
8AEA
  8
3
 10
316.07606734062699
 20
254.09868712508381
 30
0.0
 11
316.08208013179097
 21
254.05058501257199
 31
0.0
  0
LINE
  5
8AEB
  8
3
 10
316.08208013179097
 20
254.05058501257199
 30
0.0
 11
316.09410571745428
 21
253.9483680230673
 31
0.0
  0
LINE
  5
8AEC
  8
3
 10
316.07606755409148
 20
253.7138701983059
 30
0.0
 11
316.05802932402111
 21
253.59962766316249
 31
0.0
  0
LINE
  5
8AED
  8
3
 10
316.08809301634568
 20
253.83412549459479
 30
0.0
 11
316.07606755409148
 21
253.7138701983059
 31
0.0
  0
LINE
  5
8AEE
  8
3
 10
316.05802932402111
 20
253.59962766316249
 30
0.0
 11
316.03397832946979
 21
253.485385124684
 31
0.0
  0
LINE
  5
8AEF
  8
3
 10
315.96783804025358
 20
253.2689255666821
 30
0.0
 11
315.92574874558881
 21
253.166708547159
 31
0.0
  0
LINE
  5
8AF0
  8
3
 10
316.00391456710219
 20
253.37715534735071
 30
0.0
 11
315.96783804025358
 21
253.2689255666821
 31
0.0
  0
LINE
  5
8AF1
  8
3
 10
315.92574874558881
 20
253.166708547159
 30
0.0
 11
315.88365945092391
 21
253.06449152763611
 31
0.0
  0
LINE
  5
8AF2
  8
3
 10
315.86561550734291
 20
263.25011454828172
 30
0.0
 11
315.87764104631088
 21
263.2320762615098
 31
0.0
  0
LINE
  5
8AF3
  8
3
 10
316.19030592000661
 20
261.21178756936592
 30
0.0
 11
315.15009765813932
 21
261.2238125213064
 31
0.0
  0
LINE
  5
8AF4
  8
3
 10
315.8235273800621
 20
261.0434299604421
 30
0.0
 11
315.97384649375238
 21
261.04042366158632
 31
0.0
  0
LINE
  5
8AF5
  8
3
 10
315.99188537922549
 20
259.97315797623202
 30
0.0
 11
315.73934927102761
 21
259.97315783614579
 31
0.0
  0
LINE
  5
8AF6
  8
3
 10
315.86561785878769
 20
259.01111558924418
 30
0.0
 11
315.90770725017882
 21
258.93896243882102
 31
0.0
  0
LINE
  5
8AF7
  8
3
 10
315.91973380643827
 20
257.0870309853733
 30
0.0
 11
315.85359340048382
 21
257.08101818420317
 31
0.0
  0
LINE
  5
8AF8
  8
3
 10
315.8295427094522
 20
256.41961407796219
 30
0.0
 11
315.87163209083701
 21
256.36549922098169
 31
0.0
  0
LINE
  5
8AF9
  8
3
 10
316.09410501702388
 20
255.21104856405719
 30
0.0
 11
315.04788399734662
 21
255.21104798370069
 31
0.0
  0
LINE
  5
8AFA
  8
3
 10
315.84758180338679
 20
254.97655061255139
 30
0.0
 11
316.05201592248221
 21
254.7480656756799
 31
0.0
  0
LINE
  5
8AFB
  8
3
 10
315.88365945092391
 20
253.06449152763611
 30
0.0
 11
315.82954462396179
 21
252.96828726592321
 31
0.0
  0
LINE
  5
8AFC
  8
3
 10
315.49283003983709
 20
252.55941909444019
 30
0.0
 11
315.33048546889592
 21
252.43315095028589
 31
0.0
  0
LINE
  5
8AFD
  8
3
 10
312.77162912885359
 20
251.93409007749781
 30
0.0
 11
312.77162865522928
 21
252.78790263378619
 31
0.0
  0
ARC
  5
8AFE
  8
0
 10
309.27962993004002
 20
303.65590977094502
 30
0.0
 40
2.5
 50
90.000000000000028
 51
180.0
1001
GENIUS_GENODEF_13
1002
{
1000
HIER
1070
     0
1002
}
1002
{
1000
MANEDIT
1070
     0
1002
}
1002
{
1000
NOSEL
1070
     0
1002
}
1002
{
1000
BEHIND
1070
     0
1002
}
1002
{
1000
REACTOR
1002
}
1001
GENIUS_GENOBJ-N-FIL_13
1002
{
1000
OWNER
1000
GEN
1002
}
  0
LINE
  5
8AFF
  8
1
 10
355.52962993004002
 20
204.1559526231398
 30
0.0
 11
355.52962993004002
 21
311.65590977094507
 31
0.0
  0
LINE
  5
8B02
  8
0
 10
327.27704887805311
 20
234.02839067104929
 30
0.0
 11
327.27704887805311
 21
222.08962040805281
 31
0.0
  0
LINE
  5
8B03
  8
0
 10
367.46840019303659
 20
232.5360443881747
 30
0.0
 11
367.46840019303659
 21
223.58196669092729
 31
0.0
  0
LINE
  5
8B04
  8
0
 10
377.2822109820263
 20
234.02839067104929
 30
0.0
 11
377.2822109820263
 21
222.08962040805281
 31
0.0
  0
LINE
  5
8B05
  8
0
 10
383.78221098202698
 20
222.08962040805281
 30
0.0
 11
327.27704887805311
 21
222.08962040805281
 31
0.0
  0
LINE
  5
8B06
  8
0
 10
383.78221098202698
 20
210.15085014505621
 30
0.0
 11
345.08320594991801
 21
210.15085014505621
 31
0.0
  0
LINE
  5
8B07
  8
0
 10
333.77704887805368
 20
222.08962040805281
 30
0.0
 11
333.77704887805368
 21
209.6559526231398
 31
0.0
  0
ARC
  5
8B08
  8
0
 10
345.08320594991801
 20
211.64319642793069
 30
0.0
 40
1.4923462828745691
 50
180.0
 51
270.0
  0
LINE
  5
8B09
  8
0
 10
343.59085966704339
 20
220.5972741251781
 30
0.0
 11
343.59085966704339
 21
211.64319642793069
 31
0.0
  0
ARC
  5
8B0A
  8
0
 10
345.08320594991801
 20
220.5972741251781
 30
0.0
 40
1.4923462828745691
 50
90.000000000000028
 51
180.0
  0
LINE
  5
8B0B
  8
0
 10
348.77704887805368
 20
210.15085014505621
 30
0.0
 11
348.77704887805379
 21
209.6559526231398
 31
0.0
  0
LINE
  5
8B0C
  8
0
 10
348.77704887805379
 20
209.6559526231398
 30
0.0
 11
348.77704887805379
 21
210.15085014505621
 31
0.0
  0
LINE
  5
8B0D
  8
0
 10
362.2822109820263
 20
209.6559526231398
 30
0.0
 11
362.2822109820263
 21
210.15085014505621
 31
0.0
  0
LINE
  5
8B0E
  8
0
 10
369.27819523686941
 20
209.6559526231398
 30
0.0
 11
369.27819523686941
 21
210.15085014505621
 31
0.0
  0
ARC
  5
8B0F
  8
0
 10
365.97605391016202
 20
223.58196669092729
 30
0.0
 40
1.4923462828745691
 50
270.0
 51
0.0
  0
LINE
  5
8B10
  8
0
 10
383.78221098202698
 20
222.08962040805281
 30
0.0
 11
383.78221098202698
 21
210.15085014505621
 31
0.0
  0
LINE
  5
8B11
  8
0
 10
365.97605391016202
 20
305.6610122490286
 30
0.0
 11
327.27704887805311
 21
305.6610122490286
 31
0.0
  0
LINE
  5
8B12
  8
0
 10
383.78221098202698
 20
234.02839067104929
 30
0.0
 11
327.27704887805311
 21
234.02839067104929
 31
0.0
  0
LINE
  5
8B13
  8
0
 10
383.78221098202698
 20
245.96716093404581
 30
0.0
 11
327.27704887805311
 21
245.96716093404581
 31
0.0
  0
LINE
  5
8B14
  8
0
 10
383.78221098202698
 20
257.90593119704238
 30
0.0
 11
327.27704887805311
 21
257.90593119704238
 31
0.0
  0
LINE
  5
8B15
  8
0
 10
383.78221098202698
 20
269.844701460039
 30
0.0
 11
327.27704887805311
 21
269.844701460039
 31
0.0
  0
LINE
  5
8B16
  8
0
 10
383.78221098202698
 20
281.78347172303557
 30
0.0
 11
327.27704887805311
 21
281.78347172303557
 31
0.0
  0
LINE
  5
8B17
  8
0
 10
383.78221098202698
 20
293.72224198603209
 30
0.0
 11
327.27704887805311
 21
293.72224198603209
 31
0.0
  0
LINE
  5
8B18
  8
1
 10
324.27965205039652
 20
301.65594560484158
 30
0.0
 11
324.27963924345931
 21
273.65594560484459
 31
0.0
  0
LINE
  5
8B19
  8
0
 10
327.27704887805311
 20
281.78347172303557
 30
0.0
 11
327.27704887805311
 21
269.844701460039
 31
0.0
  0
LINE
  5
8B1A
  8
0
 10
327.27704887805311
 20
257.90593119704238
 30
0.0
 11
327.27704887805311
 21
245.96716093404581
 31
0.0
  0
LINE
  5
8B1B
  8
0
 10
333.77704887805368
 20
245.96716093404581
 30
0.0
 11
333.77704887805368
 21
234.02839067104929
 31
0.0
  0
LINE
  5
8B1C
  8
3
 10
317.17096167875599
 20
259.98518415924741
 30
0.0
 11
317.17096108260461
 21
261.0598787789076
 31
0.0
  0
LINE
  5
8B1D
  8
3
 10
316.96652768640541
 20
259.98518404584451
 30
0.0
 11
316.71341711359872
 21
259.97917114095861
 31
0.0
  0
LINE
  5
8B1E
  8
3
 10
317.17096167875599
 20
259.98518415924741
 30
0.0
 11
316.96652768640541
 21
259.98518404584451
 31
0.0
  0
LINE
  5
8B1F
  8
3
 10
316.71341711359872
 20
259.97917114095861
 30
0.0
 11
316.48493206332432
 21
259.97917101421422
 31
0.0
  0
LINE
  5
8B20
  8
0
 10
333.77704887805368
 20
269.844701460039
 30
0.0
 11
333.77704887805368
 21
257.90593119704238
 31
0.0
  0
LINE
  5
8B21
  8
0
 10
343.59085966704339
 20
244.4748146511713
 30
0.0
 11
343.59085966704339
 21
235.52073695392389
 31
0.0
  0
ARC
  5
8B22
  8
0
 10
345.08320594991801
 20
235.52073695392389
 30
0.0
 40
1.4923462828745691
 50
180.0
 51
270.0
  0
ARC
  5
8B23
  8
0
 10
345.08320594991801
 20
244.4748146511713
 30
0.0
 40
1.4923462828745691
 50
90.000000000000028
 51
180.0
  0
LINE
  5
8B24
  8
0
 10
343.59085966704339
 20
268.35235517716438
 30
0.0
 11
343.59085966704339
 21
259.398277479917
 31
0.0
  0
ARC
  5
8B25
  8
0
 10
345.08320594991801
 20
259.398277479917
 30
0.0
 40
1.4923462828745691
 50
180.0
 51
270.0
  0
ARC
  5
8B26
  8
0
 10
345.08320594991801
 20
268.35235517716438
 30
0.0
 40
1.4923462828745691
 50
90.000000000000028
 51
180.0
  0
LINE
  5
8B27
  8
0
 10
333.77704887805368
 20
293.72224198603209
 30
0.0
 11
333.77704887805368
 21
281.78347172303557
 31
0.0
  0
LINE
  5
8B28
  8
0
 10
327.27704887805311
 20
305.6610122490286
 30
0.0
 11
327.27704887805311
 21
293.72224198603209
 31
0.0
  0
LINE
  5
8B29
  8
0
 10
348.77704887805379
 20
306.15590977094502
 30
0.0
 11
348.77704887805368
 21
305.66101224902872
 31
0.0
  0
ARC
  5
8B2A
  8
0
 10
345.08320594991801
 20
292.22989570315752
 30
0.0
 40
1.4923462828745691
 50
90.000000000000028
 51
180.0
  0
LINE
  5
8B2B
  8
0
 10
343.59085966704339
 20
292.22989570315752
 30
0.0
 11
343.59085966704339
 21
283.27581800591008
 31
0.0
  0
ARC
  5
8B2C
  8
0
 10
345.08320594991801
 20
283.27581800591008
 30
0.0
 40
1.4923462828745691
 50
180.0
 51
270.0
  0
LINE
  5
8B2E
  8
0
 10
367.46840019303659
 20
280.2911254401609
 30
0.0
 11
367.46840019303659
 21
271.33704774291351
 31
0.0
  0
LINE
  5
8B2F
  8
0
 10
377.2822109820263
 20
281.78347172303557
 30
0.0
 11
377.2822109820263
 21
269.844701460039
 31
0.0
  0
LINE
  5
8B30
  8
0
 10
367.46840019303659
 20
256.41358491416793
 30
0.0
 11
367.46840019303659
 21
247.4595072169204
 31
0.0
  0
ARC
  5
8B31
  8
0
 10
365.97605391016202
 20
232.5360443881747
 30
0.0
 40
1.4923462828745691
 50
0.0
 51
90.000000000000028
  0
ARC
  5
8B32
  8
0
 10
365.97605391016202
 20
247.4595072169204
 30
0.0
 40
1.4923462828745691
 50
270.0
 51
0.0
  0
ARC
  5
8B33
  8
0
 10
365.97605391016202
 20
256.41358491416793
 30
0.0
 40
1.4923462828745691
 50
0.0
 51
90.000000000000028
  0
ARC
  5
8B34
  8
0
 10
365.97605391016202
 20
271.33704774291351
 30
0.0
 40
1.4923462828745691
 50
270.0
 51
0.0
  0
LINE
  5
8B35
  8
0
 10
377.2822109820263
 20
257.90593119704238
 30
0.0
 11
377.2822109820263
 21
245.96716093404589
 31
0.0
  0
LINE
  5
8B36
  8
0
 10
383.78221098202698
 20
245.96716093404581
 30
0.0
 11
383.78221098202698
 21
234.02839067104929
 31
0.0
  0
LINE
  5
8B37
  8
0
 10
383.78221098202698
 20
269.844701460039
 30
0.0
 11
383.78221098202698
 21
257.90593119704238
 31
0.0
  0
LINE
  5
8B38
  8
3
 10
393.8882990230934
 20
255.83635051225099
 30
0.0
 11
394.09273301544408
 21
255.83635051225099
 31
0.0
  0
LINE
  5
8B39
  8
3
 10
394.09273301544408
 20
255.83635051225099
 30
0.0
 11
394.34584359158617
 21
255.8423632767321
 31
0.0
  0
LINE
  5
8B3A
  8
3
 10
393.8882990230934
 20
255.83635051225099
 30
0.0
 11
393.8882990230934
 21
254.7616558925908
 31
0.0
  0
LINE
  5
8B3B
  8
0
 10
362.2822109820263
 20
305.66101224902872
 30
0.0
 11
362.2822109820263
 21
306.15590977094502
 31
0.0
  0
ARC
  5
8B3C
  8
0
 10
365.97605391016202
 20
280.2911254401609
 30
0.0
 40
1.4923462828745691
 50
0.0
 51
90.000000000000028
  0
LINE
  5
8B3D
  8
0
 10
367.46840019303659
 20
304.16866596615409
 30
0.0
 11
367.46840019303659
 21
295.2145882689066
 31
0.0
  0
ARC
  5
8B3E
  8
0
 10
365.97605391016202
 20
304.16866596615409
 30
0.0
 40
1.4923462828745691
 50
0.0
 51
90.000000000000028
  0
ARC
  5
8B3F
  8
0
 10
365.97605391016202
 20
295.2145882689066
 30
0.0
 40
1.4923462828745691
 50
270.0
 51
0.0
  0
LINE
  5
8B40
  8
0
 10
377.28221098202619
 20
306.15590977094502
 30
0.0
 11
377.2822109820263
 21
293.72224198603197
 31
0.0
  0
LINE
  5
8B41
  8
0
 10
383.78221098202698
 20
293.72224198603209
 30
0.0
 11
383.78221098202698
 21
281.78347172303557
 31
0.0
  0
LINE
  5
8B42
  8
2
 10
315.6187396192243
 20
104.7294468651739
 30
0.0
 11
317.52962993004019
 21
104.7294468651738
 31
0.0
  0
LINE
  5
8B43
  8
2
 10
315.6187396192243
 20
113.7294468651738
 30
0.0
 11
332.94052024085607
 21
113.7294468651738
 31
0.0
1001
GENIUS_GENOREF_13
1005
0
  0
ARC
  5
8B46
  8
0
 10
312.74901506153827
 20
113.2600617336756
 30
0.0
 40
5.9693851314982789
 50
90.000000000000057
 51
180.0
  0
LINE
  5
8B47
  8
2
 10
315.6187396192243
 20
113.7294468651738
 30
0.0
 11
315.6187396192243
 21
104.7294468651739
 31
0.0
  0
LINE
  5
8B48
  8
0
 10
306.77962993004002
 20
98.729446865173884
 30
0.0
 11
306.77962993004002
 21
113.2600617336756
 31
0.0
  0
CIRCLE
  5
8B4A
  8
0
 10
355.52962993004002
 20
121.7271923473342
 30
0.0
 40
4.0
  0
ARC
  5
8B4B
  8
0
 10
355.52962993004002
 20
121.72678243499971
 30
0.0
 40
12.00266443017412
 50
59.908437895255283
 51
239.56735675379349
  0
LINE
  5
8B4C
  8
0
 10
369.27962993004007
 20
99.728604036575476
 30
0.0
 11
349.4499793247777
 21
111.3777823895218
 31
0.0
  0
LINE
  5
8B4D
  8
0
 10
341.77966462321069
 20
99.728624417516187
 30
0.0
 11
355.52962993004002
 21
107.8062149608197
 31
0.0
  0
ARC
  5
8B4E
  8
0
 10
355.52962993004002
 20
121.72678243499971
 30
0.0
 40
12.00266443017412
 50
59.908437895255283
 51
120.0915621047447
  0
LINE
  5
8B4F
  8
0
 10
327.28093944584509
 20
119.2294468651739
 30
0.0
 11
349.51169416890991
 21
132.1117909857077
 31
0.0
  0
LINE
  5
8B50
  8
0
 10
348.77704887805379
 20
109.34158057157801
 30
0.0
 11
333.77704887805368
 21
119.2294468651739
 31
0.0
  0
LINE
  5
8B52
  8
2
 10
319.27962993004019
 20
98.729446865173884
 30
0.0
 11
319.27962993004019
 21
113.7294468651738
 31
0.0
  0
LINE
  5
8B53
  8
2
 10
320.02962993004019
 20
98.729446865173884
 30
0.0
 11
320.02962993004019
 21
113.7294468651738
 31
0.0
  0
LINE
  5
8B54
  8
1
 10
324.27962993004019
 20
95.729446865173884
 30
0.0
 11
324.27962993004019
 21
116.7294468651739
 31
0.0
  0
LINE
  5
8B55
  8
2
 10
317.52962993004019
 20
104.7294468651739
 30
0.0
 11
317.52962993004019
 21
98.729446865173884
 31
0.0
  0
LINE
  5
8B56
  8
2
 10
332.94052024085607
 20
113.7294468651738
 30
0.0
 11
332.94052024085607
 21
104.7294468651739
 31
0.0
  0
LINE
  5
8B57
  8
2
 10
329.27962993004019
 20
98.729446865173884
 30
0.0
 11
329.27962993004019
 21
113.7294468651738
 31
0.0
  0
LINE
  5
8B58
  8
2
 10
328.52962993004019
 20
98.729446865173884
 30
0.0
 11
328.52962993004019
 21
113.7294468651738
 31
0.0
  0
LINE
  5
8B59
  8
2
 10
332.94052024085607
 20
104.7294468651739
 30
0.0
 11
331.02962993004019
 21
104.7294468651738
 31
0.0
  0
LINE
  5
8B5A
  8
2
 10
331.02962993004019
 20
104.7294468651739
 30
0.0
 11
331.02962993004019
 21
98.729446865173884
 31
0.0
  0
LINE
  5
8B5C
  8
0
 10
341.77966462321069
 20
98.729446865173927
 30
0.0
 11
341.77966462321069
 21
99.728624417516187
 31
0.0
  0
LINE
  5
8B5D
  8
0
 10
348.77704887805379
 20
103.84158057157801
 30
0.0
 11
348.77704887805379
 21
109.34158057157801
 31
0.0
  0
LINE
  5
8B5F
  8
0
 10
383.778320414235
 20
119.2294468651739
 30
0.0
 11
361.54756569117012
 21
132.1117909857077
 31
0.0
  0
LINE
  5
8B60
  8
2
 10
362.2822109820263
 20
109.34158057157801
 30
0.0
 11
377.2822109820263
 21
119.2294468651739
 31
0.0
  0
LINE
  5
8B61
  8
2
 10
362.2822109820263
 20
103.84158057157801
 30
0.0
 11
362.2822109820263
 21
109.34158057157801
 31
0.0
  0
LINE
  5
8B64
  8
2
 10
378.1187396192239
 20
113.7294468651738
 30
0.0
 11
378.1187396192239
 21
104.7294468651739
 31
0.0
  0
LINE
  5
8B65
  8
2
 10
381.7796299300399
 20
98.729446865173884
 30
0.0
 11
381.7796299300399
 21
113.7294468651738
 31
0.0
  0
LINE
  5
8B66
  8
2
 10
382.5296299300399
 20
98.729446865173884
 30
0.0
 11
382.5296299300399
 21
113.7294468651738
 31
0.0
  0
LINE
  5
8B67
  8
2
 10
378.1187396192239
 20
104.7294468651739
 30
0.0
 11
380.0296299300399
 21
104.7294468651738
 31
0.0
  0
LINE
  5
8B68
  8
2
 10
380.0296299300399
 20
104.7294468651739
 30
0.0
 11
380.0296299300399
 21
98.729446865173884
 31
0.0
  0
LINE
  5
8B69
  8
2
 10
377.2822109820263
 20
119.2294468651739
 30
0.0
 11
383.778320414235
 21
119.2294468651739
 31
0.0
  0
LINE
  5
8B6A
  8
2
 10
391.7796299300399
 20
98.729446865173884
 30
0.0
 11
391.7796299300399
 21
113.7294468651738
 31
0.0
  0
LINE
  5
8B6B
  8
2
 10
391.02962993003979
 20
98.729446865173884
 30
0.0
 11
391.02962993003979
 21
113.7294468651738
 31
0.0
  0
LINE
  5
8B6C
  8
1
 10
386.77962993003979
 20
95.729446865173884
 30
0.0
 11
386.77962993003979
 21
116.7294468651739
 31
0.0
  0
LINE
  5
8B6D
  8
2
 10
393.52962993003979
 20
104.7294468651739
 30
0.0
 11
393.52962993003979
 21
98.729446865173884
 31
0.0
  0
LINE
  5
8B6E
  8
0
 10
404.27962993004002
 20
303.65590977094502
 30
0.0
 11
404.27962993004002
 21
212.1559526231398
 31
0.0
  0
ARC
  5
8B6F
  8
0
 10
401.77962993004007
 20
212.1559526231398
 30
0.0
 40
2.5
 50
270.0
 51
0.0
1001
GENIUS_GENODEF_13
1002
{
1000
HIER
1070
     0
1002
}
1002
{
1000
MANEDIT
1070
     0
1002
}
1002
{
1000
NOSEL
1070
     0
1002
}
1002
{
1000
BEHIND
1070
     0
1002
}
1002
{
1000
REACTOR
1002
}
1001
GENIUS_GENOBJ-N-FIL_13
1002
{
1000
OWNER
1000
GEN
1002
}
  0
POINT
  5
8B71
  8
0
 10
404.27962993004002
 20
215.6253377546355
 30
0.0
  0
LINE
  5
8B72
  8
1
 10
398.28385982221351
 20
257.90593119704232
 30
0.0
 11
409.28221098202619
 21
257.90593119704238
 31
0.0
  0
LINE
  5
8B73
  8
3
 10
397.67691511400773
 20
263.70104645327513
 30
0.0
 11
397.8392597549921
 21
263.71908474671778
 31
0.0
  0
LINE
  5
8B74
  8
3
 10
397.8392597549921
 20
263.71908474671778
 30
0.0
 11
397.9955916314957
 21
263.75516133360321
 31
0.0
  0
LINE
  5
8B75
  8
3
 10
397.5085577085423
 20
263.68902092431318
 30
0.0
 11
397.67691511400773
 21
263.70104645327513
 31
0.0
  0
LINE
  5
8B76
  8
3
 10
397.9955916314957
 20
263.75516133360321
 30
0.0
 11
398.29021709106007
 21
263.8874421521831
 31
0.0
  0
LINE
  5
8B77
  8
3
 10
396.8291153222001
 20
263.6830081598323
 30
0.0
 11
397.0034854921463
 21
263.6830081598323
 31
0.0
  0
LINE
  5
8B78
  8
3
 10
397.17184289761161
 20
263.6830081598323
 30
0.0
 11
397.34020030307698
 21
263.6830081598323
 31
0.0
  0
LINE
  5
8B79
  8
3
 10
397.0034854921463
 20
263.6830081598323
 30
0.0
 11
397.17184289761161
 21
263.6830081598323
 31
0.0
  0
LINE
  5
8B7A
  8
3
 10
396.66075791673461
 20
263.6830081598323
 30
0.0
 11
396.8291153222001
 21
263.6830081598323
 31
0.0
  0
LINE
  5
8B7B
  8
3
 10
396.33005587028492
 20
263.64693157294693
 30
0.0
 11
396.49841327575018
 21
263.67098263087053
 31
0.0
  0
LINE
  5
8B7C
  8
3
 10
395.87308576973612
 20
263.4845869319625
 30
0.0
 11
396.01739211727789
 21
263.55674010573341
 31
0.0
  0
LINE
  5
8B7D
  8
3
 10
396.17372399378132
 20
263.6108549860615
 30
0.0
 11
396.33005587028492
 21
263.64693157294693
 31
0.0
  0
LINE
  5
8B7E
  8
3
 10
396.01739211727789
 20
263.55674010573341
 30
0.0
 11
396.17372399378132
 21
263.6108549860615
 31
0.0
  0
LINE
  5
8B7F
  8
3
 10
396.49841327575018
 20
263.67098263087053
 30
0.0
 11
396.66075791673461
 21
263.6830081598323
 31
0.0
  0
LINE
  5
8B80
  8
3
 10
397.34020030307698
 20
263.6830081598323
 30
0.0
 11
397.5085577085423
 21
263.68902092431318
 31
0.0
  0
LINE
  5
8B81
  8
3
 10
398.27819156209819
 20
262.71495307840661
 30
0.0
 11
398.2721787976173
 21
262.70292754944478
 31
0.0
  0
LINE
  5
8B82
  8
3
 10
398.29021709106007
 20
262.72096584288749
 30
0.0
 11
398.27819156209819
 21
262.71495307840661
 31
0.0
  0
LINE
  5
8B83
  8
3
 10
398.29021709106007
 20
262.73299137184932
 30
0.0
 11
398.29021709106007
 21
262.72096584288749
 31
0.0
  0
LINE
  5
8B84
  8
3
 10
398.2481277396937
 20
262.68488925600212
 30
0.0
 11
398.2421149752127
 21
262.67887649152118
 31
0.0
  0
LINE
  5
8B85
  8
3
 10
398.26015326865559
 20
262.69090202048301
 30
0.0
 11
398.2481277396937
 21
262.68488925600212
 31
0.0
  0
LINE
  5
8B86
  8
3
 10
398.26616603313641
 20
262.69691478496389
 30
0.0
 11
398.26015326865559
 21
262.69090202048301
 31
0.0
  0
LINE
  5
8B87
  8
3
 10
398.2721787976173
 20
262.70292754944478
 30
0.0
 11
398.26616603313641
 21
262.69691478496389
 31
0.0
  0
LINE
  5
8B88
  8
3
 10
398.2421149752127
 20
262.67887649152118
 30
0.0
 11
398.23008944625087
 21
262.67286372704029
 31
0.0
  0
LINE
  5
8B89
  8
3
 10
398.1940128593655
 20
262.41431485436129
 30
0.0
 11
398.20002562384639
 21
262.40228932539958
 31
0.0
  0
LINE
  5
8B8A
  8
3
 10
398.18800009488461
 20
262.42634038332318
 30
0.0
 11
398.1940128593655
 21
262.41431485436129
 31
0.0
  0
LINE
  5
8B8B
  8
3
 10
398.18198733040367
 20
262.43836591228489
 30
0.0
 11
398.18800009488461
 21
262.42634038332318
 31
0.0
  0
LINE
  5
8B8C
  8
3
 10
398.17597456592279
 20
262.45640420572772
 30
0.0
 11
398.18198733040367
 21
262.43836591228489
 31
0.0
  0
LINE
  5
8B8D
  8
3
 10
398.1699618014419
 20
262.46842973468949
 30
0.0
 11
398.17597456592279
 21
262.45640420572772
 31
0.0
  0
LINE
  5
8B8E
  8
3
 10
398.16394903696101
 20
262.48045526365132
 30
0.0
 11
398.1699618014419
 21
262.46842973468949
 31
0.0
  0
LINE
  5
8B8F
  8
3
 10
398.15793627248019
 20
262.49248079261309
 30
0.0
 11
398.16394903696101
 21
262.48045526365132
 31
0.0
  0
LINE
  5
8B90
  8
3
 10
398.1459107435183
 20
262.50450632157492
 30
0.0
 11
398.15793627248019
 21
262.49248079261309
 31
0.0
  0
LINE
  5
8B91
  8
3
 10
398.13989797903741
 20
262.52254461501758
 30
0.0
 11
398.1459107435183
 21
262.50450632157492
 31
0.0
  0
LINE
  5
8B92
  8
3
 10
398.13388521455659
 20
262.53457014397941
 30
0.0
 11
398.13989797903741
 21
262.52254461501758
 31
0.0
  0
LINE
  5
8B93
  8
3
 10
398.12787245007559
 20
262.54659567294129
 30
0.0
 11
398.13388521455659
 21
262.53457014397941
 31
0.0
  0
LINE
  5
8B94
  8
3
 10
398.12185968559459
 20
262.57064673086489
 30
0.0
 11
398.12185968559459
 21
262.56463396638401
 31
0.0
  0
LINE
  5
8B95
  8
3
 10
398.12185968559459
 20
262.57665949534578
 30
0.0
 11
398.12185968559459
 21
262.57064673086489
 31
0.0
  0
LINE
  5
8B96
  8
3
 10
398.12185968559459
 20
262.58267225982672
 30
0.0
 11
398.12185968559459
 21
262.57665949534578
 31
0.0
  0
LINE
  5
8B97
  8
3
 10
398.12185968559459
 20
262.58868502430761
 30
0.0
 11
398.12185968559459
 21
262.58267225982672
 31
0.0
  0
LINE
  5
8B98
  8
3
 10
398.12185968559459
 20
262.59469778878849
 30
0.0
 11
398.12185968559459
 21
262.58868502430761
 31
0.0
  0
LINE
  5
8B99
  8
3
 10
398.12185968559459
 20
262.60071055326949
 30
0.0
 11
398.12185968559459
 21
262.59469778878849
 31
0.0
  0
LINE
  5
8B9A
  8
3
 10
398.12185968559459
 20
262.60672331775032
 30
0.0
 11
398.12185968559459
 21
262.60071055326949
 31
0.0
  0
LINE
  5
8B9B
  8
3
 10
398.12185968559459
 20
262.61273608223132
 30
0.0
 11
398.12185968559459
 21
262.60672331775032
 31
0.0
  0
LINE
  5
8B9C
  8
3
 10
398.12787245007559
 20
262.61874884671209
 30
0.0
 11
398.12185968559459
 21
262.61273608223132
 31
0.0
  0
LINE
  5
8B9D
  8
3
 10
398.12787245007559
 20
262.62476161119309
 30
0.0
 11
398.12787245007559
 21
262.61874884671209
 31
0.0
  0
LINE
  5
8B9E
  8
3
 10
398.13388521455659
 20
262.62476161119309
 30
0.0
 11
398.12787245007559
 21
262.62476161119309
 31
0.0
  0
LINE
  5
8B9F
  8
3
 10
398.13388521455659
 20
262.63077437567398
 30
0.0
 11
398.13388521455659
 21
262.62476161119309
 31
0.0
  0
LINE
  5
8BA0
  8
3
 10
398.13388521455659
 20
262.63678714015492
 30
0.0
 11
398.13388521455659
 21
262.63077437567398
 31
0.0
  0
LINE
  5
8BA1
  8
3
 10
398.16394903696101
 20
262.64279990463581
 30
0.0
 11
398.13388521455659
 21
262.63678714015492
 31
0.0
  0
LINE
  5
8BA2
  8
3
 10
398.17597456592279
 20
262.64881266911669
 30
0.0
 11
398.16394903696101
 21
262.64279990463581
 31
0.0
  0
LINE
  5
8BA3
  8
3
 10
398.18800009488461
 20
262.65482543359758
 30
0.0
 11
398.17597456592279
 21
262.64881266911669
 31
0.0
  0
LINE
  5
8BA4
  8
3
 10
398.20002562384639
 20
262.65482543359758
 30
0.0
 11
398.18800009488461
 21
262.65482543359758
 31
0.0
  0
LINE
  5
8BA5
  8
3
 10
398.21205115280827
 20
262.66083819807852
 30
0.0
 11
398.20002562384639
 21
262.65482543359758
 31
0.0
  0
LINE
  5
8BA6
  8
3
 10
398.21806391728921
 20
262.66685096255941
 30
0.0
 11
398.21205115280827
 21
262.66083819807852
 31
0.0
  0
LINE
  5
8BA7
  8
3
 10
398.23008944625087
 20
262.67286372704029
 30
0.0
 11
398.21806391728921
 21
262.66685096255941
 31
0.0
  0
LINE
  5
8BA8
  8
3
 10
398.11584692111381
 20
262.55862120190301
 30
0.0
 11
398.12787245007559
 21
262.54659567294129
 31
0.0
  0
LINE
  5
8BA9
  8
3
 10
398.12185968559459
 20
262.56463396638401
 30
0.0
 11
398.11584692111381
 21
262.55862120190301
 31
0.0
  0
LINE
  5
8BAA
  8
3
 10
398.29021709106007
 20
263.03362959589458
 30
0.0
 11
398.29021709106007
 21
262.73299137184932
 31
0.0
  0
LINE
  5
8BAB
  8
3
 10
396.22182610962858
 20
262.40228932539958
 30
0.0
 11
396.20980058066681
 21
262.40830208988041
 31
0.0
  0
LINE
  5
8BAC
  8
3
 10
396.22783887410952
 20
262.40228932539958
 30
0.0
 11
396.22182610962858
 21
262.40228932539958
 31
0.0
  0
LINE
  5
8BAD
  8
3
 10
396.23385163859052
 20
262.40228932539958
 30
0.0
 11
396.22783887410952
 21
262.40228932539958
 31
0.0
  0
LINE
  5
8BAE
  8
3
 10
396.23986440307129
 20
262.40228932539958
 30
0.0
 11
396.23385163859052
 21
262.40228932539958
 31
0.0
  0
LINE
  5
8BAF
  8
3
 10
396.24587716755218
 20
262.40228932539958
 30
0.0
 11
396.23986440307129
 21
262.40228932539958
 31
0.0
  0
LINE
  5
8BB0
  8
3
 10
396.25188993203329
 20
262.40228932539958
 30
0.0
 11
396.24587716755218
 21
262.40228932539958
 31
0.0
  0
LINE
  5
8BB1
  8
3
 10
398.29021709106007
 20
263.8874421521831
 30
0.0
 11
398.29021709106007
 21
263.03362959589458
 31
0.0
  0
CIRCLE
  5
8BB2
  8
3
 10
395.20075575334067
 20
263.66781256602098
 30
0.0
 40
0.241100623305389
  0
LINE
  5
8BB3
  8
3
 10
395.48826884295818
 20
263.18996147239812
 30
0.0
 11
395.56643478121009
 21
263.26211464616898
 31
0.0
  0
LINE
  5
8BB4
  8
3
 10
395.28984761508832
 20
262.94343812868101
 30
0.0
 11
395.34997525989741
 21
263.03362959589458
 31
0.0
  0
LINE
  5
8BB5
  8
3
 10
395.22971997027929
 20
262.85324666146738
 30
0.0
 11
395.28984761508832
 21
262.94343812868101
 31
0.0
  0
LINE
  5
8BB6
  8
3
 10
395.41611566918732
 20
263.11179553414632
 30
0.0
 11
395.48826884295818
 21
263.18996147239812
 31
0.0
  0
LINE
  5
8BB7
  8
3
 10
395.34997525989741
 20
263.03362959589458
 30
0.0
 11
395.41611566918732
 21
263.11179553414632
 31
0.0
  0
LINE
  5
8BB8
  8
3
 10
395.13351573858472
 20
262.65482543359758
 30
0.0
 11
395.17560508995109
 21
262.75704242977298
 31
0.0
  0
LINE
  5
8BB9
  8
3
 10
395.05534980033292
 20
262.44437867676589
 30
0.0
 11
395.09142638721852
 21
262.55260843742218
 31
0.0
  0
LINE
  5
8BBA
  8
3
 10
395.09142638721852
 20
262.55260843742218
 30
0.0
 11
395.13351573858472
 21
262.65482543359758
 31
0.0
  0
LINE
  5
8BBB
  8
3
 10
395.17560508995109
 20
262.75704242977298
 30
0.0
 11
395.22971997027929
 21
262.85324666146738
 31
0.0
  0
LINE
  5
8BBC
  8
3
 10
395.56643478121009
 20
263.26211464616898
 30
0.0
 11
395.72877942219441
 21
263.38838270026798
 31
0.0
  0
LINE
  5
8BBD
  8
3
 10
395.72877942219441
 20
263.38838270026798
 30
0.0
 11
395.87308576973612
 21
263.4845869319625
 31
0.0
  0
LINE
  5
8BBE
  8
3
 10
398.2721787976173
 20
262.14374045272058
 30
0.0
 11
398.28420432657919
 21
262.07760004343072
 31
0.0
  0
LINE
  5
8BBF
  8
3
 10
398.28420432657919
 20
262.07760004343072
 30
0.0
 11
398.29021709106007
 21
262.00544686965981
 31
0.0
  0
LINE
  5
8BC0
  8
3
 10
398.29021709106007
 20
262.00544686965981
 30
0.0
 11
398.29622985554101
 21
261.93930646036978
 31
0.0
  0
LINE
  5
8BC1
  8
3
 10
398.2421149752127
 20
262.28804680026241
 30
0.0
 11
398.26015326865559
 21
262.21589362649149
 31
0.0
  0
LINE
  5
8BC2
  8
3
 10
398.26015326865559
 20
262.21589362649149
 30
0.0
 11
398.2721787976173
 21
262.14374045272058
 31
0.0
  0
LINE
  5
8BC3
  8
3
 10
398.2240766817701
 20
262.36019997403321
 30
0.0
 11
398.2421149752127
 21
262.28804680026241
 31
0.0
  0
LINE
  5
8BC4
  8
3
 10
398.21205115280827
 20
262.37823826747592
 30
0.0
 11
398.2240766817701
 21
262.36019997403321
 31
0.0
  0
LINE
  5
8BC5
  8
3
 10
398.2060383883275
 20
262.39026379643769
 30
0.0
 11
398.21205115280827
 21
262.37823826747592
 31
0.0
  0
LINE
  5
8BC6
  8
3
 10
398.29021709106007
 20
261.60259164943909
 30
0.0
 11
398.28420432657919
 21
261.53645124014918
 31
0.0
  0
LINE
  5
8BC7
  8
3
 10
398.3022426200219
 20
261.80702564179001
 30
0.0
 11
398.3022426200219
 21
261.73487246801898
 31
0.0
  0
LINE
  5
8BC8
  8
3
 10
398.3022426200219
 20
261.87316605107992
 30
0.0
 11
398.3022426200219
 21
261.80702564179001
 31
0.0
  0
LINE
  5
8BC9
  8
3
 10
398.29622985554101
 20
261.66873205872912
 30
0.0
 11
398.29021709106007
 21
261.60259164943909
 31
0.0
  0
LINE
  5
8BCA
  8
3
 10
398.3022426200219
 20
261.73487246801898
 30
0.0
 11
398.29622985554101
 21
261.66873205872912
 31
0.0
  0
LINE
  5
8BCB
  8
3
 10
398.29622985554101
 20
261.93930646036978
 30
0.0
 11
398.3022426200219
 21
261.87316605107992
 31
0.0
  0
LINE
  5
8BCC
  8
3
 10
396.15568570033872
 20
262.31209785818601
 30
0.0
 11
396.10758358449152
 21
262.22190639097238
 31
0.0
  0
LINE
  5
8BCD
  8
3
 10
396.07150699760609
 20
262.11968939479698
 30
0.0
 11
396.04745593968249
 21
262.01747239862158
 31
0.0
  0
LINE
  5
8BCE
  8
3
 10
396.10758358449152
 20
262.22190639097238
 30
0.0
 11
396.07150699760609
 21
262.11968939479698
 31
0.0
  0
LINE
  5
8BCF
  8
3
 10
396.03543041072061
 20
261.90924263796541
 30
0.0
 11
396.02941764623961
 21
261.80101287730901
 31
0.0
  0
LINE
  5
8BD0
  8
3
 10
396.02941764623961
 20
261.68677035217178
 30
0.0
 11
396.02941764623961
 21
261.57252782703461
 31
0.0
  0
LINE
  5
8BD1
  8
3
 10
396.02941764623961
 20
261.80101287730901
 30
0.0
 11
396.02941764623961
 21
261.68677035217178
 31
0.0
  0
LINE
  5
8BD2
  8
3
 10
396.04745593968249
 20
262.01747239862158
 30
0.0
 11
396.03543041072061
 21
261.90924263796541
 31
0.0
  0
LINE
  5
8BD3
  8
3
 10
398.2721787976173
 20
261.47031083085932
 30
0.0
 11
398.25414050417447
 21
261.40417042156929
 31
0.0
  0
LINE
  5
8BD4
  8
3
 10
398.2060383883275
 20
261.23581301610392
 30
0.0
 11
398.20002562384639
 21
261.22980025162298
 31
0.0
  0
LINE
  5
8BD5
  8
3
 10
398.18198733040367
 20
261.1937236647376
 30
0.0
 11
398.18198733040367
 21
261.18771090025672
 31
0.0
  0
LINE
  5
8BD6
  8
3
 10
398.18198733040367
 20
261.18771090025672
 30
0.0
 11
398.17597456592279
 21
261.17568537129489
 31
0.0
  0
LINE
  5
8BD7
  8
3
 10
398.18198733040367
 20
261.19973642921849
 30
0.0
 11
398.18198733040367
 21
261.1937236647376
 31
0.0
  0
LINE
  5
8BD8
  8
3
 10
398.18800009488461
 20
261.19973642921849
 30
0.0
 11
398.18198733040367
 21
261.19973642921849
 31
0.0
  0
LINE
  5
8BD9
  8
3
 10
398.18800009488461
 20
261.20574919369938
 30
0.0
 11
398.18800009488461
 21
261.19973642921849
 31
0.0
  0
LINE
  5
8BDA
  8
3
 10
398.18800009488461
 20
261.21176195818032
 30
0.0
 11
398.18800009488461
 21
261.20574919369938
 31
0.0
  0
LINE
  5
8BDB
  8
3
 10
398.1940128593655
 20
261.2177747226612
 30
0.0
 11
398.18800009488461
 21
261.21176195818032
 31
0.0
  0
LINE
  5
8BDC
  8
3
 10
398.1940128593655
 20
261.22378748714209
 30
0.0
 11
398.1940128593655
 21
261.2177747226612
 31
0.0
  0
LINE
  5
8BDD
  8
3
 10
398.20002562384639
 20
261.22980025162298
 30
0.0
 11
398.1940128593655
 21
261.22378748714209
 31
0.0
  0
LINE
  5
8BDE
  8
3
 10
398.2060383883275
 20
261.2418257805848
 30
0.0
 11
398.2060383883275
 21
261.23581301610392
 31
0.0
  0
LINE
  5
8BDF
  8
3
 10
398.21205115280827
 20
261.24783854506569
 30
0.0
 11
398.2060383883275
 21
261.2418257805848
 31
0.0
  0
LINE
  5
8BE0
  8
3
 10
398.21205115280827
 20
261.25385130954658
 30
0.0
 11
398.21205115280827
 21
261.24783854506569
 31
0.0
  0
LINE
  5
8BE1
  8
3
 10
398.21806391728921
 20
261.25986407402758
 30
0.0
 11
398.21205115280827
 21
261.25385130954658
 31
0.0
  0
LINE
  5
8BE2
  8
3
 10
398.21806391728921
 20
261.27188960298929
 30
0.0
 11
398.21806391728921
 21
261.25986407402758
 31
0.0
  0
LINE
  5
8BE3
  8
3
 10
398.25414050417447
 20
261.40417042156929
 30
0.0
 11
398.21806391728921
 21
261.27188960298929
 31
0.0
  0
LINE
  5
8BE4
  8
3
 10
398.17597456592279
 20
261.17568537129489
 30
0.0
 11
398.13989797903741
 21
261.10954496200492
 31
0.0
  0
LINE
  5
8BE5
  8
3
 10
398.13989797903741
 20
261.10954496200492
 30
0.0
 11
398.09780862767099
 21
261.04340455271489
 31
0.0
  0
LINE
  5
8BE6
  8
3
 10
397.8392597549921
 20
260.78485568003612
 30
0.0
 11
397.77311934570218
 21
260.74276632866969
 31
0.0
  0
LINE
  5
8BE7
  8
3
 10
397.95350228012933
 20
260.87504714724957
 30
0.0
 11
397.8993873998013
 21
260.82694503140237
 31
0.0
  0
LINE
  5
8BE8
  8
3
 10
398.00761716045753
 20
260.92916202757777
 30
0.0
 11
397.95350228012933
 21
260.87504714724957
 31
0.0
  0
LINE
  5
8BE9
  8
3
 10
398.05571927630479
 20
260.98327690790592
 30
0.0
 11
398.00761716045753
 21
260.92916202757777
 31
0.0
  0
LINE
  5
8BEA
  8
3
 10
397.8993873998013
 20
260.82694503140237
 30
0.0
 11
397.8392597549921
 21
260.78485568003612
 31
0.0
  0
LINE
  5
8BEB
  8
3
 10
397.77311934570218
 20
260.74276632866969
 30
0.0
 11
397.71299170089321
 21
260.70067697730337
 31
0.0
  0
LINE
  5
8BEC
  8
3
 10
397.49653217958053
 20
260.6044727456088
 30
0.0
 11
397.4183662413289
 21
260.5804216876852
 31
0.0
  0
LINE
  5
8BED
  8
3
 10
397.6408385271223
 20
260.664600390418
 30
0.0
 11
397.56868535335138
 21
260.6345365680134
 31
0.0
  0
LINE
  5
8BEE
  8
3
 10
397.71299170089321
 20
260.70067697730337
 30
0.0
 11
397.6408385271223
 21
260.664600390418
 31
0.0
  0
LINE
  5
8BEF
  8
3
 10
397.56868535335138
 20
260.6345365680134
 30
0.0
 11
397.49653217958053
 21
260.6044727456088
 31
0.0
  0
LINE
  5
8BF0
  8
3
 10
398.09780862767099
 20
261.04340455271489
 30
0.0
 11
398.05571927630479
 21
260.98327690790592
 31
0.0
  0
LINE
  5
8BF1
  8
3
 10
396.03543041072061
 20
261.45828530189738
 30
0.0
 11
396.04144317520138
 21
261.34404277676032
 31
0.0
  0
LINE
  5
8BF2
  8
3
 10
396.04144317520138
 20
261.34404277676032
 30
0.0
 11
396.04745593968249
 21
261.22980025162298
 31
0.0
  0
LINE
  5
8BF3
  8
3
 10
396.04745593968249
 20
261.22980025162298
 30
0.0
 11
396.05346870416338
 21
261.11555772648592
 31
0.0
  0
LINE
  5
8BF4
  8
3
 10
396.81107702875732
 20
260.56839615872337
 30
0.0
 11
396.75094938394841
 21
260.5804216876852
 31
0.0
  0
LINE
  5
8BF5
  8
3
 10
396.75094938394841
 20
260.5804216876852
 30
0.0
 11
396.69082173913921
 21
260.59845998112797
 31
0.0
  0
LINE
  5
8BF6
  8
3
 10
396.69082173913921
 20
260.59845998112797
 30
0.0
 11
396.63670685881112
 21
260.61649827457069
 31
0.0
  0
LINE
  5
8BF7
  8
3
 10
396.47436221782652
 20
260.6886514483416
 30
0.0
 11
396.42626010197949
 21
260.7127025062652
 31
0.0
  0
LINE
  5
8BF8
  8
3
 10
396.52847709815478
 20
260.65858762593712
 30
0.0
 11
396.47436221782652
 21
260.6886514483416
 31
0.0
  0
LINE
  5
8BF9
  8
3
 10
396.58259197848292
 20
260.6405493324944
 30
0.0
 11
396.52847709815478
 21
260.65858762593712
 31
0.0
  0
LINE
  5
8BFA
  8
3
 10
396.01137935279701
 20
260.62852380353252
 30
0.0
 11
395.96929000143069
 21
260.65257486145612
 31
0.0
  0
LINE
  5
8BFB
  8
3
 10
396.42626010197949
 20
260.7127025062652
 30
0.0
 11
396.37815798613212
 21
260.74276632866969
 31
0.0
  0
LINE
  5
8BFC
  8
3
 10
396.05346870416338
 20
260.8870726762114
 30
0.0
 11
396.02340488175878
 21
260.67061315489889
 31
0.0
  0
LINE
  5
8BFD
  8
3
 10
396.02340488175878
 20
260.67061315489889
 30
0.0
 11
396.02941764623961
 21
260.6104855100898
 31
0.0
  0
LINE
  5
8BFE
  8
3
 10
396.01739211727789
 20
260.61649827457069
 30
0.0
 11
396.01137935279701
 21
260.62852380353252
 31
0.0
  0
LINE
  5
8BFF
  8
3
 10
396.01739211727789
 20
260.6104855100898
 30
0.0
 11
396.01739211727789
 21
260.61649827457069
 31
0.0
  0
LINE
  5
8C00
  8
3
 10
396.01137935279701
 20
260.6104855100898
 30
0.0
 11
396.01739211727789
 21
260.6104855100898
 31
0.0
  0
LINE
  5
8C01
  8
3
 10
396.27594098995672
 20
260.85099608932597
 30
0.0
 11
396.26992822547578
 21
260.85700885380692
 31
0.0
  0
LINE
  5
8C02
  8
3
 10
396.27594098995672
 20
260.84498332484509
 30
0.0
 11
396.27594098995672
 21
260.85099608932597
 31
0.0
  0
LINE
  5
8C03
  8
3
 10
396.27594098995672
 20
260.8389705603642
 30
0.0
 11
396.27594098995672
 21
260.84498332484509
 31
0.0
  0
LINE
  5
8C04
  8
3
 10
396.28195375443761
 20
260.83295779588332
 30
0.0
 11
396.27594098995672
 21
260.8389705603642
 31
0.0
  0
LINE
  5
8C05
  8
3
 10
396.28195375443761
 20
260.82694503140237
 30
0.0
 11
396.28195375443761
 21
260.83295779588332
 31
0.0
  0
LINE
  5
8C06
  8
3
 10
396.28195375443761
 20
260.82093226692149
 30
0.0
 11
396.28195375443761
 21
260.82694503140237
 31
0.0
  0
LINE
  5
8C07
  8
3
 10
396.28796651891861
 20
260.82093226692149
 30
0.0
 11
396.28195375443761
 21
260.82093226692149
 31
0.0
  0
LINE
  5
8C08
  8
3
 10
396.05346870416338
 20
261.00131520134858
 30
0.0
 11
396.05346870416338
 21
260.8870726762114
 31
0.0
  0
LINE
  5
8C09
  8
3
 10
396.37815798613212
 20
260.74276632866969
 30
0.0
 11
396.28796651891861
 21
260.8149195024406
 31
0.0
  0
LINE
  5
8C0A
  8
3
 10
396.28796651891861
 20
260.8149195024406
 30
0.0
 11
396.28796651891861
 21
260.82093226692149
 31
0.0
  0
LINE
  5
8C0B
  8
3
 10
395.96929000143069
 20
260.65257486145612
 30
0.0
 11
395.92118788558338
 21
260.67662591937977
 31
0.0
  0
LINE
  5
8C0C
  8
3
 10
395.92118788558338
 20
260.67662591937977
 30
0.0
 11
395.87308576973612
 21
260.69466421282249
 31
0.0
  0
LINE
  5
8C0D
  8
3
 10
396.63670685881112
 20
260.61649827457069
 30
0.0
 11
396.58259197848292
 21
260.6405493324944
 31
0.0
  0
LINE
  5
8C0E
  8
3
 10
396.05346870416338
 20
261.11555772648592
 30
0.0
 11
396.05346870416338
 21
261.00131520134858
 31
0.0
  0
LINE
  5
8C0F
  8
3
 10
398.28420432657919
 20
261.53645124014918
 30
0.0
 11
398.2721787976173
 21
261.47031083085932
 31
0.0
  0
LINE
  5
8C10
  8
3
 10
396.02941764623961
 20
261.57252782703461
 30
0.0
 11
396.03543041072061
 21
261.45828530189738
 31
0.0
  0
LINE
  5
8C11
  8
3
 10
395.00123492000489
 20
262.22190639097238
 30
0.0
 11
395.02528597792849
 21
262.33614891610961
 31
0.0
  0
LINE
  5
8C12
  8
3
 10
394.9711710976004
 20
261.98740857621709
 30
0.0
 11
394.98319662656218
 21
262.10766386583521
 31
0.0
  0
LINE
  5
8C13
  8
3
 10
394.98319662656218
 20
262.10766386583521
 30
0.0
 11
395.00123492000489
 21
262.22190639097238
 31
0.0
  0
LINE
  5
8C14
  8
3
 10
394.97718386208129
 20
261.77094905490452
 30
0.0
 11
394.96515833311952
 21
261.87316605107992
 31
0.0
  0
LINE
  5
8C15
  8
3
 10
394.98319662656218
 20
261.72284693905721
 30
0.0
 11
394.97718386208129
 21
261.77094905490452
 31
0.0
  0
LINE
  5
8C16
  8
3
 10
394.98319662656218
 20
261.56651506255372
 30
0.0
 11
394.98319662656218
 21
261.62062994288192
 31
0.0
  0
LINE
  5
8C17
  8
3
 10
394.98319662656218
 20
261.62062994288192
 30
0.0
 11
394.98319662656218
 21
261.66873205872912
 31
0.0
  0
LINE
  5
8C18
  8
3
 10
394.98319662656218
 20
261.66873205872912
 30
0.0
 11
394.98319662656218
 21
261.72284693905721
 31
0.0
  0
LINE
  5
8C19
  8
3
 10
394.98319662656218
 20
261.51841294670652
 30
0.0
 11
394.98319662656218
 21
261.56651506255372
 31
0.0
  0
LINE
  5
8C1A
  8
3
 10
394.96515833311952
 20
261.87316605107992
 30
0.0
 11
394.9711710976004
 21
261.98740857621709
 31
0.0
  0
LINE
  5
8C1B
  8
3
 10
394.98319662656218
 20
261.41619595053101
 30
0.0
 11
394.98319662656218
 21
261.47031083085932
 31
0.0
  0
LINE
  5
8C1C
  8
3
 10
394.98319662656218
 20
261.3680938346838
 30
0.0
 11
394.98319662656218
 21
261.41619595053101
 31
0.0
  0
LINE
  5
8C1D
  8
3
 10
394.98920939104312
 20
261.3199917188366
 30
0.0
 11
394.98319662656218
 21
261.3680938346838
 31
0.0
  0
LINE
  5
8C1E
  8
3
 10
394.98920939104312
 20
261.2177747226612
 30
0.0
 11
394.98920939104312
 21
261.26587683850852
 31
0.0
  0
LINE
  5
8C1F
  8
3
 10
394.99522215552389
 20
261.169672606814
 30
0.0
 11
394.98920939104312
 21
261.2177747226612
 31
0.0
  0
LINE
  5
8C20
  8
3
 10
394.98920939104312
 20
261.26587683850852
 30
0.0
 11
394.98920939104312
 21
261.3199917188366
 31
0.0
  0
LINE
  5
8C21
  8
3
 10
395.00724768448572
 20
261.07346837511949
 30
0.0
 11
395.00123492000489
 21
261.1215704909668
 31
0.0
  0
LINE
  5
8C22
  8
3
 10
395.00123492000489
 20
261.1215704909668
 30
0.0
 11
394.99522215552389
 21
261.169672606814
 31
0.0
  0
LINE
  5
8C23
  8
3
 10
395.56042201672909
 20
260.74877909315057
 30
0.0
 11
395.51231990088178
 21
260.76080462211252
 31
0.0
  0
LINE
  5
8C24
  8
3
 10
395.66865177738538
 20
260.7367535641888
 30
0.0
 11
395.61453689705729
 21
260.74276632866969
 31
0.0
  0
LINE
  5
8C25
  8
3
 10
395.77086877356072
 20
260.71871527074609
 30
0.0
 11
395.71675389323258
 21
260.73074079970792
 31
0.0
  0
LINE
  5
8C26
  8
3
 10
395.81897088940798
 20
260.70668974178432
 30
0.0
 11
395.77086877356072
 21
260.71871527074609
 31
0.0
  0
LINE
  5
8C27
  8
3
 10
395.71675389323258
 20
260.73074079970792
 30
0.0
 11
395.66865177738538
 21
260.7367535641888
 31
0.0
  0
LINE
  5
8C28
  8
3
 10
395.61453689705729
 20
260.74276632866969
 30
0.0
 11
395.56042201672909
 21
260.74877909315057
 31
0.0
  0
LINE
  5
8C29
  8
3
 10
395.35598802437829
 20
260.78485568003612
 30
0.0
 11
395.30788590853109
 21
260.80289397347877
 31
0.0
  0
LINE
  5
8C2A
  8
3
 10
395.41010290470638
 20
260.77283015107417
 30
0.0
 11
395.35598802437829
 21
260.78485568003612
 31
0.0
  0
LINE
  5
8C2B
  8
3
 10
395.45820502055369
 20
260.76681738659329
 30
0.0
 11
395.41010290470638
 21
260.77283015107417
 31
0.0
  0
LINE
  5
8C2C
  8
3
 10
395.51231990088178
 20
260.76080462211252
 30
0.0
 11
395.45820502055369
 21
260.76681738659329
 31
0.0
  0
LINE
  5
8C2D
  8
3
 10
395.30788590853109
 20
260.80289397347877
 30
0.0
 11
395.21168167683652
 21
260.84498332484509
 31
0.0
  0
LINE
  5
8C2E
  8
3
 10
395.21168167683652
 20
260.84498332484509
 30
0.0
 11
395.00724768448572
 21
261.07346837511949
 31
0.0
  0
LINE
  5
8C2F
  8
3
 10
394.98319662656218
 20
261.47031083085932
 30
0.0
 11
394.98319662656218
 21
261.51841294670652
 31
0.0
  0
LINE
  5
8C30
  8
3
 10
394.96515833311952
 20
260.6104855100898
 30
0.0
 11
396.01137935279701
 21
260.6104855100898
 31
0.0
  0
LINE
  5
8C31
  8
3
 10
395.87308576973612
 20
260.69466421282249
 30
0.0
 11
395.81897088940798
 21
260.70668974178432
 31
0.0
  0
LINE
  5
8C32
  8
3
 10
396.26992822547578
 20
260.85700885380692
 30
0.0
 11
396.25188993203329
 21
262.40228932539958
 31
0.0
  0
LINE
  5
8C33
  8
3
 10
398.20002562384639
 20
262.40228932539958
 30
0.0
 11
398.2060383883275
 21
262.39026379643769
 31
0.0
  0
POLYLINE
  5
8C34
  8
3
 66
     1
 10
0.0
 20
0.0
 30
0.0
 70
     1
  0
VERTEX
  5
922F
  8
3
 10
396.98544719870353
 20
261.60860441392009
 30
0.0
  0
VERTEX
  5
9230
  8
3
 10
396.98544719870353
 20
262.45039144124678
 30
0.0
  0
VERTEX
  5
9231
  8
3
 10
396.99747272766541
 20
262.45640420572772
 30
0.0
  0
VERTEX
  5
9232
  8
3
 10
397.00949825662718
 20
262.46241697020861
 30
0.0
  0
VERTEX
  5
9233
  8
3
 10
397.01551102110813
 20
262.46241697020861
 30
0.0
  0
VERTEX
  5
9234
  8
3
 10
397.0275365500699
 20
262.46241697020861
 30
0.0
  0
VERTEX
  5
9235
  8
3
 10
397.03354931455078
 20
262.45640420572772
 30
0.0
  0
VERTEX
  5
9236
  8
3
 10
397.04557484351261
 20
262.45039144124678
 30
0.0
  0
VERTEX
  5
9237
  8
3
 10
397.0576003724745
 20
262.44437867676589
 30
0.0
  0
VERTEX
  5
9238
  8
3
 10
397.06962590143632
 20
262.43235314780412
 30
0.0
  0
VERTEX
  5
9239
  8
3
 10
397.0756386659171
 20
262.42032761884229
 30
0.0
  0
VERTEX
  5
923A
  8
3
 10
397.0876641948791
 20
262.40830208988041
 30
0.0
  0
VERTEX
  5
923B
  8
3
 10
397.09968972384081
 20
262.39627656091858
 30
0.0
  0
VERTEX
  5
923C
  8
3
 10
397.1117152528027
 20
262.38425103195692
 30
0.0
  0
VERTEX
  5
923D
  8
3
 10
397.11772801728353
 20
262.37222550299498
 30
0.0
  0
VERTEX
  5
923E
  8
3
 10
397.1297535462453
 20
262.36019997403321
 30
0.0
  0
VERTEX
  5
923F
  8
3
 10
397.14779183968801
 20
262.34216168059049
 30
0.0
  0
VERTEX
  5
9240
  8
3
 10
397.17184289761161
 20
262.30608509370512
 30
0.0
  0
VERTEX
  5
9241
  8
3
 10
397.19589395553521
 20
262.26399574233869
 30
0.0
  0
VERTEX
  5
9242
  8
3
 10
397.21393224897793
 20
262.22791915545332
 30
0.0
  0
VERTEX
  5
9243
  8
3
 10
397.22595777793993
 20
262.19184256856778
 30
0.0
  0
VERTEX
  5
9244
  8
3
 10
397.23798330690158
 20
262.14975321720152
 30
0.0
  0
VERTEX
  5
9245
  8
3
 10
397.25000883586353
 20
262.11367663031609
 30
0.0
  0
VERTEX
  5
9246
  8
3
 10
397.2620343648253
 20
262.07158727894978
 30
0.0
  0
VERTEX
  5
9247
  8
3
 10
397.26804712930613
 20
262.02949792758341
 30
0.0
  0
VERTEX
  5
9248
  8
3
 10
397.27405989378713
 20
261.98740857621709
 30
0.0
  0
VERTEX
  5
9249
  8
3
 10
397.27405989378713
 20
261.94531922485072
 30
0.0
  0
VERTEX
  5
924A
  8
3
 10
397.27405989378713
 20
261.90322987348441
 30
0.0
  0
VERTEX
  5
924B
  8
3
 10
397.27405989378713
 20
261.86114052211809
 30
0.0
  0
VERTEX
  5
924C
  8
3
 10
397.26804712930613
 20
261.82506393523272
 30
0.0
  0
VERTEX
  5
924D
  8
3
 10
397.2620343648253
 20
261.78297458386641
 30
0.0
  0
VERTEX
  5
924E
  8
3
 10
397.24399607138253
 20
261.70480864561449
 30
0.0
  0
VERTEX
  5
924F
  8
3
 10
397.23798330690158
 20
261.68677035217178
 30
0.0
  0
VERTEX
  5
9250
  8
3
 10
397.23197054242081
 20
261.67474482321001
 30
0.0
  0
VERTEX
  5
9251
  8
3
 10
397.22595777793993
 20
261.65670652976729
 30
0.0
  0
VERTEX
  5
9252
  8
3
 10
397.21393224897793
 20
261.64468100080552
 30
0.0
  0
VERTEX
  5
9253
  8
3
 10
397.2079194844971
 20
261.63265547184369
 30
0.0
  0
VERTEX
  5
9254
  8
3
 10
397.19589395553521
 20
261.62062994288192
 30
0.0
  0
VERTEX
  5
9255
  8
3
 10
397.18386842657338
 20
261.60860441392009
 30
0.0
  0
VERTEX
  5
9256
  8
3
 10
397.17184289761161
 20
261.60259164943909
 30
0.0
  0
VERTEX
  5
9257
  8
3
 10
397.1598173686499
 20
261.59056612047732
 30
0.0
  0
VERTEX
  5
9258
  8
3
 10
397.14779183968801
 20
261.58455335599638
 30
0.0
  0
VERTEX
  5
9259
  8
3
 10
397.13576631072618
 20
261.57854059151549
 30
0.0
  0
VERTEX
  5
925A
  8
3
 10
397.12374078176441
 20
261.57252782703461
 30
0.0
  0
VERTEX
  5
925B
  8
3
 10
397.1117152528027
 20
261.56651506255372
 30
0.0
  0
VERTEX
  5
925C
  8
3
 10
397.09367695935998
 20
261.56050229807278
 30
0.0
  0
VERTEX
  5
925D
  8
3
 10
397.06361313695533
 20
261.55448953359189
 30
0.0
  0
VERTEX
  5
925E
  8
3
 10
396.99145996318452
 20
261.59657888495832
 30
0.0
  0
VERTEX
  5
925F
  8
3
 10
396.99145996318452
 20
261.60259164943909
 30
0.0
  0
VERTEX
  5
9260
  8
3
 10
396.98544719870353
 20
261.60860441392009
 30
0.0
  0
SEQEND
  5
9261
  8
3
  0
LINE
  5
8C68
  8
3
 10
396.20980058066681
 20
262.40830208988041
 30
0.0
 11
396.15568570033872
 21
262.31209785818601
 31
0.0
  0
LINE
  5
8C69
  8
3
 10
395.02528597792849
 20
262.33614891610961
 30
0.0
 11
395.05534980033292
 21
262.44437867676589
 31
0.0
  0
LINE
  5
8C6A
  8
3
 10
397.78514487466401
 20
260.17155370298372
 30
0.0
 11
397.83324699051121
 21
260.13547711609829
 31
0.0
  0
LINE
  5
8C6B
  8
3
 10
397.42437900580973
 20
260.3338983439682
 30
0.0
 11
397.49653217958053
 21
260.31586005052537
 31
0.0
  0
LINE
  5
8C6C
  8
3
 10
397.7370427588167
 20
260.20161752538831
 30
0.0
 11
397.78514487466401
 21
260.17155370298372
 31
0.0
  0
LINE
  5
8C6D
  8
3
 10
397.68292787848861
 20
260.23168134779269
 30
0.0
 11
397.7370427588167
 21
260.20161752538831
 31
0.0
  0
LINE
  5
8C6E
  8
3
 10
397.62881299816053
 20
260.26174517019729
 30
0.0
 11
397.68292787848861
 21
260.23168134779269
 31
0.0
  0
LINE
  5
8C6F
  8
3
 10
397.49653217958053
 20
260.31586005052537
 30
0.0
 11
397.62881299816053
 21
260.26174517019729
 31
0.0
  0
LINE
  5
8C70
  8
3
 10
398.13388521455659
 20
259.78072401172489
 30
0.0
 11
398.16394903696101
 21
259.73262189587763
 31
0.0
  0
LINE
  5
8C71
  8
3
 10
398.16394903696101
 20
259.73262189587763
 30
0.0
 11
398.18800009488461
 21
259.67850701554943
 31
0.0
  0
LINE
  5
8C72
  8
3
 10
397.96552780909121
 20
260.01522182648017
 30
0.0
 11
398.00160439597659
 21
259.9731324751138
 31
0.0
  0
LINE
  5
8C73
  8
3
 10
398.04369374734279
 20
259.93104312374749
 30
0.0
 11
398.07375756974739
 21
259.88294100790029
 31
0.0
  0
LINE
  5
8C74
  8
3
 10
398.00160439597659
 20
259.9731324751138
 30
0.0
 11
398.04369374734279
 21
259.93104312374749
 31
0.0
  0
LINE
  5
8C75
  8
3
 10
398.07375756974739
 20
259.88294100790029
 30
0.0
 11
398.10983415663293
 21
259.83483889205309
 31
0.0
  0
LINE
  5
8C76
  8
3
 10
397.92343845772479
 20
260.05731117784649
 30
0.0
 11
397.96552780909121
 21
260.01522182648017
 31
0.0
  0
LINE
  5
8C77
  8
3
 10
397.88134910635841
 20
260.0994005292128
 30
0.0
 11
397.92343845772479
 21
260.05731117784649
 31
0.0
  0
LINE
  5
8C78
  8
3
 10
398.10983415663293
 20
259.83483889205309
 30
0.0
 11
398.13388521455659
 21
259.78072401172489
 31
0.0
  0
LINE
  5
8C79
  8
3
 10
397.83324699051121
 20
260.13547711609829
 30
0.0
 11
397.88134910635841
 21
260.0994005292128
 31
0.0
  0
LINE
  5
8C7A
  8
3
 10
396.90126849597101
 20
260.35193663741092
 30
0.0
 11
396.97943443422253
 21
260.36396216637269
 31
0.0
  0
LINE
  5
8C7B
  8
3
 10
396.93133231837538
 20
260.54434510079977
 30
0.0
 11
396.87120467356652
 21
260.5563706297616
 31
0.0
  0
LINE
  5
8C7C
  8
3
 10
397.20190672001621
 20
260.36997493085357
 30
0.0
 11
397.28007265826801
 21
260.3579494018918
 31
0.0
  0
LINE
  5
8C7D
  8
3
 10
397.34020030307698
 20
260.56238339424249
 30
0.0
 11
397.17184289761161
 21
260.532319571838
 31
0.0
  0
LINE
  5
8C7E
  8
3
 10
397.28007265826801
 20
260.3579494018918
 30
0.0
 11
397.35222583203881
 21
260.35193663741092
 31
0.0
  0
LINE
  5
8C7F
  8
3
 10
397.0515876079935
 20
260.532319571838
 30
0.0
 11
396.99145996318452
 21
260.53833233631889
 31
0.0
  0
LINE
  5
8C80
  8
3
 10
396.97943443422253
 20
260.36396216637269
 30
0.0
 11
397.0515876079935
 21
260.36997493085357
 31
0.0
  0
LINE
  5
8C81
  8
3
 10
396.99145996318452
 20
260.53833233631889
 30
0.0
 11
396.93133231837538
 21
260.54434510079977
 31
0.0
  0
LINE
  5
8C82
  8
3
 10
397.1117152528027
 20
260.532319571838
 30
0.0
 11
397.0515876079935
 21
260.532319571838
 31
0.0
  0
LINE
  5
8C83
  8
3
 10
397.0515876079935
 20
260.36997493085357
 30
0.0
 11
397.1297535462453
 21
260.36997493085357
 31
0.0
  0
LINE
  5
8C84
  8
3
 10
397.17184289761161
 20
260.532319571838
 30
0.0
 11
397.1117152528027
 21
260.532319571838
 31
0.0
  0
LINE
  5
8C85
  8
3
 10
397.1297535462453
 20
260.36997493085357
 30
0.0
 11
397.20190672001621
 21
260.36997493085357
 31
0.0
  0
LINE
  5
8C86
  8
3
 10
396.7569621484293
 20
260.32187281500632
 30
0.0
 11
396.8291153222001
 21
260.33991110844897
 31
0.0
  0
LINE
  5
8C87
  8
3
 10
396.68480897465838
 20
260.30383452156372
 30
0.0
 11
396.7569621484293
 21
260.32187281500632
 31
0.0
  0
LINE
  5
8C88
  8
3
 10
396.61265580088752
 20
260.27377069915912
 30
0.0
 11
396.68480897465838
 21
260.30383452156372
 31
0.0
  0
LINE
  5
8C89
  8
3
 10
396.8291153222001
 20
260.33991110844897
 30
0.0
 11
396.90126849597101
 21
260.35193663741092
 31
0.0
  0
LINE
  5
8C8A
  8
3
 10
396.43828563094132
 20
260.18357923194549
 30
0.0
 11
396.46834945334581
 21
260.21364305434997
 31
0.0
  0
LINE
  5
8C8B
  8
3
 10
396.46834945334581
 20
260.21364305434997
 30
0.0
 11
396.54050262711672
 21
260.24370687675457
 31
0.0
  0
LINE
  5
8C8C
  8
3
 10
396.03543041072061
 20
260.5563706297616
 30
0.0
 11
396.03543041072061
 21
260.5082685139144
 31
0.0
  0
LINE
  5
8C8D
  8
3
 10
396.03543041072061
 20
260.46617916254809
 30
0.0
 11
396.03543041072061
 21
260.42408981118172
 31
0.0
  0
LINE
  5
8C8E
  8
3
 10
396.03543041072061
 20
260.5082685139144
 30
0.0
 11
396.03543041072061
 21
260.46617916254809
 31
0.0
  0
LINE
  5
8C8F
  8
3
 10
396.42626010197949
 20
260.17155370298372
 30
0.0
 11
396.43828563094132
 21
260.18357923194549
 31
0.0
  0
LINE
  5
8C90
  8
3
 10
396.40822180853661
 20
260.16554093850277
 30
0.0
 11
396.42626010197949
 21
260.17155370298372
 31
0.0
  0
LINE
  5
8C91
  8
3
 10
396.3901835150939
 20
260.153515409541
 30
0.0
 11
396.40822180853661
 21
260.16554093850277
 31
0.0
  0
LINE
  5
8C92
  8
3
 10
396.37815798613212
 20
260.14148988057917
 30
0.0
 11
396.3901835150939
 21
260.153515409541
 31
0.0
  0
LINE
  5
8C93
  8
3
 10
396.36011969268941
 20
260.12946435161729
 30
0.0
 11
396.37815798613212
 21
260.14148988057917
 31
0.0
  0
LINE
  5
8C94
  8
3
 10
396.34208139924669
 20
260.11743882265557
 30
0.0
 11
396.36011969268941
 21
260.12946435161729
 31
0.0
  0
LINE
  5
8C95
  8
3
 10
396.02941764623961
 20
260.16554093850277
 30
0.0
 11
396.03543041072061
 21
260.13547711609829
 31
0.0
  0
LINE
  5
8C96
  8
3
 10
396.02941764623961
 20
260.19560476090732
 30
0.0
 11
396.02941764623961
 21
260.16554093850277
 31
0.0
  0
LINE
  5
8C97
  8
3
 10
396.02941764623961
 20
260.2256685833118
 30
0.0
 11
396.02941764623961
 21
260.19560476090732
 31
0.0
  0
LINE
  5
8C98
  8
3
 10
396.02941764623961
 20
260.2557324057164
 30
0.0
 11
396.02941764623961
 21
260.2256685833118
 31
0.0
  0
LINE
  5
8C99
  8
3
 10
396.02941764623961
 20
260.285796228121
 30
0.0
 11
396.02941764623961
 21
260.2557324057164
 31
0.0
  0
LINE
  5
8C9A
  8
3
 10
396.02941764623961
 20
260.32187281500632
 30
0.0
 11
396.02941764623961
 21
260.285796228121
 31
0.0
  0
LINE
  5
8C9B
  8
3
 10
396.02941764623961
 20
260.35193663741092
 30
0.0
 11
396.02941764623961
 21
260.32187281500632
 31
0.0
  0
LINE
  5
8C9C
  8
3
 10
396.03543041072061
 20
260.38801322429629
 30
0.0
 11
396.02941764623961
 21
260.35193663741092
 31
0.0
  0
LINE
  5
8C9D
  8
3
 10
396.03543041072061
 20
260.42408981118172
 30
0.0
 11
396.03543041072061
 21
260.38801322429629
 31
0.0
  0
LINE
  5
8C9E
  8
3
 10
396.54050262711672
 20
260.24370687675457
 30
0.0
 11
396.61265580088752
 21
260.27377069915912
 31
0.0
  0
LINE
  5
8C9F
  8
3
 10
396.31201757684221
 20
260.09338776473197
 30
0.0
 11
396.33005587028492
 21
260.10541329369369
 31
0.0
  0
LINE
  5
8CA0
  8
3
 10
396.29999204788032
 20
260.08136223577009
 30
0.0
 11
396.31201757684221
 21
260.09338776473197
 31
0.0
  0
LINE
  5
8CA1
  8
3
 10
396.26992822547578
 20
260.06332394232749
 30
0.0
 11
396.28195375443761
 21
260.06933670680831
 31
0.0
  0
LINE
  5
8CA2
  8
3
 10
396.25790269651412
 20
260.0512984133656
 30
0.0
 11
396.26992822547578
 21
260.06332394232749
 31
0.0
  0
LINE
  5
8CA3
  8
3
 10
396.24587716755218
 20
260.03927288440377
 30
0.0
 11
396.25790269651412
 21
260.0512984133656
 31
0.0
  0
LINE
  5
8CA4
  8
3
 10
396.22783887410952
 20
260.027247355442
 30
0.0
 11
396.24587716755218
 21
260.03927288440377
 31
0.0
  0
LINE
  5
8CA5
  8
3
 10
396.20378781618598
 20
260.01522182648017
 30
0.0
 11
396.22783887410952
 21
260.027247355442
 31
0.0
  0
LINE
  5
8CA6
  8
3
 10
396.19176228722421
 20
260.01522182648017
 30
0.0
 11
396.20378781618598
 21
260.01522182648017
 31
0.0
  0
LINE
  5
8CA7
  8
3
 10
396.17973675826232
 20
260.00920906199929
 30
0.0
 11
396.19176228722421
 21
260.01522182648017
 31
0.0
  0
LINE
  5
8CA8
  8
3
 10
396.16169846481961
 20
260.00920906199929
 30
0.0
 11
396.17973675826232
 21
260.00920906199929
 31
0.0
  0
LINE
  5
8CA9
  8
3
 10
396.14967293585778
 20
260.00920906199929
 30
0.0
 11
396.16169846481961
 21
260.00920906199929
 31
0.0
  0
LINE
  5
8CAA
  8
3
 10
396.13764740689601
 20
260.01522182648017
 30
0.0
 11
396.14967293585778
 21
260.00920906199929
 31
0.0
  0
LINE
  5
8CAB
  8
3
 10
396.12562187793412
 20
260.01522182648017
 30
0.0
 11
396.13764740689601
 21
260.01522182648017
 31
0.0
  0
LINE
  5
8CAC
  8
3
 10
396.11359634897229
 20
260.02123459096111
 30
0.0
 11
396.12562187793412
 21
260.01522182648017
 31
0.0
  0
LINE
  5
8CAD
  8
3
 10
396.10157082001052
 20
260.02123459096111
 30
0.0
 11
396.11359634897229
 21
260.02123459096111
 31
0.0
  0
LINE
  5
8CAE
  8
3
 10
396.08954529104869
 20
260.027247355442
 30
0.0
 11
396.10157082001052
 21
260.02123459096111
 31
0.0
  0
LINE
  5
8CAF
  8
3
 10
396.07751976208692
 20
260.03326011992289
 30
0.0
 11
396.08954529104869
 21
260.027247355442
 31
0.0
  0
LINE
  5
8CB0
  8
3
 10
396.06549423312521
 20
260.03927288440377
 30
0.0
 11
396.07751976208692
 21
260.03326011992289
 31
0.0
  0
LINE
  5
8CB1
  8
3
 10
396.05948146864421
 20
260.0512984133656
 30
0.0
 11
396.06549423312521
 21
260.03927288440377
 31
0.0
  0
LINE
  5
8CB2
  8
3
 10
396.05346870416338
 20
260.05731117784649
 30
0.0
 11
396.05948146864421
 21
260.0512984133656
 31
0.0
  0
LINE
  5
8CB3
  8
3
 10
396.04144317520138
 20
260.06933670680831
 30
0.0
 11
396.05346870416338
 21
260.05731117784649
 31
0.0
  0
LINE
  5
8CB4
  8
3
 10
396.28195375443761
 20
260.06933670680831
 30
0.0
 11
396.29999204788032
 21
260.08136223577009
 31
0.0
  0
LINE
  5
8CB5
  8
3
 10
396.33005587028492
 20
260.10541329369369
 30
0.0
 11
396.34208139924669
 21
260.11743882265557
 31
0.0
  0
LINE
  5
8CB6
  8
3
 10
396.03543041072061
 20
260.13547711609829
 30
0.0
 11
396.04144317520138
 21
260.06933670680831
 31
0.0
  0
LINE
  5
8CB7
  8
3
 10
397.35222583203881
 20
260.35193663741092
 30
0.0
 11
397.42437900580973
 21
260.3338983439682
 31
0.0
  0
LINE
  5
8CB8
  8
3
 10
398.2721787976173
 20
259.2876773242906
 30
0.0
 11
398.2721787976173
 21
259.2395752084434
 31
0.0
  0
LINE
  5
8CB9
  8
3
 10
398.2240766817701
 20
259.5702772548932
 30
0.0
 11
398.2421149752127
 21
259.522175139046
 31
0.0
  0
LINE
  5
8CBA
  8
3
 10
398.2421149752127
 20
259.522175139046
 30
0.0
 11
398.2481277396937
 21
259.47407302319868
 31
0.0
  0
LINE
  5
8CBB
  8
3
 10
398.26015326865559
 20
259.42597090735148
 30
0.0
 11
398.26616603313641
 21
259.37786879150423
 31
0.0
  0
LINE
  5
8CBC
  8
3
 10
398.2481277396937
 20
259.47407302319868
 30
0.0
 11
398.26015326865559
 21
259.42597090735148
 31
0.0
  0
LINE
  5
8CBD
  8
3
 10
398.26616603313641
 20
259.32976667565703
 30
0.0
 11
398.2721787976173
 21
259.2876773242906
 31
0.0
  0
LINE
  5
8CBE
  8
3
 10
398.26616603313641
 20
259.37786879150423
 30
0.0
 11
398.26616603313641
 21
259.32976667565703
 31
0.0
  0
LINE
  5
8CBF
  8
3
 10
398.27819156209819
 20
259.00507739368811
 30
0.0
 11
398.2721787976173
 21
258.9629880423218
 31
0.0
  0
LINE
  5
8CC0
  8
3
 10
398.27819156209819
 20
259.1914730925962
 30
0.0
 11
398.27819156209819
 21
259.143370976749
 31
0.0
  0
LINE
  5
8CC1
  8
3
 10
398.27819156209819
 20
259.05317950953531
 30
0.0
 11
398.27819156209819
 21
259.00507739368811
 31
0.0
  0
LINE
  5
8CC2
  8
3
 10
398.27819156209819
 20
259.10128162538263
 30
0.0
 11
398.27819156209819
 21
259.05317950953531
 31
0.0
  0
LINE
  5
8CC3
  8
3
 10
398.27819156209819
 20
259.143370976749
 30
0.0
 11
398.27819156209819
 21
259.10128162538263
 31
0.0
  0
LINE
  5
8CC4
  8
3
 10
398.2721787976173
 20
258.9629880423218
 30
0.0
 11
398.2721787976173
 21
258.91488592647448
 31
0.0
  0
LINE
  5
8CC5
  8
3
 10
398.2721787976173
 20
258.91488592647448
 30
0.0
 11
398.2721787976173
 21
258.82469445926102
 31
0.0
  0
LINE
  5
8CC6
  8
3
 10
398.2721787976173
 20
258.82469445926102
 30
0.0
 11
398.21205115280827
 21
258.81868169478008
 31
0.0
  0
LINE
  5
8CC7
  8
3
 10
398.21205115280827
 20
258.81868169478008
 30
0.0
 11
398.15793627248019
 21
258.81266893029908
 31
0.0
  0
LINE
  5
8CC8
  8
3
 10
397.8392597549921
 20
258.80665616581831
 30
0.0
 11
397.78514487466401
 21
258.80665616581831
 31
0.0
  0
LINE
  5
8CC9
  8
3
 10
397.88736187083941
 20
258.80665616581831
 30
0.0
 11
397.8392597549921
 21
258.80665616581831
 31
0.0
  0
LINE
  5
8CCA
  8
3
 10
397.92945122220573
 20
258.80665616581831
 30
0.0
 11
397.88736187083941
 21
258.80665616581831
 31
0.0
  0
LINE
  5
8CCB
  8
3
 10
397.96552780909121
 20
258.80665616581831
 30
0.0
 11
397.92945122220573
 21
258.80665616581831
 31
0.0
  0
LINE
  5
8CCC
  8
3
 10
398.00160439597659
 20
258.80665616581831
 30
0.0
 11
397.96552780909121
 21
258.80665616581831
 31
0.0
  0
LINE
  5
8CCD
  8
3
 10
398.03768098286201
 20
258.80665616581831
 30
0.0
 11
398.00160439597659
 21
258.80665616581831
 31
0.0
  0
LINE
  5
8CCE
  8
3
 10
398.07375756974739
 20
258.80665616581831
 30
0.0
 11
398.03768098286201
 21
258.80665616581831
 31
0.0
  0
LINE
  5
8CCF
  8
3
 10
398.10983415663293
 20
258.80665616581831
 30
0.0
 11
398.07375756974739
 21
258.80665616581831
 31
0.0
  0
LINE
  5
8CD0
  8
3
 10
397.6408385271223
 20
258.80665616581831
 30
0.0
 11
397.54463429542773
 21
258.80064340133731
 31
0.0
  0
LINE
  5
8CD1
  8
3
 10
397.71900446537398
 20
258.80665616581831
 30
0.0
 11
397.6408385271223
 21
258.80665616581831
 31
0.0
  0
LINE
  5
8CD2
  8
3
 10
397.78514487466401
 20
258.80665616581831
 30
0.0
 11
397.71900446537398
 21
258.80665616581831
 31
0.0
  0
LINE
  5
8CD3
  8
3
 10
398.15793627248019
 20
258.81266893029908
 30
0.0
 11
398.10983415663293
 21
258.80665616581831
 31
0.0
  0
LINE
  5
8CD4
  8
3
 10
398.2721787976173
 20
259.2395752084434
 30
0.0
 11
398.27819156209819
 21
259.1914730925962
 31
0.0
  0
LINE
  5
8CD5
  8
3
 10
396.98544719870353
 20
259.32976667565703
 30
0.0
 11
396.88924296700912
 21
259.22153691500063
 31
0.0
  0
LINE
  5
8CD6
  8
3
 10
397.23798330690158
 20
259.33577944013791
 30
0.0
 11
397.22595777793993
 21
259.33577944013791
 31
0.0
  0
LINE
  5
8CD7
  8
3
 10
397.23798330690158
 20
259.32976667565703
 30
0.0
 11
397.23798330690158
 21
259.33577944013791
 31
0.0
  0
LINE
  5
8CD8
  8
3
 10
397.02152378558901
 20
259.33577944013791
 30
0.0
 11
396.98544719870353
 21
259.32976667565703
 31
0.0
  0
LINE
  5
8CD9
  8
3
 10
397.03956207903173
 20
259.3417922046188
 30
0.0
 11
397.02152378558901
 21
259.33577944013791
 31
0.0
  0
LINE
  5
8CDA
  8
3
 10
397.10570248832181
 20
259.34780496909968
 30
0.0
 11
397.0816514303981
 21
259.34780496909968
 31
0.0
  0
LINE
  5
8CDB
  8
3
 10
397.12374078176441
 20
259.34780496909968
 30
0.0
 11
397.10570248832181
 21
259.34780496909968
 31
0.0
  0
LINE
  5
8CDC
  8
3
 10
397.0816514303981
 20
259.34780496909968
 30
0.0
 11
397.0576003724745
 21
259.3417922046188
 31
0.0
  0
LINE
  5
8CDD
  8
3
 10
397.0576003724745
 20
259.3417922046188
 30
0.0
 11
397.03956207903173
 21
259.3417922046188
 31
0.0
  0
LINE
  5
8CDE
  8
3
 10
397.16583013313073
 20
259.34780496909968
 30
0.0
 11
397.14779183968801
 21
259.34780496909968
 31
0.0
  0
LINE
  5
8CDF
  8
3
 10
397.18386842657338
 20
259.34780496909968
 30
0.0
 11
397.16583013313073
 21
259.34780496909968
 31
0.0
  0
LINE
  5
8CE0
  8
3
 10
397.21393224897793
 20
259.3417922046188
 30
0.0
 11
397.20190672001621
 21
259.3417922046188
 31
0.0
  0
LINE
  5
8CE1
  8
3
 10
397.22595777793993
 20
259.33577944013791
 30
0.0
 11
397.21393224897793
 21
259.3417922046188
 31
0.0
  0
LINE
  5
8CE2
  8
3
 10
397.20190672001621
 20
259.3417922046188
 30
0.0
 11
397.18386842657338
 21
259.34780496909968
 31
0.0
  0
LINE
  5
8CE3
  8
3
 10
397.14779183968801
 20
259.34780496909968
 30
0.0
 11
397.12374078176441
 21
259.34780496909968
 31
0.0
  0
LINE
  5
8CE4
  8
3
 10
397.29209818722973
 20
258.88482210407
 30
0.0
 11
397.28007265826801
 21
258.99305186472628
 31
0.0
  0
LINE
  5
8CE5
  8
3
 10
397.28007265826801
 20
258.99305186472628
 30
0.0
 11
397.26804712930613
 21
259.10729438986351
 31
0.0
  0
LINE
  5
8CE6
  8
3
 10
397.29811095171061
 20
258.79463063685648
 30
0.0
 11
397.29811095171061
 21
258.77659234341382
 31
0.0
  0
LINE
  5
8CE7
  8
3
 10
397.29811095171061
 20
258.77659234341382
 30
0.0
 11
397.29209818722973
 21
258.88482210407
 31
0.0
  0
LINE
  5
8CE8
  8
3
 10
396.73892385498652
 20
259.11931991882528
 30
0.0
 11
396.67879621017738
 21
259.0892560964208
 31
0.0
  0
LINE
  5
8CE9
  8
3
 10
396.79303873531461
 20
259.14938374122988
 30
0.0
 11
396.73892385498652
 21
259.11931991882528
 31
0.0
  0
LINE
  5
8CEA
  8
3
 10
396.67879621017738
 20
259.0892560964208
 30
0.0
 11
396.6246813298493
 21
259.0652050384972
 31
0.0
  0
LINE
  5
8CEB
  8
3
 10
396.84114085116192
 20
259.18546032811531
 30
0.0
 11
396.79303873531461
 21
259.14938374122988
 31
0.0
  0
LINE
  5
8CEC
  8
3
 10
396.49841327575018
 20
259.02311568713083
 30
0.0
 11
396.43828563094132
 21
259.00507739368811
 31
0.0
  0
LINE
  5
8CED
  8
3
 10
396.55854092055938
 20
259.04115398057348
 30
0.0
 11
396.49841327575018
 21
259.02311568713083
 31
0.0
  0
LINE
  5
8CEE
  8
3
 10
396.04144317520138
 20
258.96900080680268
 30
0.0
 11
395.90916235662161
 21
258.99305186472628
 31
0.0
  0
LINE
  5
8CEF
  8
3
 10
396.10758358449152
 20
258.96900080680268
 30
0.0
 11
396.04144317520138
 21
258.96900080680268
 31
0.0
  0
LINE
  5
8CF0
  8
3
 10
396.17372399378132
 20
258.96900080680268
 30
0.0
 11
396.10758358449152
 21
258.96900080680268
 31
0.0
  0
LINE
  5
8CF1
  8
3
 10
396.23986440307129
 20
258.97501357128363
 30
0.0
 11
396.17372399378132
 21
258.96900080680268
 31
0.0
  0
LINE
  5
8CF2
  8
3
 10
396.30600481236132
 20
258.98102633576451
 30
0.0
 11
396.23986440307129
 21
258.97501357128363
 31
0.0
  0
LINE
  5
8CF3
  8
3
 10
396.37214522165118
 20
258.99305186472628
 30
0.0
 11
396.30600481236132
 21
258.98102633576451
 31
0.0
  0
LINE
  5
8CF4
  8
3
 10
396.43828563094132
 20
259.00507739368811
 30
0.0
 11
396.37214522165118
 21
258.99305186472628
 31
0.0
  0
LINE
  5
8CF5
  8
3
 10
395.87308576973612
 20
259.00507739368811
 30
0.0
 11
395.85504747629358
 21
259.011090158169
 31
0.0
  0
LINE
  5
8CF6
  8
3
 10
395.89112406317878
 20
258.99906462920723
 30
0.0
 11
395.87308576973612
 21
259.00507739368811
 31
0.0
  0
LINE
  5
8CF7
  8
3
 10
395.90916235662161
 20
258.99305186472628
 30
0.0
 11
395.89112406317878
 21
258.99906462920723
 31
0.0
  0
LINE
  5
8CF8
  8
3
 10
396.6246813298493
 20
259.0652050384972
 30
0.0
 11
396.55854092055938
 21
259.04115398057348
 31
0.0
  0
LINE
  5
8CF9
  8
3
 10
397.26804712930613
 20
259.10729438986351
 30
0.0
 11
397.23798330690158
 21
259.32976667565703
 31
0.0
  0
LINE
  5
8CFA
  8
3
 10
396.88924296700912
 20
259.22153691500063
 30
0.0
 11
396.84114085116192
 21
259.18546032811531
 31
0.0
  0
LINE
  5
8CFB
  8
3
 10
397.54463429542773
 20
258.80064340133731
 30
0.0
 11
397.29811095171061
 21
258.79463063685648
 31
0.0
  0
LINE
  5
8CFC
  8
3
 10
398.18800009488461
 20
259.67850701554943
 30
0.0
 11
398.2240766817701
 21
259.5702772548932
 31
0.0
  0
LINE
  5
8CFD
  8
3
 10
394.96515833311952
 20
260.4842174559908
 30
0.0
 11
394.96515833311952
 21
260.52630680735712
 31
0.0
  0
LINE
  5
8CFE
  8
3
 10
394.96515833311952
 20
260.44212810462437
 30
0.0
 11
394.96515833311952
 21
260.4842174559908
 31
0.0
  0
LINE
  5
8CFF
  8
3
 10
394.96515833311952
 20
260.406051517739
 30
0.0
 11
394.96515833311952
 21
260.44212810462437
 31
0.0
  0
LINE
  5
8D00
  8
3
 10
394.96515833311952
 20
260.32187281500632
 30
0.0
 11
394.96515833311952
 21
260.36396216637269
 31
0.0
  0
LINE
  5
8D01
  8
3
 10
394.96515833311952
 20
260.27978346364
 30
0.0
 11
394.96515833311952
 21
260.32187281500632
 31
0.0
  0
LINE
  5
8D02
  8
3
 10
394.96515833311952
 20
260.24370687675457
 30
0.0
 11
394.96515833311952
 21
260.27978346364
 31
0.0
  0
LINE
  5
8D03
  8
3
 10
394.96515833311952
 20
260.20161752538831
 30
0.0
 11
394.96515833311952
 21
260.24370687675457
 31
0.0
  0
LINE
  5
8D04
  8
3
 10
394.96515833311952
 20
260.15952817402189
 30
0.0
 11
394.96515833311952
 21
260.20161752538831
 31
0.0
  0
LINE
  5
8D05
  8
3
 10
394.96515833311952
 20
260.11743882265557
 30
0.0
 11
394.96515833311952
 21
260.15952817402189
 31
0.0
  0
LINE
  5
8D06
  8
3
 10
394.96515833311952
 20
260.36396216637269
 30
0.0
 11
394.96515833311952
 21
260.406051517739
 31
0.0
  0
LINE
  5
8D07
  8
3
 10
394.96515833311952
 20
259.95509418167109
 30
0.0
 11
394.96515833311952
 21
259.99117076855657
 31
0.0
  0
LINE
  5
8D08
  8
3
 10
395.0192732134476
 20
259.7506601893204
 30
0.0
 11
395.00123492000489
 21
259.81680059861031
 31
0.0
  0
LINE
  5
8D09
  8
3
 10
395.04933703585232
 20
259.68451978003043
 30
0.0
 11
395.0192732134476
 21
259.7506601893204
 31
0.0
  0
LINE
  5
8D0A
  8
3
 10
395.00123492000489
 20
259.81680059861031
 30
0.0
 11
394.96515833311952
 21
259.95509418167109
 31
0.0
  0
LINE
  5
8D0B
  8
3
 10
394.96515833311952
 20
259.99117076855657
 30
0.0
 11
394.96515833311952
 21
260.03326011992289
 31
0.0
  0
LINE
  5
8D0C
  8
3
 10
394.96515833311952
 20
260.03326011992289
 30
0.0
 11
394.96515833311952
 21
260.0753494712892
 31
0.0
  0
LINE
  5
8D0D
  8
3
 10
394.96515833311952
 20
260.0753494712892
 30
0.0
 11
394.96515833311952
 21
260.11743882265557
 31
0.0
  0
LINE
  5
8D0E
  8
3
 10
395.41611566918732
 20
259.2155241505198
 30
0.0
 11
395.36200078885929
 21
259.25761350188611
 31
0.0
  0
LINE
  5
8D0F
  8
3
 10
395.14554126754672
 20
259.51014961008423
 30
0.0
 11
395.10946468066112
 21
259.56426449041231
 31
0.0
  0
LINE
  5
8D10
  8
3
 10
395.18763061891292
 20
259.45603472975603
 30
0.0
 11
395.14554126754672
 21
259.51014961008423
 31
0.0
  0
LINE
  5
8D11
  8
3
 10
395.22971997027929
 20
259.40191984942788
 30
0.0
 11
395.18763061891292
 21
259.45603472975603
 31
0.0
  0
LINE
  5
8D12
  8
3
 10
395.27180932164572
 20
259.35381773358063
 30
0.0
 11
395.22971997027929
 21
259.40191984942788
 31
0.0
  0
LINE
  5
8D13
  8
3
 10
395.36200078885929
 20
259.25761350188611
 30
0.0
 11
395.31389867301181
 21
259.30571561773343
 31
0.0
  0
LINE
  5
8D14
  8
3
 10
395.31389867301181
 20
259.30571561773343
 30
0.0
 11
395.27180932164572
 21
259.35381773358063
 31
0.0
  0
LINE
  5
8D15
  8
3
 10
395.10946468066112
 20
259.56426449041231
 30
0.0
 11
395.07940085825658
 21
259.62439213522129
 31
0.0
  0
LINE
  5
8D16
  8
3
 10
395.56643478121009
 20
259.10128162538263
 30
0.0
 11
395.51833266536272
 21
259.137358212268
 31
0.0
  0
LINE
  5
8D17
  8
3
 10
395.57846031017169
 20
259.0892560964208
 30
0.0
 11
395.57846031017169
 21
259.09526886090168
 31
0.0
  0
LINE
  5
8D18
  8
3
 10
395.58447307465269
 20
259.0892560964208
 30
0.0
 11
395.57846031017169
 21
259.0892560964208
 31
0.0
  0
LINE
  5
8D19
  8
3
 10
395.59048583913358
 20
259.0832433319398
 30
0.0
 11
395.58447307465269
 21
259.0892560964208
 31
0.0
  0
LINE
  5
8D1A
  8
3
 10
395.59649860361441
 20
259.0832433319398
 30
0.0
 11
395.59048583913358
 21
259.0832433319398
 31
0.0
  0
LINE
  5
8D1B
  8
3
 10
395.60251136809529
 20
259.0832433319398
 30
0.0
 11
395.59649860361441
 21
259.0832433319398
 31
0.0
  0
LINE
  5
8D1C
  8
3
 10
395.60852413257641
 20
259.0832433319398
 30
0.0
 11
395.60251136809529
 21
259.0832433319398
 31
0.0
  0
LINE
  5
8D1D
  8
3
 10
395.61453689705729
 20
259.0832433319398
 30
0.0
 11
395.60852413257641
 21
259.0832433319398
 31
0.0
  0
LINE
  5
8D1E
  8
3
 10
395.62054966153818
 20
259.07723056745903
 30
0.0
 11
395.61453689705729
 21
259.0832433319398
 31
0.0
  0
LINE
  5
8D1F
  8
3
 10
395.62656242601901
 20
259.07723056745903
 30
0.0
 11
395.62054966153818
 21
259.07723056745903
 31
0.0
  0
LINE
  5
8D20
  8
3
 10
395.63257519050001
 20
259.07723056745903
 30
0.0
 11
395.62656242601901
 21
259.07723056745903
 31
0.0
  0
LINE
  5
8D21
  8
3
 10
395.63858795498078
 20
259.07723056745903
 30
0.0
 11
395.63257519050001
 21
259.07723056745903
 31
0.0
  0
LINE
  5
8D22
  8
3
 10
395.64460071946178
 20
259.07723056745903
 30
0.0
 11
395.63858795498078
 21
259.07723056745903
 31
0.0
  0
LINE
  5
8D23
  8
3
 10
395.65061348394261
 20
259.07723056745903
 30
0.0
 11
395.64460071946178
 21
259.07723056745903
 31
0.0
  0
LINE
  5
8D24
  8
3
 10
395.68067730634709
 20
259.05919227401631
 30
0.0
 11
395.65061348394261
 21
259.07723056745903
 31
0.0
  0
LINE
  5
8D25
  8
3
 10
395.70472836427081
 20
259.04716674505443
 30
0.0
 11
395.69270283530881
 21
259.05317950953531
 31
0.0
  0
LINE
  5
8D26
  8
3
 10
395.69270283530881
 20
259.05317950953531
 30
0.0
 11
395.68067730634709
 21
259.05919227401631
 31
0.0
  0
LINE
  5
8D27
  8
3
 10
395.77086877356072
 20
259.02912845161183
 30
0.0
 11
395.75283048011812
 21
259.03514121609271
 31
0.0
  0
LINE
  5
8D28
  8
3
 10
395.78890706700338
 20
259.02912845161183
 30
0.0
 11
395.77086877356072
 21
259.02912845161183
 31
0.0
  0
LINE
  5
8D29
  8
3
 10
395.80093259596532
 20
259.02311568713083
 30
0.0
 11
395.78890706700338
 21
259.02912845161183
 31
0.0
  0
LINE
  5
8D2A
  8
3
 10
395.81897088940798
 20
259.01710292265
 30
0.0
 11
395.80093259596532
 21
259.02311568713083
 31
0.0
  0
LINE
  5
8D2B
  8
3
 10
395.83700918285058
 20
259.01710292265
 30
0.0
 11
395.81897088940798
 21
259.01710292265
 31
0.0
  0
LINE
  5
8D2C
  8
3
 10
395.72276665771352
 20
259.04115398057348
 30
0.0
 11
395.70472836427081
 21
259.04716674505443
 31
0.0
  0
LINE
  5
8D2D
  8
3
 10
395.73479218667529
 20
259.03514121609271
 30
0.0
 11
395.72276665771352
 21
259.04115398057348
 31
0.0
  0
LINE
  5
8D2E
  8
3
 10
395.75283048011812
 20
259.03514121609271
 30
0.0
 11
395.73479218667529
 21
259.03514121609271
 31
0.0
  0
LINE
  5
8D2F
  8
3
 10
395.57846031017169
 20
259.09526886090168
 30
0.0
 11
395.56643478121009
 21
259.10128162538263
 31
0.0
  0
LINE
  5
8D30
  8
3
 10
395.51833266536272
 20
259.137358212268
 30
0.0
 11
395.46421778503458
 21
259.17343479915348
 31
0.0
  0
LINE
  5
8D31
  8
3
 10
395.32592420197381
 20
258.74051575652828
 30
0.0
 11
395.39206461126372
 21
258.74051575652828
 31
0.0
  0
LINE
  5
8D32
  8
3
 10
395.26579655716461
 20
258.74051575652828
 30
0.0
 11
395.32592420197381
 21
258.74051575652828
 31
0.0
  0
LINE
  5
8D33
  8
3
 10
395.20566891235569
 20
258.74051575652828
 30
0.0
 11
395.26579655716461
 21
258.74051575652828
 31
0.0
  0
LINE
  5
8D34
  8
3
 10
395.46421778503458
 20
259.17343479915348
 30
0.0
 11
395.41611566918732
 21
259.2155241505198
 31
0.0
  0
LINE
  5
8D35
  8
3
 10
395.07940085825658
 20
259.62439213522129
 30
0.0
 11
395.04933703585232
 21
259.68451978003043
 31
0.0
  0
LINE
  5
8D36
  8
3
 10
395.85504747629358
 20
259.011090158169
 30
0.0
 11
395.83700918285058
 21
259.01710292265
 31
0.0
  0
LINE
  5
8D37
  8
3
 10
398.2060383883275
 20
258.46994135488762
 30
0.0
 11
398.23008944625087
 21
258.39177541663582
 31
0.0
  0
LINE
  5
8D38
  8
3
 10
398.23008944625087
 20
258.39177541663582
 30
0.0
 11
398.25414050417447
 21
258.31962224286491
 31
0.0
  0
LINE
  5
8D39
  8
3
 10
398.17597456592279
 20
258.54810729313931
 30
0.0
 11
398.2060383883275
 21
258.46994135488762
 31
0.0
  0
LINE
  5
8D3A
  8
3
 10
397.77311934570218
 20
258.6623498182766
 30
0.0
 11
397.82723422603021
 21
258.6563370537956
 31
0.0
  0
LINE
  5
8D3B
  8
3
 10
398.03768098286201
 20
258.61424770242928
 30
0.0
 11
398.08578309870933
 21
258.59620940898651
 31
0.0
  0
LINE
  5
8D3C
  8
3
 10
397.98356610253381
 20
258.632285995872
 30
0.0
 11
398.03768098286201
 21
258.61424770242928
 31
0.0
  0
LINE
  5
8D3D
  8
3
 10
397.93546398668661
 20
258.64431152483382
 30
0.0
 11
397.98356610253381
 21
258.632285995872
 31
0.0
  0
LINE
  5
8D3E
  8
3
 10
397.88134910635841
 20
258.65032428931482
 30
0.0
 11
397.93546398668661
 21
258.64431152483382
 31
0.0
  0
LINE
  5
8D3F
  8
3
 10
397.82723422603021
 20
258.6563370537956
 30
0.0
 11
397.88134910635841
 21
258.65032428931482
 31
0.0
  0
LINE
  5
8D40
  8
3
 10
397.4179646456152
 20
258.68844975277301
 30
0.0
 11
397.49051941509958
 21
258.68038811171931
 31
0.0
  0
LINE
  5
8D41
  8
3
 10
397.71299170089321
 20
258.66836258275742
 30
0.0
 11
397.77311934570218
 21
258.6623498182766
 31
0.0
  0
LINE
  5
8D42
  8
3
 10
397.65887682056513
 20
258.66836258275742
 30
0.0
 11
397.71299170089321
 21
258.66836258275742
 31
0.0
  0
LINE
  5
8D43
  8
3
 10
397.60476194023693
 20
258.67437534723842
 30
0.0
 11
397.65887682056513
 21
258.66836258275742
 31
0.0
  0
LINE
  5
8D44
  8
3
 10
397.54463429542773
 20
258.67437534723842
 30
0.0
 11
397.60476194023693
 21
258.67437534723842
 31
0.0
  0
LINE
  5
8D45
  8
3
 10
397.49051941509958
 20
258.68038811171931
 30
0.0
 11
397.54463429542773
 21
258.67437534723842
 31
0.0
  0
LINE
  5
8D46
  8
3
 10
398.08578309870933
 20
258.59620940898651
 30
0.0
 11
398.17597456592279
 21
258.54810729313931
 31
0.0
  0
LINE
  5
8D47
  8
3
 10
398.26616603313641
 20
258.23544354013222
 30
0.0
 11
398.27819156209819
 21
258.15727760188048
 31
0.0
  0
LINE
  5
8D48
  8
3
 10
398.27819156209819
 20
258.07309889914779
 30
0.0
 11
398.28420432657919
 21
257.99493296089611
 31
0.0
  0
LINE
  5
8D49
  8
3
 10
398.27819156209819
 20
258.15727760188048
 30
0.0
 11
398.27819156209819
 21
258.07309889914779
 31
0.0
  0
LINE
  5
8D4A
  8
3
 10
398.28420432657919
 20
257.99493296089611
 30
0.0
 11
398.28420432657919
 21
257.91075425816342
 31
0.0
  0
LINE
  5
8D4B
  8
3
 10
398.28420432657919
 20
257.91075425816342
 30
0.0
 11
398.27819156209819
 21
257.82657555543079
 31
0.0
  0
LINE
  5
8D4C
  8
3
 10
398.25414050417447
 20
258.31962224286491
 30
0.0
 11
398.26616603313641
 21
258.23544354013222
 31
0.0
  0
LINE
  5
8D4D
  8
3
 10
397.31614924515338
 20
258.4519030614448
 30
0.0
 11
397.3101364806725
 21
258.56013282210108
 31
0.0
  0
LINE
  5
8D4E
  8
3
 10
397.31614924515338
 20
258.34367330078862
 30
0.0
 11
397.31614924515338
 21
258.4519030614448
 31
0.0
  0
LINE
  5
8D4F
  8
3
 10
396.90126849597101
 20
258.63829876035288
 30
0.0
 11
396.9072812604519
 21
258.63829876035288
 31
0.0
  0
LINE
  5
8D50
  8
3
 10
397.3101364806725
 20
258.56013282210108
 30
0.0
 11
397.3101364806725
 21
258.66836258275742
 31
0.0
  0
LINE
  5
8D51
  8
3
 10
396.94335784733732
 20
258.632285995872
 30
0.0
 11
396.9493706118181
 21
258.632285995872
 31
0.0
  0
LINE
  5
8D52
  8
3
 10
396.93734508285638
 20
258.632285995872
 30
0.0
 11
396.94335784733732
 21
258.632285995872
 31
0.0
  0
LINE
  5
8D53
  8
3
 10
396.93133231837538
 20
258.632285995872
 30
0.0
 11
396.93734508285638
 21
258.632285995872
 31
0.0
  0
LINE
  5
8D54
  8
3
 10
396.92531955389461
 20
258.632285995872
 30
0.0
 11
396.93133231837538
 21
258.632285995872
 31
0.0
  0
LINE
  5
8D55
  8
3
 10
396.92531955389461
 20
258.63829876035288
 30
0.0
 11
396.92531955389461
 21
258.632285995872
 31
0.0
  0
LINE
  5
8D56
  8
3
 10
396.91930678941372
 20
258.63829876035288
 30
0.0
 11
396.92531955389461
 21
258.63829876035288
 31
0.0
  0
LINE
  5
8D57
  8
3
 10
396.91329402493278
 20
258.63829876035288
 30
0.0
 11
396.91930678941372
 21
258.63829876035288
 31
0.0
  0
LINE
  5
8D58
  8
3
 10
396.9072812604519
 20
258.63829876035288
 30
0.0
 11
396.91329402493278
 21
258.63829876035288
 31
0.0
  0
LINE
  5
8D59
  8
3
 10
396.7028472681011
 20
258.632285995872
 30
0.0
 11
396.73892385498652
 21
258.632285995872
 31
0.0
  0
LINE
  5
8D5A
  8
3
 10
396.73892385498652
 20
258.632285995872
 30
0.0
 11
396.77500044187201
 21
258.63829876035288
 31
0.0
  0
LINE
  5
8D5B
  8
3
 10
396.63069409433012
 20
258.632285995872
 30
0.0
 11
396.66677068121561
 21
258.632285995872
 31
0.0
  0
LINE
  5
8D5C
  8
3
 10
396.66677068121561
 20
258.632285995872
 30
0.0
 11
396.7028472681011
 21
258.632285995872
 31
0.0
  0
LINE
  5
8D5D
  8
3
 10
396.77500044187201
 20
258.63829876035288
 30
0.0
 11
396.81107702875732
 21
258.63829876035288
 31
0.0
  0
LINE
  5
8D5E
  8
3
 10
396.89525573149001
 20
258.63829876035288
 30
0.0
 11
396.90126849597101
 21
258.63829876035288
 31
0.0
  0
LINE
  5
8D5F
  8
3
 10
396.88924296700912
 20
258.63829876035288
 30
0.0
 11
396.89525573149001
 21
258.63829876035288
 31
0.0
  0
LINE
  5
8D60
  8
3
 10
396.88323020252813
 20
258.64431152483382
 30
0.0
 11
396.88924296700912
 21
258.63829876035288
 31
0.0
  0
LINE
  5
8D61
  8
3
 10
396.81107702875732
 20
258.63829876035288
 30
0.0
 11
396.88323020252813
 21
258.64431152483382
 31
0.0
  0
LINE
  5
8D62
  8
3
 10
396.43227286646032
 20
258.62627323139111
 30
0.0
 11
396.47436221782652
 21
258.62627323139111
 31
0.0
  0
LINE
  5
8D63
  8
3
 10
396.47436221782652
 20
258.62627323139111
 30
0.0
 11
396.51645156919301
 21
258.632285995872
 31
0.0
  0
LINE
  5
8D64
  8
3
 10
396.55854092055938
 20
258.632285995872
 30
0.0
 11
396.5946175074447
 21
258.632285995872
 31
0.0
  0
LINE
  5
8D65
  8
3
 10
396.51645156919301
 20
258.632285995872
 30
0.0
 11
396.55854092055938
 21
258.632285995872
 31
0.0
  0
LINE
  5
8D66
  8
3
 10
395.96929000143069
 20
258.54209452865842
 30
0.0
 11
395.96929000143069
 21
258.44589029696391
 31
0.0
  0
LINE
  5
8D67
  8
3
 10
395.96929000143069
 20
258.44589029696391
 30
0.0
 11
395.96929000143069
 21
258.34367330078862
 31
0.0
  0
LINE
  5
8D68
  8
3
 10
396.38417075061312
 20
258.62627323139111
 30
0.0
 11
396.43227286646032
 21
258.62627323139111
 31
0.0
  0
LINE
  5
8D69
  8
3
 10
396.33606863476592
 20
258.62026046691022
 30
0.0
 11
396.38417075061312
 21
258.62627323139111
 31
0.0
  0
LINE
  5
8D6A
  8
3
 10
396.28195375443761
 20
258.62026046691022
 30
0.0
 11
396.33606863476592
 21
258.62026046691022
 31
0.0
  0
LINE
  5
8D6B
  8
3
 10
396.22182610962858
 20
258.62026046691022
 30
0.0
 11
396.28195375443761
 21
258.62026046691022
 31
0.0
  0
LINE
  5
8D6C
  8
3
 10
395.96327723694981
 20
258.64431152483382
 30
0.0
 11
395.96929000143069
 21
258.54209452865842
 31
0.0
  0
LINE
  5
8D6D
  8
3
 10
396.5946175074447
 20
258.632285995872
 30
0.0
 11
396.63069409433012
 21
258.632285995872
 31
0.0
  0
LINE
  5
8D6E
  8
3
 10
397.3101364806725
 20
258.12721377947588
 30
0.0
 11
397.3101364806725
 21
258.23544354013222
 31
0.0
  0
LINE
  5
8D6F
  8
3
 10
397.3041237161915
 20
258.01898401881971
 30
0.0
 11
397.3101364806725
 21
258.12721377947588
 31
0.0
  0
LINE
  5
8D70
  8
3
 10
397.29811095171061
 20
257.90474149368248
 30
0.0
 11
397.3041237161915
 21
258.01898401881971
 31
0.0
  0
LINE
  5
8D71
  8
3
 10
395.96327723694981
 20
258.24145630461322
 30
0.0
 11
395.96327723694981
 21
258.13923930843782
 31
0.0
  0
LINE
  5
8D72
  8
3
 10
395.96327723694981
 20
258.13923930843782
 30
0.0
 11
395.96327723694981
 21
258.03702231226242
 31
0.0
  0
LINE
  5
8D73
  8
3
 10
395.96327723694981
 20
258.03702231226242
 30
0.0
 11
395.96327723694981
 21
257.94081808056791
 31
0.0
  0
LINE
  5
8D74
  8
3
 10
395.96327723694981
 20
257.94081808056791
 30
0.0
 11
395.96327723694981
 21
257.84461384887339
 31
0.0
  0
LINE
  5
8D75
  8
3
 10
397.3101364806725
 20
258.23544354013222
 30
0.0
 11
397.31614924515338
 21
258.34367330078862
 31
0.0
  0
LINE
  5
8D76
  8
3
 10
395.96929000143069
 20
258.34367330078862
 30
0.0
 11
395.96327723694981
 21
258.24145630461322
 31
0.0
  0
LINE
  5
8D77
  8
3
 10
398.2721787976173
 20
257.74840961717888
 30
0.0
 11
398.26616603313641
 21
257.66423091444631
 31
0.0
  0
LINE
  5
8D78
  8
3
 10
398.26616603313641
 20
257.66423091444631
 30
0.0
 11
398.25414050417447
 21
257.58005221171362
 31
0.0
  0
LINE
  5
8D79
  8
3
 10
398.2421149752127
 20
257.50188627346182
 30
0.0
 11
398.23008944625087
 21
257.42372033521008
 31
0.0
  0
LINE
  5
8D7A
  8
3
 10
398.25414050417447
 20
257.58005221171362
 30
0.0
 11
398.2421149752127
 21
257.50188627346182
 31
0.0
  0
LINE
  5
8D7B
  8
3
 10
398.1699618014419
 20
257.15314593356931
 30
0.0
 11
398.15793627248019
 21
257.11706934668388
 31
0.0
  0
LINE
  5
8D7C
  8
3
 10
398.18800009488461
 20
257.18922252045468
 30
0.0
 11
398.1699618014419
 21
257.15314593356931
 31
0.0
  0
LINE
  5
8D7D
  8
3
 10
398.20002562384639
 20
257.22529910734022
 30
0.0
 11
398.18800009488461
 21
257.18922252045468
 31
0.0
  0
LINE
  5
8D7E
  8
3
 10
398.2060383883275
 20
257.26738845870648
 30
0.0
 11
398.20002562384639
 21
257.22529910734022
 31
0.0
  0
LINE
  5
8D7F
  8
3
 10
398.1459107435183
 20
257.08099275979839
 30
0.0
 11
398.12787245007559
 21
257.04491617291302
 31
0.0
  0
LINE
  5
8D80
  8
3
 10
398.15793627248019
 20
257.11706934668388
 30
0.0
 11
398.1459107435183
 21
257.08099275979839
 31
0.0
  0
LINE
  5
8D81
  8
3
 10
398.09780862767099
 20
256.9787757636231
 30
0.0
 11
398.07977033422839
 21
256.94871194121851
 31
0.0
  0
LINE
  5
8D82
  8
3
 10
398.07977033422839
 20
256.94871194121851
 30
0.0
 11
398.06173204078573
 21
256.91263535433308
 31
0.0
  0
LINE
  5
8D83
  8
3
 10
398.11584692111381
 20
257.01485235050859
 30
0.0
 11
398.09780862767099
 21
256.9787757636231
 31
0.0
  0
LINE
  5
8D84
  8
3
 10
398.12787245007559
 20
257.04491617291302
 30
0.0
 11
398.11584692111381
 21
257.01485235050859
 31
0.0
  0
LINE
  5
8D85
  8
3
 10
398.23008944625087
 20
257.42372033521008
 30
0.0
 11
398.2060383883275
 21
257.26738845870648
 31
0.0
  0
LINE
  5
8D86
  8
3
 10
397.28007265826801
 20
257.68226920788902
 30
0.0
 11
397.2860854227489
 21
257.79651173302619
 31
0.0
  0
LINE
  5
8D87
  8
3
 10
397.22595777793993
 20
257.51992456690459
 30
0.0
 11
397.24399607138253
 21
257.53796286034731
 31
0.0
  0
LINE
  5
8D88
  8
3
 10
397.2620343648253
 20
257.57403944723268
 30
0.0
 11
397.28007265826801
 21
257.68226920788902
 31
0.0
  0
LINE
  5
8D89
  8
3
 10
397.24399607138253
 20
257.53796286034731
 30
0.0
 11
397.2620343648253
 21
257.57403944723268
 31
0.0
  0
LINE
  5
8D8A
  8
3
 10
397.21393224897793
 20
257.49587350898088
 30
0.0
 11
397.22595777793993
 21
257.51992456690459
 31
0.0
  0
LINE
  5
8D8B
  8
3
 10
397.19589395553521
 20
257.46580968657639
 30
0.0
 11
397.21393224897793
 21
257.49587350898088
 31
0.0
  0
LINE
  5
8D8C
  8
3
 10
397.17184289761161
 20
257.44175862865279
 30
0.0
 11
397.19589395553521
 21
257.46580968657639
 31
0.0
  0
LINE
  5
8D8D
  8
3
 10
397.15380460416901
 20
257.41169480624819
 30
0.0
 11
397.17184289761161
 21
257.44175862865279
 31
0.0
  0
LINE
  5
8D8E
  8
3
 10
397.1297535462453
 20
257.38764374832459
 30
0.0
 11
397.15380460416901
 21
257.41169480624819
 31
0.0
  0
LINE
  5
8D8F
  8
3
 10
395.98732829487341
 20
257.65821814996542
 30
0.0
 11
396.01137935279701
 21
257.57403944723268
 31
0.0
  0
LINE
  5
8D90
  8
3
 10
396.04144317520138
 20
257.48986074450011
 30
0.0
 11
396.07751976208692
 21
257.40568204176731
 31
0.0
  0
LINE
  5
8D91
  8
3
 10
396.01137935279701
 20
257.57403944723268
 30
0.0
 11
396.04144317520138
 21
257.48986074450011
 31
0.0
  0
LINE
  5
8D92
  8
3
 10
395.97530276591152
 20
257.74840961717888
 30
0.0
 11
395.98732829487341
 21
257.65821814996542
 31
0.0
  0
LINE
  5
8D93
  8
3
 10
396.95538337629898
 20
257.25536292974471
 30
0.0
 11
396.97342166974181
 21
257.25536292974471
 31
0.0
  0
LINE
  5
8D94
  8
3
 10
397.01551102110813
 20
257.27340122318742
 30
0.0
 11
397.03956207903173
 21
257.29143951663008
 31
0.0
  0
LINE
  5
8D95
  8
3
 10
396.99747272766541
 20
257.26137569422559
 30
0.0
 11
397.01551102110813
 21
257.27340122318742
 31
0.0
  0
LINE
  5
8D96
  8
3
 10
396.97342166974181
 20
257.25536292974471
 30
0.0
 11
396.99747272766541
 21
257.26137569422559
 31
0.0
  0
LINE
  5
8D97
  8
3
 10
397.0816514303981
 20
257.33352886799639
 30
0.0
 11
397.10570248832181
 21
257.36359269040099
 31
0.0
  0
LINE
  5
8D98
  8
3
 10
397.06361313695533
 20
257.31549057455368
 30
0.0
 11
397.0816514303981
 21
257.33352886799639
 31
0.0
  0
LINE
  5
8D99
  8
3
 10
397.03956207903173
 20
257.29143951663008
 30
0.0
 11
397.06361313695533
 21
257.31549057455368
 31
0.0
  0
LINE
  5
8D9A
  8
3
 10
396.22182610962858
 20
257.28542675214919
 30
0.0
 11
396.22182610962858
 21
257.29745228111102
 31
0.0
  0
LINE
  5
8D9B
  8
3
 10
396.22182610962858
 20
257.27941398766831
 30
0.0
 11
396.22182610962858
 21
257.28542675214919
 31
0.0
  0
LINE
  5
8D9C
  8
3
 10
396.21581334514769
 20
257.27941398766831
 30
0.0
 11
396.22182610962858
 21
257.27941398766831
 31
0.0
  0
LINE
  5
8D9D
  8
3
 10
396.21581334514769
 20
257.27340122318742
 30
0.0
 11
396.21581334514769
 21
257.27941398766831
 31
0.0
  0
LINE
  5
8D9E
  8
3
 10
396.20980058066681
 20
257.27340122318742
 30
0.0
 11
396.21581334514769
 21
257.27340122318742
 31
0.0
  0
LINE
  5
8D9F
  8
3
 10
396.20980058066681
 20
257.26738845870648
 30
0.0
 11
396.20980058066681
 21
257.27340122318742
 31
0.0
  0
LINE
  5
8DA0
  8
3
 10
396.20378781618598
 20
257.26738845870648
 30
0.0
 11
396.20980058066681
 21
257.26738845870648
 31
0.0
  0
LINE
  5
8DA1
  8
3
 10
396.19777505170498
 20
257.26738845870648
 30
0.0
 11
396.20378781618598
 21
257.26738845870648
 31
0.0
  0
LINE
  5
8DA2
  8
3
 10
396.19176228722421
 20
257.26738845870648
 30
0.0
 11
396.19777505170498
 21
257.26738845870648
 31
0.0
  0
LINE
  5
8DA3
  8
3
 10
396.18574952274321
 20
257.26738845870648
 30
0.0
 11
396.19176228722421
 21
257.26738845870648
 31
0.0
  0
LINE
  5
8DA4
  8
3
 10
397.10570248832181
 20
257.36359269040099
 30
0.0
 11
397.1297535462453
 21
257.38764374832459
 31
0.0
  0
LINE
  5
8DA5
  8
3
 10
396.07751976208692
 20
257.40568204176731
 30
0.0
 11
396.18574952274321
 21
257.26738845870648
 31
0.0
  0
LINE
  5
8DA6
  8
3
 10
398.27819156209819
 20
257.82657555543079
 30
0.0
 11
398.2721787976173
 21
257.74840961717888
 31
0.0
  0
LINE
  5
8DA7
  8
3
 10
396.9493706118181
 20
258.632285995872
 30
0.0
 11
396.95538337629898
 21
257.25536292974471
 31
0.0
  0
LINE
  5
8DA8
  8
3
 10
397.2860854227489
 20
257.79651173302619
 30
0.0
 11
397.29811095171061
 21
257.90474149368248
 31
0.0
  0
LINE
  5
8DA9
  8
3
 10
396.22182610962858
 20
257.29745228111102
 30
0.0
 11
396.22182610962858
 21
258.62026046691022
 31
0.0
  0
LINE
  5
8DAA
  8
3
 10
395.96327723694981
 20
257.84461384887339
 30
0.0
 11
395.97530276591152
 21
257.74840961717888
 31
0.0
  0
LINE
  5
8DAB
  8
3
 10
395.51231990088178
 20
258.7345029920474
 30
0.0
 11
395.57846031017169
 21
258.7345029920474
 31
0.0
  0
LINE
  5
8DAC
  8
3
 10
395.70472836427081
 20
258.72849022756651
 30
0.0
 11
395.76485600907989
 21
258.7345029920474
 31
0.0
  0
LINE
  5
8DAD
  8
3
 10
395.76485600907989
 20
258.7345029920474
 30
0.0
 11
395.83099641836981
 21
258.7345029920474
 31
0.0
  0
LINE
  5
8DAE
  8
3
 10
395.57846031017169
 20
258.7345029920474
 30
0.0
 11
395.63858795498078
 21
258.7345029920474
 31
0.0
  0
LINE
  5
8DAF
  8
3
 10
395.63858795498078
 20
258.7345029920474
 30
0.0
 11
395.70472836427081
 21
258.72849022756651
 31
0.0
  0
LINE
  5
8DB0
  8
3
 10
395.45219225607281
 20
258.7345029920474
 30
0.0
 11
395.51231990088178
 21
258.7345029920474
 31
0.0
  0
LINE
  5
8DB1
  8
3
 10
395.0192732134476
 20
258.72849022756651
 30
0.0
 11
395.07940085825658
 21
258.7345029920474
 31
0.0
  0
LINE
  5
8DB2
  8
3
 10
394.95313280415752
 20
258.72247746308562
 30
0.0
 11
395.0192732134476
 21
258.72849022756651
 31
0.0
  0
LINE
  5
8DB3
  8
3
 10
395.07940085825658
 20
258.7345029920474
 30
0.0
 11
395.13952850306572
 21
258.7345029920474
 31
0.0
  0
LINE
  5
8DB4
  8
3
 10
394.9711710976004
 20
257.50789903794271
 30
0.0
 11
394.9711710976004
 21
257.51391180242371
 31
0.0
  0
LINE
  5
8DB5
  8
3
 10
394.96515833311952
 20
257.47182245105728
 30
0.0
 11
394.9711710976004
 21
257.47783521553822
 31
0.0
  0
LINE
  5
8DB6
  8
3
 10
394.9711710976004
 20
257.49587350898088
 30
0.0
 11
394.9711710976004
 21
257.50789903794271
 31
0.0
  0
LINE
  5
8DB7
  8
3
 10
394.9711710976004
 20
257.48986074450011
 30
0.0
 11
394.9711710976004
 21
257.49587350898088
 31
0.0
  0
LINE
  5
8DB8
  8
3
 10
394.9711710976004
 20
257.48384798001911
 30
0.0
 11
394.9711710976004
 21
257.48986074450011
 31
0.0
  0
LINE
  5
8DB9
  8
3
 10
394.9711710976004
 20
257.47783521553822
 30
0.0
 11
394.9711710976004
 21
257.48384798001911
 31
0.0
  0
LINE
  5
8DBA
  8
3
 10
394.9711710976004
 20
257.51992456690459
 30
0.0
 11
394.96515833311952
 21
257.52593733138542
 31
0.0
  0
LINE
  5
8DBB
  8
3
 10
394.9711710976004
 20
257.51391180242371
 30
0.0
 11
394.9711710976004
 21
257.51992456690459
 31
0.0
  0
LINE
  5
8DBC
  8
3
 10
394.96515833311952
 20
257.53796286034731
 30
0.0
 11
394.95914556863858
 21
257.53796286034731
 31
0.0
  0
LINE
  5
8DBD
  8
3
 10
394.96515833311952
 20
257.53195009586631
 30
0.0
 11
394.96515833311952
 21
257.53796286034731
 31
0.0
  0
LINE
  5
8DBE
  8
3
 10
394.96515833311952
 20
257.52593733138542
 30
0.0
 11
394.96515833311952
 21
257.53195009586631
 31
0.0
  0
LINE
  5
8DBF
  8
3
 10
394.95914556863858
 20
257.53796286034731
 30
0.0
 11
394.95914556863858
 21
257.54397562482819
 31
0.0
  0
LINE
  5
8DC0
  8
3
 10
394.95313280415752
 20
257.56802668275179
 30
0.0
 11
394.95313280415752
 21
257.56802668275179
 31
0.0
  0
LINE
  5
8DC1
  8
3
 10
394.95914556863858
 20
257.55600115379002
 30
0.0
 11
394.95313280415752
 21
257.56802668275179
 31
0.0
  0
LINE
  5
8DC2
  8
3
 10
394.95914556863858
 20
257.54998838930908
 30
0.0
 11
394.95914556863858
 21
257.55600115379002
 31
0.0
  0
LINE
  5
8DC3
  8
3
 10
394.95914556863858
 20
257.54397562482819
 30
0.0
 11
394.95914556863858
 21
257.54998838930908
 31
0.0
  0
LINE
  5
8DC4
  8
3
 10
395.08541362273752
 20
257.03890340843208
 30
0.0
 11
395.05534980033292
 21
257.12308211116482
 31
0.0
  0
LINE
  5
8DC5
  8
3
 10
395.03129874240938
 20
257.20726081389751
 30
0.0
 11
395.00724768448572
 21
257.29143951663008
 31
0.0
  0
LINE
  5
8DC6
  8
3
 10
395.05534980033292
 20
257.12308211116482
 30
0.0
 11
395.03129874240938
 21
257.20726081389751
 31
0.0
  0
LINE
  5
8DC7
  8
3
 10
395.11547744514218
 20
256.96073747018028
 30
0.0
 11
395.08541362273752
 21
257.03890340843208
 31
0.0
  0
LINE
  5
8DC8
  8
3
 10
395.00724768448572
 20
257.29143951663008
 30
0.0
 11
394.96515833311952
 21
257.47182245105728
 31
0.0
  0
LINE
  5
8DC9
  8
3
 10
394.95313280415752
 20
257.56802668275179
 30
0.0
 11
394.95313280415752
 21
258.72247746308562
 31
0.0
  0
ARC
  5
8DCA
  8
3
 10
397.42976771004982
 20
258.82250669756547
 30
0.0
 40
0.1345755430122404
 50
191.95483737982951
 51
264.96835913918909
  0
LINE
  5
8DCB
  8
3
 10
397.3101364806725
 20
258.66836258275742
 30
0.0
 11
397.29811095171061
 21
258.77659234341382
 31
0.0
  0
LINE
  5
8DCC
  8
3
 10
395.95125170798792
 20
258.74652852100922
 30
0.0
 11
395.96327723694981
 21
258.64431152483382
 31
0.0
  0
LINE
  5
8DCD
  8
3
 10
395.83099641836981
 20
258.7345029920474
 30
0.0
 11
395.95125170798792
 21
258.74652852100922
 31
0.0
  0
LINE
  5
8DCE
  8
3
 10
395.39206461126372
 20
258.74051575652828
 30
0.0
 11
395.45219225607281
 21
258.7345029920474
 31
0.0
  0
LINE
  5
8DCF
  8
3
 10
395.13952850306572
 20
258.7345029920474
 30
0.0
 11
395.20566891235569
 21
258.74051575652828
 31
0.0
  0
LINE
  5
8DD0
  8
3
 10
397.4183662413289
 20
260.5804216876852
 30
0.0
 11
397.34020030307698
 21
260.56238339424249
 31
0.0
  0
LINE
  5
8DD1
  8
3
 10
396.87120467356652
 20
260.5563706297616
 30
0.0
 11
396.81107702875732
 21
260.56839615872337
 31
0.0
  0
LINE
  5
8DD2
  8
3
 10
396.02941764623961
 20
260.6104855100898
 30
0.0
 11
396.03543041072061
 21
260.5563706297616
 31
0.0
  0
LINE
  5
8DD3
  8
3
 10
394.96515833311952
 20
260.52630680735712
 30
0.0
 11
394.96515833311952
 21
260.6104855100898
 31
0.0
  0
LINE
  5
8DD4
  8
3
 10
398.15793627248019
 20
256.46167801826522
 30
0.0
 11
398.2240766817701
 21
256.52781842755519
 31
0.0
  0
LINE
  5
8DD5
  8
3
 10
397.84527251947299
 20
256.58794607236422
 30
0.0
 11
397.7911576391449
 21
256.52781842755519
 31
0.0
  0
LINE
  5
8DD6
  8
3
 10
397.94147675116761
 20
256.7262396554251
 30
0.0
 11
397.89337463532041
 21
256.65408648165419
 31
0.0
  0
LINE
  5
8DD7
  8
3
 10
397.89337463532041
 20
256.65408648165419
 30
0.0
 11
397.84527251947299
 21
256.58794607236422
 31
0.0
  0
LINE
  5
8DD8
  8
3
 10
397.98356610253381
 20
256.78636730023408
 30
0.0
 11
397.94147675116761
 21
256.7262396554251
 31
0.0
  0
LINE
  5
8DD9
  8
3
 10
398.00761716045753
 20
256.81643112263862
 30
0.0
 11
397.98356610253381
 21
256.78636730023408
 31
0.0
  0
LINE
  5
8DDA
  8
3
 10
398.02565545390007
 20
256.8525077095241
 30
0.0
 11
398.00761716045753
 21
256.81643112263862
 31
0.0
  0
LINE
  5
8DDB
  8
3
 10
398.04369374734279
 20
256.88257153192859
 30
0.0
 11
398.02565545390007
 21
256.8525077095241
 31
0.0
  0
LINE
  5
8DDC
  8
3
 10
397.7911576391449
 20
256.52781842755519
 30
0.0
 11
397.7370427588167
 21
256.4676907827461
 31
0.0
  0
LINE
  5
8DDD
  8
3
 10
397.80318316810678
 20
256.17907808766267
 30
0.0
 11
397.8392597549921
 21
256.20312914558627
 31
0.0
  0
LINE
  5
8DDE
  8
3
 10
398.0196426894193
 20
256.3414227286471
 30
0.0
 11
398.05571927630479
 21
256.3714865510517
 31
0.0
  0
LINE
  5
8DDF
  8
3
 10
397.98356610253381
 20
256.3113589062425
 30
0.0
 11
398.0196426894193
 21
256.3414227286471
 31
0.0
  0
LINE
  5
8DE0
  8
3
 10
397.95350228012933
 20
256.2873078483189
 30
0.0
 11
397.98356610253381
 21
256.3113589062425
 31
0.0
  0
LINE
  5
8DE1
  8
3
 10
397.9174256932439
 20
256.25724402591442
 30
0.0
 11
397.95350228012933
 21
256.2873078483189
 31
0.0
  0
LINE
  5
8DE2
  8
3
 10
397.88134910635841
 20
256.23319296799082
 30
0.0
 11
397.9174256932439
 21
256.25724402591442
 31
0.0
  0
LINE
  5
8DE3
  8
3
 10
397.8392597549921
 20
256.20312914558627
 30
0.0
 11
397.88134910635841
 21
256.23319296799082
 31
0.0
  0
LINE
  5
8DE4
  8
3
 10
398.05571927630479
 20
256.3714865510517
 30
0.0
 11
398.08578309870933
 21
256.40155037345608
 31
0.0
  0
LINE
  5
8DE5
  8
3
 10
397.4303917702905
 20
255.9986951532355
 30
0.0
 11
397.46646835717593
 21
256.01072068219742
 31
0.0
  0
LINE
  5
8DE6
  8
3
 10
397.56868535335138
 20
256.05281003356367
 30
0.0
 11
397.62280023367958
 21
256.0888866204491
 31
0.0
  0
LINE
  5
8DE7
  8
3
 10
397.5326087664659
 20
256.0407845046019
 30
0.0
 11
397.56868535335138
 21
256.05281003356367
 31
0.0
  0
LINE
  5
8DE8
  8
3
 10
397.50254494406153
 20
256.02875897564002
 30
0.0
 11
397.5326087664659
 21
256.0407845046019
 31
0.0
  0
LINE
  5
8DE9
  8
3
 10
397.46646835717593
 20
256.01072068219742
 30
0.0
 11
397.50254494406153
 21
256.02875897564002
 31
0.0
  0
LINE
  5
8DEA
  8
3
 10
397.7610938167403
 20
256.15502702973907
 30
0.0
 11
397.80318316810678
 21
256.17907808766267
 31
0.0
  0
LINE
  5
8DEB
  8
3
 10
397.71900446537398
 20
256.13097597181542
 30
0.0
 11
397.7610938167403
 21
256.15502702973907
 31
0.0
  0
LINE
  5
8DEC
  8
3
 10
397.67090234952678
 20
256.10692491389182
 30
0.0
 11
397.71900446537398
 21
256.13097597181542
 31
0.0
  0
LINE
  5
8DED
  8
3
 10
397.62280023367958
 20
256.0888866204491
 30
0.0
 11
397.67090234952678
 21
256.10692491389182
 31
0.0
  0
LINE
  5
8DEE
  8
3
 10
397.49051941509958
 20
256.26926955487619
 30
0.0
 11
397.4183662413289
 21
256.22718020350987
 31
0.0
  0
LINE
  5
8DEF
  8
3
 10
397.61678746919858
 20
256.35946102208982
 30
0.0
 11
397.55064705990861
 21
256.3173716707235
 31
0.0
  0
LINE
  5
8DF0
  8
3
 10
397.55064705990861
 20
256.3173716707235
 30
0.0
 11
397.49051941509958
 21
256.26926955487619
 31
0.0
  0
LINE
  5
8DF1
  8
3
 10
397.67691511400773
 20
256.41357590241802
 30
0.0
 11
397.61678746919858
 21
256.35946102208982
 31
0.0
  0
LINE
  5
8DF2
  8
3
 10
398.08578309870933
 20
256.40155037345608
 30
0.0
 11
398.12185968559459
 21
256.43161419586067
 31
0.0
  0
LINE
  5
8DF3
  8
3
 10
398.12185968559459
 20
256.43161419586067
 30
0.0
 11
398.15793627248019
 21
256.46167801826522
 31
0.0
  0
LINE
  5
8DF4
  8
3
 10
397.7370427588167
 20
256.4676907827461
 30
0.0
 11
397.67691511400773
 21
256.41357590241802
 31
0.0
  0
LINE
  5
8DF5
  8
3
 10
397.0515876079935
 20
256.07084832700639
 30
0.0
 11
396.88924296700912
 21
256.02875897564002
 31
0.0
  0
LINE
  5
8DF6
  8
3
 10
397.28007265826801
 20
256.15502702973907
 30
0.0
 11
397.2079194844971
 21
256.12496320733447
 31
0.0
  0
LINE
  5
8DF7
  8
3
 10
397.35222583203881
 20
256.1911036166245
 30
0.0
 11
397.28007265826801
 21
256.15502702973907
 31
0.0
  0
LINE
  5
8DF8
  8
3
 10
397.1297535462453
 20
256.09489938492999
 30
0.0
 11
397.0515876079935
 21
256.07084832700639
 31
0.0
  0
LINE
  5
8DF9
  8
3
 10
397.2079194844971
 20
256.12496320733447
 30
0.0
 11
397.1297535462453
 21
256.09489938492999
 31
0.0
  0
LINE
  5
8DFA
  8
3
 10
396.72689832602458
 20
256.01072068219742
 30
0.0
 11
396.6727834456965
 21
256.01072068219742
 31
0.0
  0
LINE
  5
8DFB
  8
3
 10
396.78101320635278
 20
256.0167334466783
 30
0.0
 11
396.72689832602458
 21
256.01072068219742
 31
0.0
  0
LINE
  5
8DFC
  8
3
 10
396.6727834456965
 20
256.01072068219742
 30
0.0
 11
396.61265580088752
 21
256.01072068219742
 31
0.0
  0
LINE
  5
8DFD
  8
3
 10
396.83512808668092
 20
256.0167334466783
 30
0.0
 11
396.78101320635278
 21
256.0167334466783
 31
0.0
  0
LINE
  5
8DFE
  8
3
 10
396.88924296700912
 20
256.02875897564002
 30
0.0
 11
396.83512808668092
 21
256.0167334466783
 31
0.0
  0
LINE
  5
8DFF
  8
3
 10
396.45031115990298
 20
256.0167334466783
 30
0.0
 11
396.40220904405578
 21
256.0167334466783
 31
0.0
  0
LINE
  5
8E00
  8
3
 10
396.50442604023118
 20
256.01072068219742
 30
0.0
 11
396.45031115990298
 21
256.0167334466783
 31
0.0
  0
LINE
  5
8E01
  8
3
 10
396.55854092055938
 20
256.01072068219742
 30
0.0
 11
396.50442604023118
 21
256.01072068219742
 31
0.0
  0
LINE
  5
8E02
  8
3
 10
396.01137935279701
 20
256.10692491389182
 30
0.0
 11
395.98732829487341
 21
256.11895044285359
 31
0.0
  0
LINE
  5
8E03
  8
3
 10
396.02941764623961
 20
256.09489938492999
 30
0.0
 11
396.01137935279701
 21
256.10692491389182
 31
0.0
  0
LINE
  5
8E04
  8
3
 10
396.13764740689601
 20
256.0648355625255
 30
0.0
 11
396.02941764623961
 21
256.09489938492999
 31
0.0
  0
LINE
  5
8E05
  8
3
 10
396.18574952274321
 20
256.05281003356367
 30
0.0
 11
396.13764740689601
 21
256.0648355625255
 31
0.0
  0
LINE
  5
8E06
  8
3
 10
396.23986440307129
 20
256.0407845046019
 30
0.0
 11
396.18574952274321
 21
256.05281003356367
 31
0.0
  0
LINE
  5
8E07
  8
3
 10
396.29397928339949
 20
256.03477174012102
 30
0.0
 11
396.23986440307129
 21
256.0407845046019
 31
0.0
  0
LINE
  5
8E08
  8
3
 10
396.34809416372769
 20
256.02274621115907
 30
0.0
 11
396.29397928339949
 21
256.03477174012102
 31
0.0
  0
LINE
  5
8E09
  8
3
 10
396.40220904405578
 20
256.0167334466783
 30
0.0
 11
396.34809416372769
 21
256.02274621115907
 31
0.0
  0
LINE
  5
8E0A
  8
3
 10
395.98732829487341
 20
256.11895044285359
 30
0.0
 11
395.96327723694981
 21
256.13097597181542
 31
0.0
  0
LINE
  5
8E0B
  8
3
 10
395.89112406317878
 20
256.1670525587009
 30
0.0
 11
395.86707300525529
 21
256.17907808766267
 31
0.0
  0
LINE
  5
8E0C
  8
3
 10
395.91517512110249
 20
256.15502702973907
 30
0.0
 11
395.89112406317878
 21
256.1670525587009
 31
0.0
  0
LINE
  5
8E0D
  8
3
 10
395.96327723694981
 20
256.13097597181542
 30
0.0
 11
395.93922617902598
 21
256.14300150077719
 31
0.0
  0
LINE
  5
8E0E
  8
3
 10
395.93922617902598
 20
256.14300150077719
 30
0.0
 11
395.91517512110249
 21
256.15502702973907
 31
0.0
  0
LINE
  5
8E0F
  8
3
 10
396.61265580088752
 20
256.01072068219742
 30
0.0
 11
396.55854092055938
 21
256.01072068219742
 31
0.0
  0
LINE
  5
8E10
  8
3
 10
397.4183662413289
 20
256.22718020350987
 30
0.0
 11
397.35222583203881
 21
256.1911036166245
 31
0.0
  0
LINE
  5
8E11
  8
3
 10
398.16394903696101
 20
255.1749464193515
 30
0.0
 11
398.16394903696101
 21
255.1689336548707
 31
0.0
  0
LINE
  5
8E12
  8
3
 10
398.16394903696101
 20
255.15690812590881
 30
0.0
 11
398.15793627248019
 21
255.1508953614279
 31
0.0
  0
LINE
  5
8E13
  8
3
 10
398.16394903696101
 20
255.1629208903897
 30
0.0
 11
398.16394903696101
 21
255.15690812590881
 31
0.0
  0
LINE
  5
8E14
  8
3
 10
398.16394903696101
 20
255.1689336548707
 30
0.0
 11
398.16394903696101
 21
255.1629208903897
 31
0.0
  0
LINE
  5
8E15
  8
3
 10
398.1699618014419
 20
255.1749464193515
 30
0.0
 11
398.16394903696101
 21
255.1749464193515
 31
0.0
  0
LINE
  5
8E16
  8
3
 10
398.1699618014419
 20
255.1809591838325
 30
0.0
 11
398.1699618014419
 21
255.1749464193515
 31
0.0
  0
LINE
  5
8E17
  8
3
 10
398.1699618014419
 20
255.1869719483133
 30
0.0
 11
398.1699618014419
 21
255.1809591838325
 31
0.0
  0
LINE
  5
8E18
  8
3
 10
398.1699618014419
 20
255.19298471279421
 30
0.0
 11
398.1699618014419
 21
255.1869719483133
 31
0.0
  0
LINE
  5
8E19
  8
3
 10
398.18198733040367
 20
255.19298471279421
 30
0.0
 11
398.1699618014419
 21
255.19298471279421
 31
0.0
  0
LINE
  5
8E1A
  8
3
 10
398.18800009488461
 20
255.19298471279421
 30
0.0
 11
398.18198733040367
 21
255.19298471279421
 31
0.0
  0
LINE
  5
8E1B
  8
3
 10
398.1940128593655
 20
255.19899747727521
 30
0.0
 11
398.18800009488461
 21
255.19298471279421
 31
0.0
  0
LINE
  5
8E1C
  8
3
 10
398.20002562384639
 20
255.19899747727521
 30
0.0
 11
398.1940128593655
 21
255.19899747727521
 31
0.0
  0
LINE
  5
8E1D
  8
3
 10
398.2060383883275
 20
255.2050102417561
 30
0.0
 11
398.20002562384639
 21
255.19899747727521
 31
0.0
  0
LINE
  5
8E1E
  8
3
 10
398.21205115280827
 20
255.2050102417561
 30
0.0
 11
398.2060383883275
 21
255.2050102417561
 31
0.0
  0
LINE
  5
8E1F
  8
3
 10
398.21806391728921
 20
255.2050102417561
 30
0.0
 11
398.21205115280827
 21
255.2050102417561
 31
0.0
  0
LINE
  5
8E20
  8
3
 10
398.2240766817701
 20
255.2110230062369
 30
0.0
 11
398.21806391728921
 21
255.2050102417561
 31
0.0
  0
LINE
  5
8E21
  8
3
 10
398.2240766817701
 20
255.2170357707179
 30
0.0
 11
398.2240766817701
 21
255.2110230062369
 31
0.0
  0
LINE
  5
8E22
  8
3
 10
396.79303873531461
 20
255.87242709913659
 30
0.0
 11
396.91329402493278
 21
255.87242709913659
 31
0.0
  0
LINE
  5
8E23
  8
3
 10
397.2079194844971
 20
255.9265419794647
 30
0.0
 11
397.25000883586353
 21
255.93856750842639
 31
0.0
  0
LINE
  5
8E24
  8
3
 10
397.25000883586353
 20
255.93856750842639
 30
0.0
 11
397.2860854227489
 21
255.9505930373883
 31
0.0
  0
LINE
  5
8E25
  8
3
 10
397.32216200963433
 20
255.9626185663501
 30
0.0
 11
397.3582385965197
 21
255.9746440953119
 31
0.0
  0
LINE
  5
8E26
  8
3
 10
397.2860854227489
 20
255.9505930373883
 30
0.0
 11
397.32216200963433
 21
255.9626185663501
 31
0.0
  0
LINE
  5
8E27
  8
3
 10
396.91329402493278
 20
255.87242709913659
 30
0.0
 11
397.0515876079935
 21
255.8844526280983
 31
0.0
  0
LINE
  5
8E28
  8
3
 10
397.09367695935998
 20
255.8904653925793
 30
0.0
 11
397.1297535462453
 21
255.90249092154099
 31
0.0
  0
LINE
  5
8E29
  8
3
 10
397.0515876079935
 20
255.8844526280983
 30
0.0
 11
397.09367695935998
 21
255.8904653925793
 31
0.0
  0
LINE
  5
8E2A
  8
3
 10
397.17184289761161
 20
255.9145164505029
 30
0.0
 11
397.2079194844971
 21
255.9265419794647
 31
0.0
  0
LINE
  5
8E2B
  8
3
 10
397.1297535462453
 20
255.90249092154099
 30
0.0
 11
397.17184289761161
 21
255.9145164505029
 31
0.0
  0
LINE
  5
8E2C
  8
3
 10
396.6427196232919
 20
255.86641433465559
 30
0.0
 11
396.79303873531461
 21
255.87242709913659
 31
0.0
  0
LINE
  5
8E2D
  8
3
 10
396.26391546099489
 20
255.8604015701747
 30
0.0
 11
396.4623366888647
 21
255.8604015701747
 31
0.0
  0
LINE
  5
8E2E
  8
3
 10
396.04144317520138
 20
255.8604015701747
 30
0.0
 11
396.26391546099489
 21
255.8604015701747
 31
0.0
  0
LINE
  5
8E2F
  8
3
 10
396.4623366888647
 20
255.8604015701747
 30
0.0
 11
396.6427196232919
 21
255.86641433465559
 31
0.0
  0
LINE
  5
8E30
  8
3
 10
397.3582385965197
 20
255.9746440953119
 30
0.0
 11
397.3943151834053
 21
255.9866696242737
 31
0.0
  0
LINE
  5
8E31
  8
3
 10
398.2240766817701
 20
256.52781842755519
 30
0.0
 11
398.2240766817701
 21
255.2170357707179
 31
0.0
  0
LINE
  5
8E32
  8
3
 10
397.3943151834053
 20
255.9866696242737
 30
0.0
 11
397.4303917702905
 21
255.9986951532355
 31
0.0
  0
LINE
  5
8E33
  8
3
 10
395.28383485060749
 20
256.66611201061602
 30
0.0
 11
395.23573273476018
 21
256.73826518438688
 31
0.0
  0
LINE
  5
8E34
  8
3
 10
395.33794973093558
 20
256.59997160132599
 30
0.0
 11
395.28383485060749
 21
256.66611201061602
 31
0.0
  0
LINE
  5
8E35
  8
3
 10
395.39206461126372
 20
256.53383119203608
 30
0.0
 11
395.33794973093558
 21
256.59997160132599
 31
0.0
  0
LINE
  5
8E36
  8
3
 10
395.45219225607281
 20
256.4676907827461
 30
0.0
 11
395.39206461126372
 21
256.53383119203608
 31
0.0
  0
LINE
  5
8E37
  8
3
 10
395.19364338339392
 20
256.81041835815768
 30
0.0
 11
395.15155403202738
 21
256.88257153192859
 31
0.0
  0
LINE
  5
8E38
  8
3
 10
395.23573273476018
 20
256.73826518438688
 30
0.0
 11
395.19364338339392
 21
256.81041835815768
 31
0.0
  0
LINE
  5
8E39
  8
3
 10
395.57846031017169
 20
256.34743549312799
 30
0.0
 11
395.51231990088178
 21
256.40756313793707
 31
0.0
  0
LINE
  5
8E3A
  8
3
 10
395.84302194733158
 20
256.1911036166245
 30
0.0
 11
395.81897088940798
 21
256.20312914558627
 31
0.0
  0
LINE
  5
8E3B
  8
3
 10
395.77086877356072
 20
256.22718020350987
 30
0.0
 11
395.74681771563712
 21
256.2392057324717
 31
0.0
  0
LINE
  5
8E3C
  8
3
 10
395.79491983148421
 20
256.21515467454799
 30
0.0
 11
395.77086877356072
 21
256.22718020350987
 31
0.0
  0
LINE
  5
8E3D
  8
3
 10
395.81897088940798
 20
256.20312914558627
 30
0.0
 11
395.79491983148421
 21
256.21515467454799
 31
0.0
  0
LINE
  5
8E3E
  8
3
 10
395.72276665771352
 20
256.25123126143347
 30
0.0
 11
395.69871559978992
 21
256.2632567903953
 31
0.0
  0
LINE
  5
8E3F
  8
3
 10
395.74681771563712
 20
256.2392057324717
 30
0.0
 11
395.72276665771352
 21
256.25123126143347
 31
0.0
  0
LINE
  5
8E40
  8
3
 10
395.65061348394261
 20
256.29332061279979
 30
0.0
 11
395.57846031017169
 21
256.34743549312799
 31
0.0
  0
LINE
  5
8E41
  8
3
 10
395.69871559978992
 20
256.2632567903953
 30
0.0
 11
395.65061348394261
 21
256.29332061279979
 31
0.0
  0
LINE
  5
8E42
  8
3
 10
395.51231990088178
 20
256.40756313793707
 30
0.0
 11
395.45219225607281
 21
256.4676907827461
 31
0.0
  0
LINE
  5
8E43
  8
3
 10
395.31991143749281
 20
255.8483760412129
 30
0.0
 11
395.56643478121009
 21
255.85438880569379
 31
0.0
  0
LINE
  5
8E44
  8
3
 10
395.56643478121009
 20
255.85438880569379
 30
0.0
 11
395.81295812492709
 21
255.85438880569379
 31
0.0
  0
LINE
  5
8E45
  8
3
 10
394.57432864186057
 20
255.8423632767321
 30
0.0
 11
394.8208519855778
 21
255.8423632767321
 31
0.0
  0
LINE
  5
8E46
  8
3
 10
394.8208519855778
 20
255.8423632767321
 30
0.0
 11
395.06737532929492
 21
255.8483760412129
 31
0.0
  0
LINE
  5
8E47
  8
3
 10
395.06737532929492
 20
255.8483760412129
 30
0.0
 11
395.31991143749281
 21
255.8483760412129
 31
0.0
  0
LINE
  5
8E48
  8
3
 10
395.81295812492709
 20
255.85438880569379
 30
0.0
 11
396.04144317520138
 21
255.8604015701747
 31
0.0
  0
LINE
  5
8E49
  8
3
 10
395.86707300525529
 20
256.17907808766267
 30
0.0
 11
395.84302194733158
 21
256.1911036166245
 31
0.0
  0
LINE
  5
8E4A
  8
3
 10
397.77913211018313
 20
254.6578486739937
 30
0.0
 11
397.83324699051121
 21
254.65183590951281
 31
0.0
  0
LINE
  5
8E4B
  8
3
 10
397.9174256932439
 20
255.0366528362907
 30
0.0
 11
397.68292787848861
 21
254.9464613690771
 31
0.0
  0
LINE
  5
8E4C
  8
3
 10
397.83324699051121
 20
254.65183590951281
 30
0.0
 11
397.88736187083941
 21
254.6398103805509
 31
0.0
  0
LINE
  5
8E4D
  8
3
 10
397.55064705990861
 20
254.68791249639821
 30
0.0
 11
397.60476194023693
 21
254.6818997319173
 31
0.0
  0
LINE
  5
8E4E
  8
3
 10
397.71900446537398
 20
254.6698742029555
 30
0.0
 11
397.77913211018313
 21
254.6578486739937
 31
0.0
  0
LINE
  5
8E4F
  8
3
 10
397.66488958504578
 20
254.67588696743641
 30
0.0
 11
397.71900446537398
 21
254.6698742029555
 31
0.0
  0
LINE
  5
8E50
  8
3
 10
397.60476194023693
 20
254.6818997319173
 30
0.0
 11
397.66488958504578
 21
254.67588696743641
 31
0.0
  0
LINE
  5
8E51
  8
3
 10
397.68292787848861
 20
254.9464613690771
 30
0.0
 11
397.45444282821433
 21
254.88032095978721
 31
0.0
  0
LINE
  5
8E52
  8
3
 10
397.49051941509958
 20
254.6939252608791
 30
0.0
 11
397.55064705990861
 21
254.68791249639821
 31
0.0
  0
LINE
  5
8E53
  8
3
 10
397.43640453477138
 20
254.7059507898409
 30
0.0
 11
397.49051941509958
 21
254.6939252608791
 31
0.0
  0
LINE
  5
8E54
  8
3
 10
397.3822896544433
 20
254.71196355432181
 30
0.0
 11
397.43640453477138
 21
254.7059507898409
 31
0.0
  0
LINE
  5
8E55
  8
3
 10
398.16394903696101
 20
254.43537638820021
 30
0.0
 11
398.17597456592279
 21
254.41132533027661
 31
0.0
  0
LINE
  5
8E56
  8
3
 10
398.18800009488461
 20
254.38727427235301
 30
0.0
 11
398.1940128593655
 21
254.3632232144293
 31
0.0
  0
LINE
  5
8E57
  8
3
 10
398.1940128593655
 20
254.3632232144293
 30
0.0
 11
398.2060383883275
 21
254.3391721565057
 31
0.0
  0
LINE
  5
8E58
  8
3
 10
398.17597456592279
 20
254.41132533027661
 30
0.0
 11
398.18800009488461
 21
254.38727427235301
 31
0.0
  0
LINE
  5
8E59
  8
3
 10
398.21205115280827
 20
254.29708280513941
 30
0.0
 11
398.21806391728921
 21
254.18885304448301
 31
0.0
  0
LINE
  5
8E5A
  8
3
 10
398.2060383883275
 20
254.3391721565057
 30
0.0
 11
398.21205115280827
 21
254.29708280513941
 31
0.0
  0
LINE
  5
8E5B
  8
3
 10
398.15192350799919
 20
254.45942744612381
 30
0.0
 11
398.16394903696101
 21
254.43537638820021
 31
0.0
  0
LINE
  5
8E5C
  8
3
 10
398.13989797903741
 20
254.4774657395665
 30
0.0
 11
398.15192350799919
 21
254.45942744612381
 31
0.0
  0
LINE
  5
8E5D
  8
3
 10
398.12787245007559
 20
254.5015167974901
 30
0.0
 11
398.13989797903741
 21
254.4774657395665
 31
0.0
  0
LINE
  5
8E5E
  8
3
 10
398.01362992493841
 20
254.59772102918461
 30
0.0
 11
398.03768098286201
 21
254.58569550022281
 31
0.0
  0
LINE
  5
8E5F
  8
3
 10
398.09179586319021
 20
254.53759338437561
 30
0.0
 11
398.10983415663293
 21
254.51955509093281
 31
0.0
  0
LINE
  5
8E60
  8
3
 10
398.07375756974739
 20
254.5556316778183
 30
0.0
 11
398.09179586319021
 21
254.53759338437561
 31
0.0
  0
LINE
  5
8E61
  8
3
 10
398.05571927630479
 20
254.57366997126101
 30
0.0
 11
398.07375756974739
 21
254.5556316778183
 31
0.0
  0
LINE
  5
8E62
  8
3
 10
398.03768098286201
 20
254.58569550022281
 30
0.0
 11
398.05571927630479
 21
254.57366997126101
 31
0.0
  0
LINE
  5
8E63
  8
3
 10
397.98957886701481
 20
254.6157593226273
 30
0.0
 11
398.01362992493841
 21
254.59772102918461
 31
0.0
  0
LINE
  5
8E64
  8
3
 10
398.10983415663293
 20
254.51955509093281
 30
0.0
 11
398.12787245007559
 21
254.5015167974901
 31
0.0
  0
LINE
  5
8E65
  8
3
 10
397.88736187083941
 20
254.6398103805509
 30
0.0
 11
397.98957886701481
 21
254.6157593226273
 31
0.0
  0
LINE
  5
8E66
  8
3
 10
396.99747272766541
 20
254.79012949257361
 30
0.0
 11
396.76898767739101
 21
254.76607843465001
 31
0.0
  0
LINE
  5
8E67
  8
3
 10
397.15380460416901
 20
254.64582314503181
 30
0.0
 11
397.14779183968801
 21
254.76607843465001
 31
0.0
  0
LINE
  5
8E68
  8
3
 10
397.18988119105438
 20
254.7480401412073
 30
0.0
 11
397.23798330690158
 21
254.7360146122455
 31
0.0
  0
LINE
  5
8E69
  8
3
 10
397.23798330690158
 20
254.7360146122455
 30
0.0
 11
397.2860854227489
 21
254.7300018477645
 31
0.0
  0
LINE
  5
8E6A
  8
3
 10
397.2860854227489
 20
254.7300018477645
 30
0.0
 11
397.3341875385961
 21
254.7179763188027
 31
0.0
  0
LINE
  5
8E6B
  8
3
 10
397.14779183968801
 20
254.76607843465001
 30
0.0
 11
397.18988119105438
 21
254.7480401412073
 31
0.0
  0
LINE
  5
8E6C
  8
3
 10
397.22595777793993
 20
254.82620607945901
 30
0.0
 11
396.99747272766541
 21
254.79012949257361
 31
0.0
  0
LINE
  5
8E6D
  8
3
 10
396.53448986263572
 20
254.75405290568821
 30
0.0
 11
396.29999204788032
 21
254.7480401412073
 31
0.0
  0
LINE
  5
8E6E
  8
3
 10
396.29999204788032
 20
254.7480401412073
 30
0.0
 11
396.04745593968249
 21
254.75405290568821
 31
0.0
  0
LINE
  5
8E6F
  8
3
 10
396.76898767739101
 20
254.76607843465001
 30
0.0
 11
396.53448986263572
 21
254.75405290568821
 31
0.0
  0
LINE
  5
8E70
  8
3
 10
397.17184289761161
 20
254.3632232144293
 30
0.0
 11
397.16583013313073
 21
254.4654402106047
 31
0.0
  0
LINE
  5
8E71
  8
3
 10
397.17785566209261
 20
254.2489806892921
 30
0.0
 11
397.17184289761161
 21
254.3632232144293
 31
0.0
  0
LINE
  5
8E72
  8
3
 10
397.16583013313073
 20
254.4654402106047
 30
0.0
 11
397.1598173686499
 21
254.56164444229921
 31
0.0
  0
LINE
  5
8E73
  8
3
 10
396.68480897465838
 20
254.5075295619711
 30
0.0
 11
396.72689832602458
 21
254.5075295619711
 31
0.0
  0
LINE
  5
8E74
  8
3
 10
396.72689832602458
 20
254.5075295619711
 30
0.0
 11
396.76898767739101
 21
254.5075295619711
 31
0.0
  0
LINE
  5
8E75
  8
3
 10
396.63670685881112
 20
254.5075295619711
 30
0.0
 11
396.68480897465838
 21
254.5075295619711
 31
0.0
  0
LINE
  5
8E76
  8
3
 10
396.8531663801237
 20
254.51955509093281
 30
0.0
 11
396.85917914460458
 21
254.43537638820021
 31
0.0
  0
LINE
  5
8E77
  8
3
 10
396.76898767739101
 20
254.5075295619711
 30
0.0
 11
396.8531663801237
 21
254.51955509093281
 31
0.0
  0
LINE
  5
8E78
  8
3
 10
396.86519190908541
 20
254.26701898273481
 30
0.0
 11
396.86519190908541
 21
254.17682751552121
 31
0.0
  0
LINE
  5
8E79
  8
3
 10
396.86519190908541
 20
254.3511976854675
 30
0.0
 11
396.86519190908541
 21
254.26701898273481
 31
0.0
  0
LINE
  5
8E7A
  8
3
 10
396.85917914460458
 20
254.43537638820021
 30
0.0
 11
396.86519190908541
 21
254.3511976854675
 31
0.0
  0
LINE
  5
8E7B
  8
3
 10
396.40822180853661
 20
254.5075295619711
 30
0.0
 11
396.45632392438398
 21
254.5075295619711
 31
0.0
  0
LINE
  5
8E7C
  8
3
 10
396.49841327575018
 20
254.5075295619711
 30
0.0
 11
396.5465153915975
 21
254.5075295619711
 31
0.0
  0
LINE
  5
8E7D
  8
3
 10
396.45632392438398
 20
254.5075295619711
 30
0.0
 11
396.49841327575018
 21
254.5075295619711
 31
0.0
  0
LINE
  5
8E7E
  8
3
 10
396.5465153915975
 20
254.5075295619711
 30
0.0
 11
396.58860474296392
 21
254.5075295619711
 31
0.0
  0
LINE
  5
8E7F
  8
3
 10
396.36613245717029
 20
254.5075295619711
 30
0.0
 11
396.40822180853661
 21
254.5075295619711
 31
0.0
  0
LINE
  5
8E80
  8
3
 10
396.31803034132298
 20
254.5015167974901
 30
0.0
 11
396.36613245717029
 21
254.5075295619711
 31
0.0
  0
LINE
  5
8E81
  8
3
 10
396.27594098995672
 20
254.5015167974901
 30
0.0
 11
396.31803034132298
 21
254.5015167974901
 31
0.0
  0
LINE
  5
8E82
  8
3
 10
396.23385163859052
 20
254.49550403300921
 30
0.0
 11
396.27594098995672
 21
254.5015167974901
 31
0.0
  0
LINE
  5
8E83
  8
3
 10
396.19176228722421
 20
254.4834785040475
 30
0.0
 11
396.23385163859052
 21
254.49550403300921
 31
0.0
  0
LINE
  5
8E84
  8
3
 10
396.14967293585778
 20
254.4774657395665
 30
0.0
 11
396.19176228722421
 21
254.4834785040475
 31
0.0
  0
LINE
  5
8E85
  8
3
 10
395.90916235662161
 20
254.59772102918461
 30
0.0
 11
395.92720065006421
 21
254.5075295619711
 31
0.0
  0
LINE
  5
8E86
  8
3
 10
395.93922617902598
 20
254.4173380947575
 30
0.0
 11
395.93922617902598
 21
254.32113386306301
 31
0.0
  0
LINE
  5
8E87
  8
3
 10
395.93922617902598
 20
254.32113386306301
 30
0.0
 11
395.93922617902598
 21
254.2249296313685
 31
0.0
  0
LINE
  5
8E88
  8
3
 10
395.92720065006421
 20
254.5075295619711
 30
0.0
 11
395.93922617902598
 21
254.4173380947575
 31
0.0
  0
LINE
  5
8E89
  8
3
 10
396.58860474296392
 20
254.5075295619711
 30
0.0
 11
396.63670685881112
 21
254.5075295619711
 31
0.0
  0
LINE
  5
8E8A
  8
3
 10
397.1598173686499
 20
254.56164444229921
 30
0.0
 11
397.15380460416901
 21
254.64582314503181
 31
0.0
  0
LINE
  5
8E8B
  8
3
 10
397.45444282821433
 20
254.88032095978721
 30
0.0
 11
397.22595777793993
 21
254.82620607945901
 31
0.0
  0
LINE
  5
8E8C
  8
3
 10
397.3341875385961
 20
254.7179763188027
 30
0.0
 11
397.3822896544433
 21
254.71196355432181
 31
0.0
  0
LINE
  5
8E8D
  8
3
 10
398.2240766817701
 20
253.9723935231705
 30
0.0
 11
398.23008944625087
 21
253.86416376251421
 31
0.0
  0
LINE
  5
8E8E
  8
3
 10
398.23008944625087
 20
253.86416376251421
 30
0.0
 11
398.23008944625087
 21
253.76194676633881
 31
0.0
  0
LINE
  5
8E8F
  8
3
 10
398.2240766817701
 20
254.08062328382681
 30
0.0
 11
398.2240766817701
 21
253.9723935231705
 31
0.0
  0
LINE
  5
8E90
  8
3
 10
398.2240766817701
 20
253.65371700568249
 30
0.0
 11
398.21806391728921
 21
253.54548724502621
 31
0.0
  0
LINE
  5
8E91
  8
3
 10
398.21205115280827
 20
253.43725748436989
 30
0.0
 11
398.20002562384639
 21
253.33504048819449
 31
0.0
  0
LINE
  5
8E92
  8
3
 10
398.21806391728921
 20
253.54548724502621
 30
0.0
 11
398.21205115280827
 21
253.43725748436989
 31
0.0
  0
LINE
  5
8E93
  8
3
 10
398.23008944625087
 20
253.76194676633881
 30
0.0
 11
398.2240766817701
 21
253.65371700568249
 31
0.0
  0
LINE
  5
8E94
  8
3
 10
396.86519190908541
 20
254.00245734557501
 30
0.0
 11
396.86519190908541
 21
253.9122658783615
 31
0.0
  0
LINE
  5
8E95
  8
3
 10
397.18386842657338
 20
253.8822020559569
 30
0.0
 11
397.18386842657338
 21
254.0084701100559
 31
0.0
  0
LINE
  5
8E96
  8
3
 10
397.17785566209261
 20
253.7559340018579
 30
0.0
 11
397.18386842657338
 21
253.8822020559569
 31
0.0
  0
LINE
  5
8E97
  8
3
 10
396.86519190908541
 20
253.8220744111479
 30
0.0
 11
396.86519190908541
 21
253.73188294393429
 31
0.0
  0
LINE
  5
8E98
  8
3
 10
396.86519190908541
 20
253.9122658783615
 30
0.0
 11
396.86519190908541
 21
253.8220744111479
 31
0.0
  0
LINE
  5
8E99
  8
3
 10
397.18386842657338
 20
254.0084701100559
 30
0.0
 11
397.18386842657338
 21
254.1287253996741
 31
0.0
  0
LINE
  5
8E9A
  8
3
 10
396.86519190908541
 20
254.09264881278861
 30
0.0
 11
396.86519190908541
 21
254.00245734557501
 31
0.0
  0
LINE
  5
8E9B
  8
3
 10
395.92720065006421
 20
253.93631693628501
 30
0.0
 11
395.92118788558338
 21
253.8340999401097
 31
0.0
  0
LINE
  5
8E9C
  8
3
 10
395.92118788558338
 20
253.8340999401097
 30
0.0
 11
395.92118788558338
 21
253.73789570841521
 31
0.0
  0
LINE
  5
8E9D
  8
3
 10
395.93321341454521
 20
254.1287253996741
 30
0.0
 11
395.93321341454521
 21
254.0325211679795
 31
0.0
  0
LINE
  5
8E9E
  8
3
 10
395.93321341454521
 20
254.0325211679795
 30
0.0
 11
395.92720065006421
 21
253.93631693628501
 31
0.0
  0
LINE
  5
8E9F
  8
3
 10
397.0756386659171
 20
253.29295113682821
 30
0.0
 11
397.11772801728353
 21
253.40118089748449
 31
0.0
  0
LINE
  5
8EA0
  8
3
 10
397.11772801728353
 20
253.40118089748449
 30
0.0
 11
397.14177907520701
 21
253.51542342262169
 31
0.0
  0
LINE
  5
8EA1
  8
3
 10
397.14177907520701
 20
253.51542342262169
 30
0.0
 11
397.16583013313073
 21
253.63567871223981
 31
0.0
  0
LINE
  5
8EA2
  8
3
 10
396.85917914460458
 20
253.64169147672069
 30
0.0
 11
396.85917914460458
 21
253.55150000950709
 31
0.0
  0
LINE
  5
8EA3
  8
3
 10
396.85917914460458
 20
253.55150000950709
 30
0.0
 11
396.85917914460458
 21
253.46130854229349
 31
0.0
  0
LINE
  5
8EA4
  8
3
 10
396.85917914460458
 20
253.37712983956081
 30
0.0
 11
396.85917914460458
 21
253.28693837234729
 31
0.0
  0
LINE
  5
8EA5
  8
3
 10
396.85917914460458
 20
253.46130854229349
 30
0.0
 11
396.85917914460458
 21
253.37712983956081
 31
0.0
  0
LINE
  5
8EA6
  8
3
 10
395.96929000143069
 20
253.37712983956081
 30
0.0
 11
396.00536658831601
 21
253.29295113682821
 31
0.0
  0
LINE
  5
8EA7
  8
3
 10
395.94523894350698
 20
253.46130854229349
 30
0.0
 11
395.96929000143069
 21
253.37712983956081
 31
0.0
  0
LINE
  5
8EA8
  8
3
 10
395.92118788558338
 20
253.64770424120161
 30
0.0
 11
395.93321341454521
 21
253.55150000950709
 31
0.0
  0
LINE
  5
8EA9
  8
3
 10
395.93321341454521
 20
253.55150000950709
 30
0.0
 11
395.94523894350698
 21
253.46130854229349
 31
0.0
  0
LINE
  5
8EAA
  8
3
 10
397.16583013313073
 20
253.63567871223981
 30
0.0
 11
397.17785566209261
 21
253.7559340018579
 31
0.0
  0
LINE
  5
8EAB
  8
3
 10
396.86519190908541
 20
253.73188294393429
 30
0.0
 11
396.85917914460458
 21
253.64169147672069
 31
0.0
  0
LINE
  5
8EAC
  8
3
 10
395.92118788558338
 20
253.73789570841521
 30
0.0
 11
395.92118788558338
 21
253.64770424120161
 31
0.0
  0
LINE
  5
8EAD
  8
3
 10
398.21806391728921
 20
254.18885304448301
 30
0.0
 11
398.2240766817701
 21
254.08062328382681
 31
0.0
  0
LINE
  5
8EAE
  8
3
 10
397.18386842657338
 20
254.1287253996741
 30
0.0
 11
397.17785566209261
 21
254.2489806892921
 31
0.0
  0
LINE
  5
8EAF
  8
3
 10
396.86519190908541
 20
254.17682751552121
 30
0.0
 11
396.86519190908541
 21
254.09264881278861
 31
0.0
  0
LINE
  5
8EB0
  8
3
 10
395.93922617902598
 20
254.2249296313685
 30
0.0
 11
395.93321341454521
 21
254.1287253996741
 31
0.0
  0
LINE
  5
8EB1
  8
3
 10
395.79491983148421
 20
254.7600656701691
 30
0.0
 11
395.52434542984372
 21
254.7720911991309
 31
0.0
  0
LINE
  5
8EB2
  8
3
 10
395.52434542984372
 20
254.7720911991309
 30
0.0
 11
395.23573273476018
 21
254.77810396361181
 31
0.0
  0
LINE
  5
8EB3
  8
3
 10
395.23573273476018
 20
254.77810396361181
 30
0.0
 11
395.08541362273758
 21
254.7811103458522
 31
0.0
  0
LINE
  5
8EB4
  8
3
 10
394.87496686590589
 20
253.49738512917889
 30
0.0
 11
394.87496686590589
 21
253.49738512917889
 31
0.0
  0
LINE
  5
8EB5
  8
3
 10
394.88097963038678
 20
253.40719366196541
 30
0.0
 11
394.88097963038678
 21
253.43725748436989
 31
0.0
  0
LINE
  5
8EB6
  8
3
 10
394.88699239486772
 20
253.37712983956081
 30
0.0
 11
394.88097963038678
 21
253.40719366196541
 31
0.0
  0
LINE
  5
8EB7
  8
3
 10
394.8930051593486
 20
253.35307878163721
 30
0.0
 11
394.88699239486772
 21
253.37712983956081
 31
0.0
  0
LINE
  5
8EB8
  8
3
 10
394.8930051593486
 20
253.32301495923269
 30
0.0
 11
394.8930051593486
 21
253.35307878163721
 31
0.0
  0
LINE
  5
8EB9
  8
3
 10
394.89901792382938
 20
253.29295113682821
 30
0.0
 11
394.8930051593486
 21
253.32301495923269
 31
0.0
  0
LINE
  5
8EBA
  8
3
 10
394.90503068831038
 20
253.26288731442369
 30
0.0
 11
394.89901792382938
 21
253.29295113682821
 31
0.0
  0
LINE
  5
8EBB
  8
3
 10
394.88097963038678
 20
253.43725748436989
 30
0.0
 11
394.87496686590589
 21
253.49738512917889
 31
0.0
  0
LINE
  5
8EBC
  8
3
 10
394.87496686590589
 20
253.49738512917889
 30
0.0
 11
394.868954101425
 21
254.60974655814641
 31
0.0
  0
LINE
  5
8EBD
  8
3
 10
394.868954101425
 20
254.60974655814641
 30
0.0
 11
395.90916235662161
 21
254.59772102918461
 31
0.0
  0
LINE
  5
8EBE
  8
3
 10
396.04745593968249
 20
254.75405290568821
 30
0.0
 11
395.79491983148421
 21
254.7600656701691
 31
0.0
  0
LINE
  5
8EBF
  8
3
 10
398.15793627248019
 20
255.1508953614279
 30
0.0
 11
397.9174256932439
 21
255.0366528362907
 31
0.0
  0
LINE
  5
8EC0
  8
3
 10
398.18198733040367
 20
253.23282349201921
 30
0.0
 11
398.15793627248019
 21
253.13060649584381
 31
0.0
  0
LINE
  5
8EC1
  8
3
 10
398.15793627248019
 20
253.13060649584381
 30
0.0
 11
398.13388521455659
 21
253.02838949966829
 31
0.0
  0
LINE
  5
8EC2
  8
3
 10
398.09780862767099
 20
252.93218526797389
 30
0.0
 11
398.06173204078573
 21
252.84199380076029
 31
0.0
  0
LINE
  5
8EC3
  8
3
 10
398.13388521455659
 20
253.02838949966829
 30
0.0
 11
398.09780862767099
 21
252.93218526797389
 31
0.0
  0
LINE
  5
8EC4
  8
3
 10
397.7971704036259
 20
252.44515134502049
 30
0.0
 11
397.7671065812213
 21
252.41508752261601
 31
0.0
  0
LINE
  5
8EC5
  8
3
 10
397.7430555232977
 20
252.38502370021149
 30
0.0
 11
397.71299170089321
 21
252.354959877807
 31
0.0
  0
LINE
  5
8EC6
  8
3
 10
397.7671065812213
 20
252.41508752261601
 30
0.0
 11
397.7430555232977
 21
252.38502370021149
 31
0.0
  0
LINE
  5
8EC7
  8
3
 10
397.82122146154938
 20
252.47521516742509
 30
0.0
 11
397.7971704036259
 21
252.44515134502049
 31
0.0
  0
LINE
  5
8EC8
  8
3
 10
397.9174256932439
 20
252.60148322152409
 30
0.0
 11
397.8993873998013
 21
252.57141939911961
 31
0.0
  0
LINE
  5
8EC9
  8
3
 10
397.94147675116761
 20
252.63154704392861
 30
0.0
 11
397.9174256932439
 21
252.60148322152409
 31
0.0
  0
LINE
  5
8ECA
  8
3
 10
397.95951504461033
 20
252.66762363081401
 30
0.0
 11
397.94147675116761
 21
252.63154704392861
 31
0.0
  0
LINE
  5
8ECB
  8
3
 10
397.87533634187753
 20
252.53534281223409
 30
0.0
 11
397.84527251947299
 21
252.50527898982961
 31
0.0
  0
LINE
  5
8ECC
  8
3
 10
397.84527251947299
 20
252.50527898982961
 30
0.0
 11
397.82122146154938
 21
252.47521516742509
 31
0.0
  0
LINE
  5
8ECD
  8
3
 10
397.8993873998013
 20
252.57141939911961
 30
0.0
 11
397.87533634187753
 21
252.53534281223409
 31
0.0
  0
LINE
  5
8ECE
  8
3
 10
398.06173204078573
 20
252.84199380076029
 30
0.0
 11
397.95951504461033
 21
252.66762363081401
 31
0.0
  0
LINE
  5
8ECF
  8
3
 10
396.90126849597101
 20
253.08250437999649
 30
0.0
 11
396.9072812604519
 21
253.08250437999649
 31
0.0
  0
LINE
  5
8ED0
  8
3
 10
396.96740890526092
 20
253.11858096688189
 30
0.0
 11
397.0275365500699
 21
253.19674690513381
 31
0.0
  0
LINE
  5
8ED1
  8
3
 10
396.96139614077993
 20
253.10655543792021
 30
0.0
 11
396.96740890526092
 21
253.11858096688189
 31
0.0
  0
LINE
  5
8ED2
  8
3
 10
396.95538337629898
 20
253.10655543792021
 30
0.0
 11
396.96139614077993
 21
253.10655543792021
 31
0.0
  0
LINE
  5
8ED3
  8
3
 10
396.94335784733732
 20
253.10054267343921
 30
0.0
 11
396.95538337629898
 21
253.10655543792021
 31
0.0
  0
LINE
  5
8ED4
  8
3
 10
396.93734508285638
 20
253.09452990895829
 30
0.0
 11
396.94335784733732
 21
253.10054267343921
 31
0.0
  0
LINE
  5
8ED5
  8
3
 10
396.93133231837538
 20
253.09452990895829
 30
0.0
 11
396.93734508285638
 21
253.09452990895829
 31
0.0
  0
LINE
  5
8ED6
  8
3
 10
396.92531955389461
 20
253.08851714447749
 30
0.0
 11
396.93133231837538
 21
253.09452990895829
 31
0.0
  0
LINE
  5
8ED7
  8
3
 10
396.91329402493278
 20
253.08851714447749
 30
0.0
 11
396.92531955389461
 21
253.08851714447749
 31
0.0
  0
LINE
  5
8ED8
  8
3
 10
396.9072812604519
 20
253.08250437999649
 30
0.0
 11
396.91329402493278
 21
253.08851714447749
 31
0.0
  0
LINE
  5
8ED9
  8
3
 10
396.89525573149001
 20
253.08250437999649
 30
0.0
 11
396.90126849597101
 21
253.08250437999649
 31
0.0
  0
LINE
  5
8EDA
  8
3
 10
396.88323020252813
 20
253.08851714447749
 30
0.0
 11
396.89525573149001
 21
253.08250437999649
 31
0.0
  0
LINE
  5
8EDB
  8
3
 10
396.87721743804741
 20
253.08851714447749
 30
0.0
 11
396.88323020252813
 21
253.08851714447749
 31
0.0
  0
LINE
  5
8EDC
  8
3
 10
396.87721743804741
 20
253.09452990895829
 30
0.0
 11
396.87721743804741
 21
253.08851714447749
 31
0.0
  0
LINE
  5
8EDD
  8
3
 10
396.87120467356652
 20
253.10655543792021
 30
0.0
 11
396.87721743804741
 21
253.09452990895829
 31
0.0
  0
LINE
  5
8EDE
  8
3
 10
396.86519190908541
 20
253.11858096688189
 30
0.0
 11
396.87120467356652
 21
253.10655543792021
 31
0.0
  0
LINE
  5
8EDF
  8
3
 10
396.14366017137678
 20
253.15465755376741
 30
0.0
 11
396.14366017137678
 21
253.16067031824829
 31
0.0
  0
LINE
  5
8EE0
  8
3
 10
396.13764740689601
 20
253.15465755376741
 30
0.0
 11
396.14366017137678
 21
253.15465755376741
 31
0.0
  0
LINE
  5
8EE1
  8
3
 10
396.13764740689601
 20
253.14864478928649
 30
0.0
 11
396.13764740689601
 21
253.15465755376741
 31
0.0
  0
LINE
  5
8EE2
  8
3
 10
396.13163464241512
 20
253.14864478928649
 30
0.0
 11
396.13764740689601
 21
253.14864478928649
 31
0.0
  0
LINE
  5
8EE3
  8
3
 10
396.12562187793412
 20
253.14864478928649
 30
0.0
 11
396.13163464241512
 21
253.14864478928649
 31
0.0
  0
LINE
  5
8EE4
  8
3
 10
396.11960911345318
 20
253.14864478928649
 30
0.0
 11
396.12562187793412
 21
253.14864478928649
 31
0.0
  0
LINE
  5
8EE5
  8
3
 10
396.11359634897229
 20
253.14864478928649
 30
0.0
 11
396.11960911345318
 21
253.14864478928649
 31
0.0
  0
LINE
  5
8EE6
  8
3
 10
396.10758358449152
 20
253.14864478928649
 30
0.0
 11
396.11359634897229
 21
253.14864478928649
 31
0.0
  0
LINE
  5
8EE7
  8
3
 10
397.65286405608413
 20
252.3008449974788
 30
0.0
 11
397.62280023367958
 21
252.2767939395552
 31
0.0
  0
LINE
  5
8EE8
  8
3
 10
397.3822896544433
 20
252.10843653408989
 30
0.0
 11
397.37026412548153
 21
252.102423769609
 31
0.0
  0
LINE
  5
8EE9
  8
3
 10
397.4123534768479
 20
252.1264748275326
 30
0.0
 11
397.40032794788613
 21
252.1144492985708
 31
0.0
  0
LINE
  5
8EEA
  8
3
 10
397.4303917702905
 20
252.13248759201349
 30
0.0
 11
397.4123534768479
 21
252.1264748275326
 31
0.0
  0
LINE
  5
8EEB
  8
3
 10
397.44843006373321
 20
252.1385003564944
 30
0.0
 11
397.4303917702905
 21
252.13248759201349
 31
0.0
  0
LINE
  5
8EEC
  8
3
 10
397.4604555926951
 20
252.15052588545629
 30
0.0
 11
397.44843006373321
 21
252.1385003564944
 31
0.0
  0
LINE
  5
8EED
  8
3
 10
397.47248112165693
 20
252.15653864993709
 30
0.0
 11
397.4604555926951
 21
252.15052588545629
 31
0.0
  0
LINE
  5
8EEE
  8
3
 10
397.4845066506187
 20
252.16856417889889
 30
0.0
 11
397.47248112165693
 21
252.15653864993709
 31
0.0
  0
LINE
  5
8EEF
  8
3
 10
397.50254494406153
 20
252.18058970786069
 30
0.0
 11
397.4845066506187
 21
252.16856417889889
 31
0.0
  0
LINE
  5
8EF0
  8
3
 10
397.5085577085423
 20
252.1866024723416
 30
0.0
 11
397.50254494406153
 21
252.18058970786069
 31
0.0
  0
LINE
  5
8EF1
  8
3
 10
397.52058323750418
 20
252.1986280013034
 30
0.0
 11
397.5085577085423
 21
252.1866024723416
 31
0.0
  0
LINE
  5
8EF2
  8
3
 10
397.52659600198513
 20
252.2166662947462
 30
0.0
 11
397.52058323750418
 21
252.1986280013034
 31
0.0
  0
LINE
  5
8EF3
  8
3
 10
397.5927364112751
 20
252.2527428816316
 30
0.0
 11
397.52659600198513
 21
252.2166662947462
 31
0.0
  0
LINE
  5
8EF4
  8
3
 10
397.62280023367958
 20
252.2767939395552
 30
0.0
 11
397.5927364112751
 21
252.2527428816316
 31
0.0
  0
LINE
  5
8EF5
  8
3
 10
397.40032794788613
 20
252.1144492985708
 30
0.0
 11
397.3822896544433
 21
252.10843653408989
 31
0.0
  0
LINE
  5
8EF6
  8
3
 10
397.68292787848861
 20
252.32489605540241
 30
0.0
 11
397.65286405608413
 21
252.3008449974788
 31
0.0
  0
LINE
  5
8EF7
  8
3
 10
396.94335784733732
 20
251.92805359966269
 30
0.0
 11
396.84114085116192
 21
251.91001530622
 31
0.0
  0
LINE
  5
8EF8
  8
3
 10
397.3101364806725
 20
252.0663471827236
 30
0.0
 11
397.21994501345893
 21
252.01824506687629
 31
0.0
  0
LINE
  5
8EF9
  8
3
 10
397.35222583203881
 20
252.09039824064709
 30
0.0
 11
397.34020030307698
 21
252.08438547616629
 31
0.0
  0
LINE
  5
8EFA
  8
3
 10
397.34020030307698
 20
252.08438547616629
 30
0.0
 11
397.3101364806725
 21
252.0663471827236
 31
0.0
  0
LINE
  5
8EFB
  8
3
 10
397.1297535462453
 20
251.98216847999089
 30
0.0
 11
397.03354931455078
 21
251.9521046575864
 31
0.0
  0
LINE
  5
8EFC
  8
3
 10
397.21994501345893
 20
252.01824506687629
 30
0.0
 11
397.1297535462453
 21
251.98216847999089
 31
0.0
  0
LINE
  5
8EFD
  8
3
 10
397.03354931455078
 20
251.9521046575864
 30
0.0
 11
396.94335784733732
 21
251.92805359966269
 31
0.0
  0
LINE
  5
8EFE
  8
3
 10
396.7449366194673
 20
251.89197701277729
 30
0.0
 11
396.64873238777278
 21
251.8859642482964
 31
0.0
  0
LINE
  5
8EFF
  8
3
 10
396.84114085116192
 20
251.91001530622
 30
0.0
 11
396.7449366194673
 21
251.89197701277729
 31
0.0
  0
LINE
  5
8F00
  8
3
 10
396.45031115990298
 20
251.8859642482964
 30
0.0
 11
396.35410692820858
 21
251.8979897772582
 31
0.0
  0
LINE
  5
8F01
  8
3
 10
396.5465153915975
 20
251.8859642482964
 30
0.0
 11
396.45031115990298
 21
251.8859642482964
 31
0.0
  0
LINE
  5
8F02
  8
3
 10
396.06549423312521
 20
251.9581174220672
 30
0.0
 11
395.96929000143069
 21
251.9881812444718
 31
0.0
  0
LINE
  5
8F03
  8
3
 10
396.25790269651412
 20
251.91001530622
 30
0.0
 11
396.15568570033872
 21
251.9340663641436
 31
0.0
  0
LINE
  5
8F04
  8
3
 10
396.35410692820858
 20
251.8979897772582
 30
0.0
 11
396.25790269651412
 21
251.91001530622
 31
0.0
  0
LINE
  5
8F05
  8
3
 10
396.15568570033872
 20
251.9340663641436
 30
0.0
 11
396.06549423312521
 21
251.9581174220672
 31
0.0
  0
LINE
  5
8F06
  8
3
 10
396.64873238777278
 20
251.8859642482964
 30
0.0
 11
396.5465153915975
 21
251.8859642482964
 31
0.0
  0
LINE
  5
8F07
  8
3
 10
397.37026412548153
 20
252.102423769609
 30
0.0
 11
397.35222583203881
 21
252.09039824064709
 31
0.0
  0
LINE
  5
8F08
  8
3
 10
397.71299170089321
 20
252.354959877807
 30
0.0
 11
397.68292787848861
 21
252.32489605540241
 31
0.0
  0
LINE
  5
8F09
  8
3
 10
394.9170562172722
 20
253.16668308272921
 30
0.0
 11
394.9110434527912
 21
253.20275966961461
 31
0.0
  0
LINE
  5
8F0A
  8
3
 10
394.92306898175309
 20
253.13661926032469
 30
0.0
 11
394.9170562172722
 21
253.16668308272921
 31
0.0
  0
LINE
  5
8F0B
  8
3
 10
394.92908174623398
 20
253.10655543792021
 30
0.0
 11
394.92306898175309
 21
253.13661926032469
 31
0.0
  0
LINE
  5
8F0C
  8
3
 10
394.93509451071492
 20
253.07649161551561
 30
0.0
 11
394.92908174623398
 21
253.10655543792021
 31
0.0
  0
LINE
  5
8F0D
  8
3
 10
394.94110727519569
 20
253.04642779311109
 30
0.0
 11
394.93509451071492
 21
253.07649161551561
 31
0.0
  0
LINE
  5
8F0E
  8
3
 10
394.9471200396768
 20
253.01636397070649
 30
0.0
 11
394.94110727519569
 21
253.04642779311109
 31
0.0
  0
LINE
  5
8F0F
  8
3
 10
394.9711710976004
 20
252.98028738382109
 30
0.0
 11
394.9471200396768
 21
253.01636397070649
 31
0.0
  0
LINE
  5
8F10
  8
3
 10
394.98319662656218
 20
252.96224909037841
 30
0.0
 11
394.9711710976004
 21
252.98028738382109
 31
0.0
  0
LINE
  5
8F11
  8
3
 10
394.99522215552389
 20
252.94421079693569
 30
0.0
 11
394.98319662656218
 21
252.96224909037841
 31
0.0
  0
LINE
  5
8F12
  8
3
 10
395.00123492000489
 20
252.92617250349301
 30
0.0
 11
394.99522215552389
 21
252.94421079693569
 31
0.0
  0
LINE
  5
8F13
  8
3
 10
395.01326044896672
 20
252.90813421005021
 30
0.0
 11
395.00123492000489
 21
252.92617250349301
 31
0.0
  0
LINE
  5
8F14
  8
3
 10
395.0192732134476
 20
252.88408315212669
 30
0.0
 11
395.01326044896672
 21
252.90813421005021
 31
0.0
  0
LINE
  5
8F15
  8
3
 10
395.02528597792849
 20
252.86604485868389
 30
0.0
 11
395.0192732134476
 21
252.88408315212669
 31
0.0
  0
LINE
  5
8F16
  8
3
 10
395.0433242713712
 20
252.82996827179849
 30
0.0
 11
395.03731150689032
 21
252.84800656524121
 31
0.0
  0
LINE
  5
8F17
  8
3
 10
395.05534980033292
 20
252.81192997835581
 30
0.0
 11
395.0433242713712
 21
252.82996827179849
 31
0.0
  0
LINE
  5
8F18
  8
3
 10
395.03731150689032
 20
252.84800656524121
 30
0.0
 11
395.02528597792849
 21
252.86604485868389
 31
0.0
  0
LINE
  5
8F19
  8
3
 10
394.9110434527912
 20
253.20275966961461
 30
0.0
 11
394.90503068831038
 21
253.23282349201921
 31
0.0
  0
LINE
  5
8F1A
  8
3
 10
395.10345191618018
 20
252.71572574666129
 30
0.0
 11
395.09743915169929
 21
252.73376404010401
 31
0.0
  0
LINE
  5
8F1B
  8
3
 10
395.12750297410389
 20
252.66762363081401
 30
0.0
 11
395.10345191618018
 21
252.71572574666129
 31
0.0
  0
LINE
  5
8F1C
  8
3
 10
395.14554126754672
 20
252.64958533737129
 30
0.0
 11
395.12750297410389
 21
252.66762363081401
 31
0.0
  0
LINE
  5
8F1D
  8
3
 10
395.15756679650838
 20
252.62553427944769
 30
0.0
 11
395.14554126754672
 21
252.64958533737129
 31
0.0
  0
LINE
  5
8F1E
  8
3
 10
395.16959232547032
 20
252.60749598600501
 30
0.0
 11
395.15756679650838
 21
252.62553427944769
 31
0.0
  0
LINE
  5
8F1F
  8
3
 10
395.18161785443198
 20
252.58945769256229
 30
0.0
 11
395.16959232547032
 21
252.60749598600501
 31
0.0
  0
LINE
  5
8F20
  8
3
 10
395.19364338339392
 20
252.57141939911961
 30
0.0
 11
395.18161785443198
 21
252.58945769256229
 31
0.0
  0
LINE
  5
8F21
  8
3
 10
395.22370720579829
 20
252.54135557671501
 30
0.0
 11
395.21168167683652
 21
252.55939387015781
 31
0.0
  0
LINE
  5
8F22
  8
3
 10
395.23573273476018
 20
252.52331728327229
 30
0.0
 11
395.22370720579829
 21
252.54135557671501
 31
0.0
  0
LINE
  5
8F23
  8
3
 10
395.25377102820278
 20
252.50527898982961
 30
0.0
 11
395.23573273476018
 21
252.52331728327229
 31
0.0
  0
LINE
  5
8F24
  8
3
 10
395.26579655716461
 20
252.48724069638689
 30
0.0
 11
395.25377102820278
 21
252.50527898982961
 31
0.0
  0
LINE
  5
8F25
  8
3
 10
395.28984761508832
 20
252.45717687398241
 30
0.0
 11
395.27782208612649
 21
252.47521516742509
 31
0.0
  0
LINE
  5
8F26
  8
3
 10
395.30187314405009
 20
252.43913858053969
 30
0.0
 11
395.28984761508832
 21
252.45717687398241
 31
0.0
  0
LINE
  5
8F27
  8
3
 10
395.31389867301181
 20
252.42110028709689
 30
0.0
 11
395.30187314405009
 21
252.43913858053969
 31
0.0
  0
LINE
  5
8F28
  8
3
 10
395.27782208612649
 20
252.47521516742509
 30
0.0
 11
395.26579655716461
 21
252.48724069638689
 31
0.0
  0
LINE
  5
8F29
  8
3
 10
395.21168167683652
 20
252.55939387015781
 30
0.0
 11
395.19364338339392
 21
252.57141939911961
 31
0.0
  0
LINE
  5
8F2A
  8
3
 10
395.08541362273752
 20
252.75180233354669
 30
0.0
 11
395.07338809377569
 21
252.76984062698949
 31
0.0
  0
LINE
  5
8F2B
  8
3
 10
395.07338809377569
 20
252.76984062698949
 30
0.0
 11
395.06136256481409
 21
252.78787892043221
 31
0.0
  0
LINE
  5
8F2C
  8
3
 10
395.09743915169929
 20
252.73376404010401
 30
0.0
 11
395.08541362273752
 21
252.75180233354669
 31
0.0
  0
LINE
  5
8F2D
  8
3
 10
395.06136256481409
 20
252.78787892043221
 30
0.0
 11
395.05534980033292
 21
252.81192997835581
 31
0.0
  0
LINE
  5
8F2E
  8
3
 10
395.54839648776721
 20
252.22267905922709
 30
0.0
 11
395.50630713640078
 21
252.24673011715069
 31
0.0
  0
LINE
  5
8F2F
  8
3
 10
395.56643478121009
 20
252.2166662947462
 30
0.0
 11
395.54839648776721
 21
252.22267905922709
 31
0.0
  0
LINE
  5
8F30
  8
3
 10
395.57846031017169
 20
252.20464076578429
 30
0.0
 11
395.56643478121009
 21
252.2166662947462
 31
0.0
  0
LINE
  5
8F31
  8
3
 10
395.59649860361441
 20
252.19261523682249
 30
0.0
 11
395.57846031017169
 21
252.20464076578429
 31
0.0
  0
LINE
  5
8F32
  8
3
 10
395.61453689705729
 20
252.18058970786069
 30
0.0
 11
395.59649860361441
 21
252.19261523682249
 31
0.0
  0
LINE
  5
8F33
  8
3
 10
395.62656242601901
 20
252.1745769433798
 30
0.0
 11
395.61453689705729
 21
252.18058970786069
 31
0.0
  0
LINE
  5
8F34
  8
3
 10
395.64460071946178
 20
252.162551414418
 30
0.0
 11
395.62656242601901
 21
252.1745769433798
 31
0.0
  0
LINE
  5
8F35
  8
3
 10
395.66263901290449
 20
252.15052588545629
 30
0.0
 11
395.64460071946178
 21
252.162551414418
 31
0.0
  0
LINE
  5
8F36
  8
3
 10
395.68067730634709
 20
252.1385003564944
 30
0.0
 11
395.66263901290449
 21
252.15052588545629
 31
0.0
  0
LINE
  5
8F37
  8
3
 10
395.69270283530881
 20
252.1264748275326
 30
0.0
 11
395.68067730634709
 21
252.1385003564944
 31
0.0
  0
LINE
  5
8F38
  8
3
 10
395.71074112875181
 20
252.1144492985708
 30
0.0
 11
395.69270283530881
 21
252.1264748275326
 31
0.0
  0
LINE
  5
8F39
  8
3
 10
395.76485600907989
 20
252.0783727116854
 30
0.0
 11
395.74681771563712
 21
252.09039824064709
 31
0.0
  0
LINE
  5
8F3A
  8
3
 10
395.78289430252261
 20
252.0663471827236
 30
0.0
 11
395.76485600907989
 21
252.0783727116854
 31
0.0
  0
LINE
  5
8F3B
  8
3
 10
395.74681771563712
 20
252.09039824064709
 30
0.0
 11
395.72877942219441
 21
252.102423769609
 31
0.0
  0
LINE
  5
8F3C
  8
3
 10
395.72877942219441
 20
252.102423769609
 30
0.0
 11
395.71074112875181
 21
252.1144492985708
 31
0.0
  0
LINE
  5
8F3D
  8
3
 10
395.50630713640078
 20
252.24673011715069
 30
0.0
 11
395.31389867301181
 21
252.42110028709689
 31
0.0
  0
LINE
  5
8F3E
  8
3
 10
395.96929000143069
 20
251.9881812444718
 30
0.0
 11
395.78289430252261
 21
252.0663471827236
 31
0.0
  0
LINE
  5
8F3F
  8
3
 10
398.20002562384639
 20
253.33504048819449
 30
0.0
 11
398.18198733040367
 21
253.23282349201921
 31
0.0
  0
LINE
  5
8F40
  8
3
 10
397.0275365500699
 20
253.19674690513381
 30
0.0
 11
397.0756386659171
 21
253.29295113682821
 31
0.0
  0
LINE
  5
8F41
  8
3
 10
396.85917914460458
 20
253.28693837234729
 30
0.0
 11
396.86519190908541
 21
253.11858096688189
 31
0.0
  0
LINE
  5
8F42
  8
3
 10
396.14366017137678
 20
253.16067031824829
 30
0.0
 11
396.14967293585778
 21
254.4774657395665
 31
0.0
  0
LINE
  5
8F43
  8
3
 10
396.00536658831601
 20
253.29295113682821
 30
0.0
 11
396.10758358449152
 21
253.14864478928649
 31
0.0
  0
LINE
  5
8F44
  8
3
 10
394.90503068831038
 20
253.23282349201921
 30
0.0
 11
394.90503068831038
 21
253.26288731442369
 31
0.0
  0
LINE
  5
8F45
  8
3
 10
398.06173204078573
 20
256.91263535433308
 30
0.0
 11
398.04369374734279
 21
256.88257153192859
 31
0.0
  0
LINE
  5
8F46
  8
3
 10
395.15155403202738
 20
256.88257153192859
 30
0.0
 11
395.11547744514218
 21
256.96073747018028
 31
0.0
  0
ARC
  5
8F47
  8
0
 10
401.77962993004002
 20
303.65590977094502
 30
0.0
 40
2.5
 50
0.0
 51
90.000000000000028
1001
GENIUS_GENODEF_13
1002
{
1000
HIER
1070
     0
1002
}
1002
{
1000
MANEDIT
1070
     0
1002
}
1002
{
1000
NOSEL
1070
     0
1002
}
1002
{
1000
BEHIND
1070
     0
1002
}
1002
{
1000
REACTOR
1002
}
1001
GENIUS_GENOBJ-N-FIL_13
1002
{
1000
OWNER
1000
GEN
1002
}
  0
LINE
  5
8F49
  8
0
 10
132.4146969417412
 20
119.2294468651744
 30
0.0
 11
216.9146540895465
 21
119.2294468651743
 31
0.0
  0
LINE
  5
8F4A
  8
0
 10
126.4146969417412
 20
98.729446865174452
 30
0.0
 11
222.9146540895465
 21
98.729446865174395
 31
0.0
  0
ARC
  5
8F4B
  8
0
 10
164.72590525264721
 20
131.729446865174
 30
0.0
 40
2.0
 50
90.000000000000355
 51
180.0
1001
GENIUS_GENODEF_13
1002
{
1000
HIER
1070
     0
1002
}
1002
{
1000
MANEDIT
1070
     0
1002
}
1002
{
1000
NOSEL
1070
     0
1002
}
1002
{
1000
BEHIND
1070
     0
1002
}
1002
{
1000
REACTOR
1002
}
1001
GENIUS_GENOBJ-N-FIL_13
1002
{
1000
OWNER
1000
GEN
1002
}
  0
ARC
  5
8F4C
  8
0
 10
132.4146969417412
 20
113.2294468651744
 30
0.0
 40
6.0
 50
90.0
 51
180.0
1001
GENIUS_GENODEF_13
1002
{
1000
HIER
1070
     0
1002
}
1002
{
1000
MANEDIT
1070
     0
1002
}
1002
{
1000
NOSEL
1070
     0
1002
}
1002
{
1000
BEHIND
1070
     0
1002
}
1002
{
1000
REACTOR
1002
}
1001
GENIUS_GENOBJ-N-FIL_13
1002
{
1000
OWNER
1000
GEN
1002
}
  0
ARC
  5
8F4D
  8
0
 10
398.3102447985417
 20
113.2600617336756
 30
0.0
 40
5.9693851314982789
 50
0.0
 51
90.0
  0
LINE
  5
8F4E
  8
2
 10
395.44052024085568
 20
113.7294468651738
 30
0.0
 11
395.44052024085568
 21
104.7294468651739
 31
0.0
  0
LINE
  5
8F4F
  8
0
 10
404.27962993004002
 20
98.729446865173884
 30
0.0
 11
404.27962993004002
 21
113.2600617336756
 31
0.0
  0
LINE
  5
8F50
  8
0
 10
126.4146969417412
 20
98.727192347334295
 30
0.0
 11
126.4146969417412
 21
131.7294468651738
 31
0.0
  0
LINE
  5
8F51
  8
0
 10
138.8483647266541
 20
119.2294468651744
 30
0.0
 11
138.8483647266541
 21
131.72944686517391
 31
0.0
  0
LINE
  5
8F52
  8
0
 10
150.78713498965061
 20
119.2294468651744
 30
0.0
 11
150.78713498965061
 21
131.72944686517391
 31
0.0
  0
LINE
  5
8F53
  8
0
 10
162.72590525264721
 20
119.2294468651744
 30
0.0
 11
162.72590525264721
 21
131.729446865174
 31
0.0
  0
LINE
  5
8F55
  8
2
 10
140.66467551564369
 20
98.729446865174424
 30
0.0
 11
140.66467551564381
 21
113.7294468651744
 31
0.0
  0
LINE
  5
8F56
  8
2
 10
139.91467551564369
 20
98.729446865174424
 30
0.0
 11
139.91467551564381
 21
113.7294468651744
 31
0.0
  0
LINE
  5
8F57
  8
2
 10
136.25378520482781
 20
113.7294468651744
 30
0.0
 11
136.25378520482781
 21
104.7294468651744
 31
0.0
  0
LINE
  5
8F58
  8
1
 10
144.91467551564369
 20
95.729446865174395
 30
0.0
 11
144.91467551564369
 21
116.7294468651744
 31
0.0
  0
LINE
  5
8F59
  8
2
 10
138.16467551564369
 20
104.7294468651744
 30
0.0
 11
138.16467551564369
 21
98.729446865174424
 31
0.0
  0
LINE
  5
8F5A
  8
2
 10
136.25378520482781
 20
104.7294468651744
 30
0.0
 11
138.16467551564369
 21
104.7294468651744
 31
0.0
  0
LINE
  5
8F5B
  8
2
 10
136.25378520482781
 20
113.7294468651744
 30
0.0
 11
153.57556582645961
 21
113.7294468651744
 31
0.0
1001
GENIUS_GENOREF_13
1005
0
  0
LINE
  5
8F5C
  8
2
 10
153.57556582645961
 20
113.7294468651744
 30
0.0
 11
153.57556582645961
 21
104.7294468651744
 31
0.0
  0
LINE
  5
8F5D
  8
2
 10
149.16467551564369
 20
98.729446865174424
 30
0.0
 11
149.16467551564369
 21
113.7294468651744
 31
0.0
  0
LINE
  5
8F5E
  8
2
 10
149.91467551564369
 20
98.729446865174424
 30
0.0
 11
149.91467551564369
 21
113.7294468651744
 31
0.0
  0
LINE
  5
8F5F
  8
2
 10
151.66467551564369
 20
104.7294468651744
 30
0.0
 11
151.66467551564369
 21
98.729446865174424
 31
0.0
  0
LINE
  5
8F60
  8
2
 10
153.57556582645961
 20
104.7294468651744
 30
0.0
 11
151.66467551564369
 21
104.7294468651744
 31
0.0
  0
LINE
  5
8F61
  8
0
 10
128.4146969417412
 20
133.7294468651738
 30
0.0
 11
148.78713498965061
 21
133.72944686517391
 31
0.0
  0
ARC
  5
8F62
  8
0
 10
128.4146969417412
 20
131.7294468651738
 30
0.0
 40
2.0
 50
90.000000000000114
 51
180.0
1001
GENIUS_GENODEF_13
1002
{
1000
HIER
1070
     0
1002
}
1002
{
1000
MANEDIT
1070
     0
1002
}
1002
{
1000
NOSEL
1070
     0
1002
}
1002
{
1000
BEHIND
1070
     0
1002
}
1002
{
1000
REACTOR
1002
}
1001
GENIUS_GENOBJ-N-FIL_13
1002
{
1000
OWNER
1000
GEN
1002
}
  0
ARC
  5
8F63
  8
0
 10
136.8483647266541
 20
131.72944686517391
 30
0.0
 40
2.0
 50
0.0000000000000509
 51
90.000000000000298
1001
GENIUS_GENODEF_13
1002
{
1000
HIER
1070
     0
1002
}
1002
{
1000
MANEDIT
1070
     0
1002
}
1002
{
1000
NOSEL
1070
     0
1002
}
1002
{
1000
BEHIND
1070
     0
1002
}
1002
{
1000
REACTOR
1002
}
1001
GENIUS_GENOBJ-N-FIL_13
1002
{
1000
OWNER
1000
GEN
1002
}
  0
LINE
  5
8F64
  8
0
 10
152.78713498965061
 20
133.72944686517391
 30
0.0
 11
160.72590525264721
 21
133.729446865174
 31
0.0
  0
ARC
  5
8F65
  8
0
 10
148.78713498965061
 20
131.72944686517391
 30
0.0
 40
2.0
 50
0.0
 51
90.000000000000355
1001
GENIUS_GENODEF_13
1002
{
1000
HIER
1070
     0
1002
}
1002
{
1000
MANEDIT
1070
     0
1002
}
1002
{
1000
NOSEL
1070
     0
1002
}
1002
{
1000
BEHIND
1070
     0
1002
}
1002
{
1000
REACTOR
1002
}
1001
GENIUS_GENOBJ-N-FIL_13
1002
{
1000
OWNER
1000
GEN
1002
}
  0
ARC
  5
8F66
  8
0
 10
152.78713498965061
 20
131.72944686517391
 30
0.0
 40
2.0
 50
90.000000000000355
 51
180.0
1001
GENIUS_GENODEF_13
1002
{
1000
HIER
1070
     0
1002
}
1002
{
1000
MANEDIT
1070
     0
1002
}
1002
{
1000
NOSEL
1070
     0
1002
}
1002
{
1000
BEHIND
1070
     0
1002
}
1002
{
1000
REACTOR
1002
}
1001
GENIUS_GENOBJ-N-FIL_13
1002
{
1000
OWNER
1000
GEN
1002
}
  0
ARC
  5
8F67
  8
0
 10
160.72590525264721
 20
131.729446865174
 30
0.0
 40
2.0
 50
0.0000000000000127
 51
90.000000000000355
1001
GENIUS_GENODEF_13
1002
{
1000
HIER
1070
     0
1002
}
1002
{
1000
MANEDIT
1070
     0
1002
}
1002
{
1000
NOSEL
1070
     0
1002
}
1002
{
1000
BEHIND
1070
     0
1002
}
1002
{
1000
REACTOR
1002
}
1001
GENIUS_GENOBJ-N-FIL_13
1002
{
1000
OWNER
1000
GEN
1002
}
  0
LINE
  5
8F69
  8
0
 10
200.54221604163689
 20
133.72944686517431
 30
0.0
 11
208.4809863046334
 21
133.7294468651744
 31
0.0
  0
LINE
  5
8F6A
  8
1
 10
174.66467551564389
 20
93.729446865173884
 30
0.0
 11
174.66467551564381
 21
138.72944686517411
 31
0.0
  0
LINE
  5
8F6B
  8
0
 10
174.66467551564389
 20
119.2294468651744
 30
0.0
 11
174.66467551564381
 21
131.729446865174
 31
0.0
  0
LINE
  5
8F6C
  8
0
 10
186.60344577864041
 20
119.2294468651743
 30
0.0
 11
186.60344577864041
 21
131.72944686517411
 31
0.0
  0
LINE
  5
8F6D
  8
0
 10
198.54221604163689
 20
119.2294468651743
 30
0.0
 11
198.54221604163689
 21
131.72944686517411
 31
0.0
  0
LINE
  5
8F6E
  8
2
 10
199.41467551564389
 20
98.72944686517522
 30
0.0
 11
199.41467551564341
 21
113.72944686517521
 31
0.0
  0
LINE
  5
8F6F
  8
2
 10
200.16467551564389
 20
98.729446865175248
 30
0.0
 11
200.16467551564349
 21
113.72944686517521
 31
0.0
  0
LINE
  5
8F70
  8
2
 10
195.75378520482749
 20
113.72944686517511
 30
0.0
 11
195.75378520482781
 21
104.72944686517511
 31
0.0
  0
LINE
  5
8F71
  8
2
 10
195.75378520482781
 20
104.72944686517511
 30
0.0
 11
197.66467551564369
 21
104.72944686517511
 31
0.0
  0
LINE
  5
8F72
  8
2
 10
197.66467551564369
 20
104.72944686517511
 30
0.0
 11
197.66467551564389
 21
98.729446865175163
 31
0.0
  0
LINE
  5
8F73
  8
0
 10
176.66467551564381
 20
133.72944686517411
 30
0.0
 11
184.60344577864041
 21
133.7294468651742
 31
0.0
  0
ARC
  5
8F74
  8
0
 10
172.66467551564381
 20
131.729446865174
 30
0.0
 40
2.0
 50
0.0
 51
90.000000000000355
1001
GENIUS_GENODEF_13
1002
{
1000
HIER
1070
     0
1002
}
1002
{
1000
MANEDIT
1070
     0
1002
}
1002
{
1000
NOSEL
1070
     0
1002
}
1002
{
1000
BEHIND
1070
     0
1002
}
1002
{
1000
REACTOR
1002
}
1001
GENIUS_GENOBJ-N-FIL_13
1002
{
1000
OWNER
1000
GEN
1002
}
  0
LINE
  5
8F75
  8
0
 10
164.72590525264721
 20
133.729446865174
 30
0.0
 11
172.66467551564381
 21
133.72944686517411
 31
0.0
  0
ARC
  5
8F76
  8
0
 10
176.66467551564381
 20
131.729446865174
 30
0.0
 40
2.0
 50
90.000000000000355
 51
180.0
1001
GENIUS_GENODEF_13
1002
{
1000
HIER
1070
     0
1002
}
1002
{
1000
MANEDIT
1070
     0
1002
}
1002
{
1000
NOSEL
1070
     0
1002
}
1002
{
1000
BEHIND
1070
     0
1002
}
1002
{
1000
REACTOR
1002
}
1001
GENIUS_GENOBJ-N-FIL_13
1002
{
1000
OWNER
1000
GEN
1002
}
  0
LINE
  5
8F77
  8
0
 10
188.60344577864041
 20
133.72944686517431
 30
0.0
 11
196.54221604163689
 21
133.72944686517431
 31
0.0
  0
ARC
  5
8F78
  8
0
 10
184.60344577864041
 20
131.72944686517411
 30
0.0
 40
2.0
 50
0.0
 51
90.000000000000355
1001
GENIUS_GENODEF_13
1002
{
1000
HIER
1070
     0
1002
}
1002
{
1000
MANEDIT
1070
     0
1002
}
1002
{
1000
NOSEL
1070
     0
1002
}
1002
{
1000
BEHIND
1070
     0
1002
}
1002
{
1000
REACTOR
1002
}
1001
GENIUS_GENOBJ-N-FIL_13
1002
{
1000
OWNER
1000
GEN
1002
}
  0
ARC
  5
8F79
  8
0
 10
188.60344577864041
 20
131.72944686517411
 30
0.0
 40
2.0
 50
90.000000000000355
 51
180.0
1001
GENIUS_GENODEF_13
1002
{
1000
HIER
1070
     0
1002
}
1002
{
1000
MANEDIT
1070
     0
1002
}
1002
{
1000
NOSEL
1070
     0
1002
}
1002
{
1000
BEHIND
1070
     0
1002
}
1002
{
1000
REACTOR
1002
}
1001
GENIUS_GENOBJ-N-FIL_13
1002
{
1000
OWNER
1000
GEN
1002
}
  0
ARC
  5
8F7A
  8
0
 10
196.54221604163689
 20
131.72944686517411
 30
0.0
 40
2.0
 50
0.0000000000000254
 51
90.000000000000355
1001
GENIUS_GENODEF_13
1002
{
1000
HIER
1070
     0
1002
}
1002
{
1000
MANEDIT
1070
     0
1002
}
1002
{
1000
NOSEL
1070
     0
1002
}
1002
{
1000
BEHIND
1070
     0
1002
}
1002
{
1000
REACTOR
1002
}
1001
GENIUS_GENOBJ-N-FIL_13
1002
{
1000
OWNER
1000
GEN
1002
}
  0
ARC
  5
8F7B
  8
0
 10
200.54221604163689
 20
131.72944686517411
 30
0.0
 40
2.0
 50
90.000000000000355
 51
180.0
1001
GENIUS_GENODEF_13
1002
{
1000
HIER
1070
     0
1002
}
1002
{
1000
MANEDIT
1070
     0
1002
}
1002
{
1000
NOSEL
1070
     0
1002
}
1002
{
1000
BEHIND
1070
     0
1002
}
1002
{
1000
REACTOR
1002
}
1001
GENIUS_GENOBJ-N-FIL_13
1002
{
1000
OWNER
1000
GEN
1002
}
  0
LINE
  5
8F7C
  8
0
 10
210.48098630463349
 20
119.2294468651743
 30
0.0
 11
210.4809863046334
 21
131.72944686517431
 31
0.0
  0
LINE
  5
8F7D
  8
0
 10
222.9146540895465
 20
119.2271923473342
 30
0.0
 11
222.9146540895465
 21
131.7294468651744
 31
0.0
  0
ARC
  5
8F7E
  8
0
 10
216.9146540895465
 20
113.2294468651744
 30
0.0
 40
6.0
 50
0.0
 51
90.0
1001
GENIUS_GENODEF_13
1002
{
1000
HIER
1070
     0
1002
}
1002
{
1000
MANEDIT
1070
     0
1002
}
1002
{
1000
NOSEL
1070
     0
1002
}
1002
{
1000
BEHIND
1070
     0
1002
}
1002
{
1000
REACTOR
1002
}
1001
GENIUS_GENOBJ-N-FIL_13
1002
{
1000
OWNER
1000
GEN
1002
}
  0
LINE
  5
8F7F
  8
2
 10
213.0755658264593
 20
113.7294468651756
 30
0.0
 11
195.75378520482749
 21
113.72944686517511
 31
0.0
1001
GENIUS_GENOREF_13
1005
0
  0
LINE
  5
8F80
  8
2
 10
213.07556582645961
 20
104.7294468651756
 30
0.0
 11
211.16467551564369
 21
104.7294468651755
 31
0.0
  0
LINE
  5
8F81
  8
2
 10
209.41467551564389
 20
98.729446865175504
 30
0.0
 11
209.41467551564349
 21
113.7294468651755
 31
0.0
  0
LINE
  5
8F82
  8
2
 10
208.66467551564389
 20
98.729446865175504
 30
0.0
 11
208.66467551564349
 21
113.7294468651755
 31
0.0
  0
LINE
  5
8F83
  8
1
 10
204.41467551564401
 20
95.729446865175419
 30
0.0
 11
204.4146755156433
 21
116.7294468651753
 31
0.0
  0
LINE
  5
8F84
  8
2
 10
211.16467551564369
 20
104.7294468651755
 30
0.0
 11
211.16467551564389
 21
98.729446865175561
 31
0.0
  0
LINE
  5
8F85
  8
2
 10
213.0755658264593
 20
113.7294468651756
 30
0.0
 11
213.07556582645961
 21
104.7294468651756
 31
0.0
  0
LINE
  5
8F86
  8
0
 10
222.9146540895465
 20
98.729446865174395
 30
0.0
 11
222.9146540895465
 21
119.2294468651744
 31
0.0
  0
ARC
  5
8F87
  8
0
 10
220.9146540895465
 20
131.7294468651744
 30
0.0
 40
2.0
 50
0.0
 51
90.000000000000355
1001
GENIUS_GENODEF_13
1002
{
1000
HIER
1070
     0
1002
}
1002
{
1000
MANEDIT
1070
     0
1002
}
1002
{
1000
NOSEL
1070
     0
1002
}
1002
{
1000
BEHIND
1070
     0
1002
}
1002
{
1000
REACTOR
1002
}
1001
GENIUS_GENOBJ-N-FIL_13
1002
{
1000
OWNER
1000
GEN
1002
}
  0
LINE
  5
8F88
  8
0
 10
212.4809863046334
 20
133.72944686517431
 30
0.0
 11
220.9146540895465
 21
133.7294468651744
 31
0.0
  0
ARC
  5
8F89
  8
0
 10
208.4809863046334
 20
131.72944686517431
 30
0.0
 40
2.0
 50
0.0000000000000254
 51
90.000000000000355
1001
GENIUS_GENODEF_13
1002
{
1000
HIER
1070
     0
1002
}
1002
{
1000
MANEDIT
1070
     0
1002
}
1002
{
1000
NOSEL
1070
     0
1002
}
1002
{
1000
BEHIND
1070
     0
1002
}
1002
{
1000
REACTOR
1002
}
1001
GENIUS_GENOBJ-N-FIL_13
1002
{
1000
OWNER
1000
GEN
1002
}
  0
ARC
  5
8F8A
  8
0
 10
212.4809863046334
 20
131.72944686517431
 30
0.0
 40
2.0
 50
90.000000000000355
 51
180.0
1001
GENIUS_GENODEF_13
1002
{
1000
HIER
1070
     0
1002
}
1002
{
1000
MANEDIT
1070
     0
1002
}
1002
{
1000
NOSEL
1070
     0
1002
}
1002
{
1000
BEHIND
1070
     0
1002
}
1002
{
1000
REACTOR
1002
}
1001
GENIUS_GENOBJ-N-FIL_13
1002
{
1000
OWNER
1000
GEN
1002
}
  0
LINE
  5
8F90
  8
1
 10
364.52962993004002
 20
121.7271923473342
 30
0.0
 11
346.52962993004002
 21
121.7271923473342
 31
0.0
  0
LINE
  5
8F91
  8
1
 10
355.52962993004002
 20
130.72719234733421
 30
0.0
 11
355.52962993004002
 21
112.7271923473342
 31
0.0
  0
LINE
  5
905A
  8
0
 10
309.27962993004002
 20
306.15590977094502
 30
0.0
 11
348.77704887805379
 21
306.15590977094502
 31
0.0
  0
LINE
  5
905B
  8
0
 10
362.2822109820263
 20
306.15590977094502
 30
0.0
 11
401.77962993004002
 21
306.15590977094502
 31
0.0
  0
LINE
  5
905C
  8
0
 10
362.2822109820263
 20
209.6559526231398
 30
0.0
 11
401.77962993004007
 21
209.6559526231398
 31
0.0
  0
LINE
  5
905D
  8
0
 10
348.77704887805379
 20
209.6559526231398
 30
0.0
 11
309.27962993004002
 21
209.6559526231398
 31
0.0
  0
LINE
  5
9060
  8
0
 10
312.74901506153827
 20
119.2294468651739
 30
0.0
 11
333.77704887805368
 21
119.2294468651739
 31
0.0
  0
LINE
  5
9061
  8
0
 10
306.77962993004002
 20
98.729446865173884
 30
0.0
 11
341.77966462321069
 21
98.729446865173927
 31
0.0
  0
LINE
  5
9062
  8
0
 10
369.2796299300399
 20
98.729446865173884
 30
0.0
 11
404.27962993004002
 21
98.729446865173884
 31
0.0
  0
LINE
  5
9063
  8
0
 10
383.778320414235
 20
119.2294468651739
 30
0.0
 11
398.3102447985417
 21
119.2294468651739
 31
0.0
  0
LINE
  5
907D
  8
0
 10
369.27962993004002
 20
98.729446865173884
 30
0.0
 11
369.2796299300399
 21
99.728604036575476
 31
0.0
  0
LINE
  5
9089
  8
1
 10
386.77960780968351
 20
301.65594560484158
 30
0.0
 11
386.77962061662072
 21
273.65594560484448
 31
0.0
  0
LINE
  5
908A
  8
1
 10
372.77961421315359
 20
287.65593920137451
 30
0.0
 11
400.77961421315058
 21
287.65595200831171
 31
0.0
  0
LINE
  5
908B
  8
1
 10
372.77961421315359
 20
228.15598282765211
 30
0.0
 11
400.77961421315058
 21
228.1559700207149
 31
0.0
  0
LINE
  5
908C
  8
1
 10
386.77960780968351
 20
214.1559764241851
 30
0.0
 11
386.77962061662072
 21
242.15597642418209
 31
0.0
  0
LINE
  5
908D
  8
1
 10
324.27965205039652
 20
214.15597642418501
 30
0.0
 11
324.27963924345931
 21
242.155976424182
 31
0.0
  0
LINE
  5
908E
  8
1
 10
338.27964564692638
 20
228.155982827652
 30
0.0
 11
310.2796456469294
 21
228.1559700207149
 31
0.0
  0
TEXT
  5
91A6
  8
0
 62
     3
 10
0.0
 20
0.0
 30
0.0
 40
10.0
  1
EFH100100SS
  7
STANDARD1
  0
ENDSEC
  0
EOF
