  0
SECTION
  2
HEADER
  9
$ACADVER
  1
AC1009
  9
$INSBASE
 10
0.0
 20
0.0
 30
0.0
  9
$EXTMIN
 10
0.0
 20
-2.960436562073669
 30
-0.0000000000000071
  9
$EXTMAX
 10
293.7311745876252758
 20
258.6099375698021845
 30
30.5
  9
$LIMMIN
 10
0.0
 20
0.0
  9
$LIMMAX
 10
750.0
 20
540.0
  9
$ORTHOMODE
 70
     1
  9
$REGENMODE
 70
     1
  9
$FILLMODE
 70
     1
  9
$QTEXTMODE
 70
     0
  9
$MIRRTEXT
 70
     0
  9
$DRAGMODE
 70
     2
  9
$LTSCALE
 40
20.0
  9
$OSMODE
 70
    37
  9
$ATTMODE
 70
     1
  9
$TEXTSIZE
 40
0.2
  9
$TRACEWID
 40
0.05
  9
$TEXTSTYLE
  7
STANDARD
  9
$CLAYER
  8
0
  9
$CELTYPE
  6
BYLAYER
  9
$CECOLOR
 62
   256
  9
$DIMSCALE
 40
1.0
  9
$DIMASZ
 40
3.0
  9
$DIMEXO
 40
2.0
  9
$DIMDLI
 40
0.3799999999999999
  9
$DIMRND
 40
0.0
  9
$DIMDLE
 40
0.0
  9
$DIMEXE
 40
2.0
  9
$DIMTP
 40
0.0
  9
$DIMTM
 40
0.0
  9
$DIMTXT
 40
3.0
  9
$DIMCEN
 40
0.09
  9
$DIMTSZ
 40
0.0
  9
$DIMTOL
 70
     0
  9
$DIMLIM
 70
     0
  9
$DIMTIH
 70
     0
  9
$DIMTOH
 70
     0
  9
$DIMSE1
 70
     0
  9
$DIMSE2
 70
     0
  9
$DIMTAD
 70
     1
  9
$DIMZIN
 70
     8
  9
$DIMBLK
  1

  9
$DIMASO
 70
     1
  9
$DIMSHO
 70
     0
  9
$DIMPOST
  1

  9
$DIMAPOST
  1

  9
$DIMALT
 70
     0
  9
$DIMALTD
 70
     2
  9
$DIMALTF
 40
25.3999999999999986
  9
$DIMLFAC
 40
1.0
  9
$DIMTOFL
 70
     0
  9
$DIMTVP
 40
1.6000000000000001
  9
$DIMTIX
 70
     1
  9
$DIMSOXD
 70
     0
  9
$DIMSAH
 70
     0
  9
$DIMBLK1
  1

  9
$DIMBLK2
  1

  9
$DIMSTYLE
  2
STANDARD
  9
$DIMCLRD
 70
     0
  9
$DIMCLRE
 70
     0
  9
$DIMCLRT
 70
     0
  9
$DIMTFAC
 40
1.0
  9
$DIMGAP
 40
1.5
  9
$LUNITS
 70
     2
  9
$LUPREC
 70
     1
  9
$SKETCHINC
 40
0.1
  9
$FILLETRAD
 40
0.2
  9
$AUNITS
 70
     0
  9
$AUPREC
 70
     0
  9
$MENU
  1
E:\r13\win\SUPPORT\ACAD
  9
$ELEVATION
 40
0.0
  9
$PELEVATION
 40
0.0
  9
$THICKNESS
 40
0.0
  9
$LIMCHECK
 70
     0
  9
$BLIPMODE
 70
     0
  9
$CHAMFERA
 40
0.0
  9
$CHAMFERB
 40
0.0
  9
$SKPOLY
 70
     0
  9
$TDCREATE
 40
2449839.780729167163372
  9
$TDUPDATE
 40
2460263.6915046297945082
  9
$TDINDWG
 40
0.5143489005
  9
$TDUSRTIMER
 40
0.5143489005
  9
$USRTIMER
 70
     1
  9
$ANGBASE
 50
0.0
  9
$ANGDIR
 70
     0
  9
$PDMODE
 70
     0
  9
$PDSIZE
 40
0.0
  9
$PLINEWID
 40
0.0
  9
$COORDS
 70
     1
  9
$SPLFRAME
 70
     0
  9
$SPLINETYPE
 70
     6
  9
$SPLINESEGS
 70
     8
  9
$ATTDIA
 70
     1
  9
$ATTREQ
 70
     1
  9
$HANDLING
 70
     1
  9
$HANDSEED
  5
8F96
  9
$SURFTAB1
 70
     6
  9
$SURFTAB2
 70
     6
  9
$SURFTYPE
 70
     6
  9
$SURFU
 70
     6
  9
$SURFV
 70
     6
  9
$UCSNAME
  2

  9
$UCSORG
 10
0.0
 20
0.0
 30
0.0
  9
$UCSXDIR
 10
1.0
 20
0.0
 30
0.0
  9
$UCSYDIR
 10
0.0
 20
1.0
 30
0.0
  9
$PUCSNAME
  2

  9
$PUCSORG
 10
0.0
 20
0.0
 30
0.0
  9
$PUCSXDIR
 10
1.0
 20
0.0
 30
0.0
  9
$PUCSYDIR
 10
0.0
 20
1.0
 30
0.0
  9
$USERI1
 70
     0
  9
$USERI2
 70
     1
  9
$USERI3
 70
     1
  9
$USERI4
 70
     0
  9
$USERI5
 70
     0
  9
$USERR1
 40
0.0
  9
$USERR2
 40
0.0
  9
$USERR3
 40
0.0
  9
$USERR4
 40
0.0
  9
$USERR5
 40
0.0
  9
$WORLDVIEW
 70
     1
  9
$SHADEDGE
 70
     3
  9
$SHADEDIF
 70
    70
  9
$TILEMODE
 70
     1
  9
$MAXACTVP
 70
    16
  9
$PLIMCHECK
 70
     0
  9
$PEXTMIN
 10
1.0000000000000000E+20
 20
1.0000000000000000E+20
 30
1.0000000000000000E+20
  9
$PEXTMAX
 10
-1.0000000000000000E+20
 20
-1.0000000000000000E+20
 30
-1.0000000000000000E+20
  9
$PLIMMIN
 10
0.0
 20
0.0
  9
$PLIMMAX
 10
12.0
 20
9.0
  9
$UNITMODE
 70
     0
  9
$VISRETAIN
 70
     0
  9
$PLINEGEN
 70
     0
  9
$PSLTSCALE
 70
     0
  0
ENDSEC
  0
SECTION
  2
TABLES
  0
TABLE
  2
VPORT
 70
     1
  0
VPORT
  2
*ACTIVE
 70
     0
 10
0.0
 20
0.0
 11
1.0
 21
1.0
 12
587.130541871921082
 22
250.0
 13
0.0
 23
0.0
 14
20.0
 24
20.0
 15
20.0
 25
20.0
 16
0.0
 26
0.0
 36
1.0
 17
0.0
 27
0.0
 37
0.0
 40
500.0
 41
2.3485221674876842
 42
50.0
 43
0.0
 44
0.0
 50
0.0
 51
0.0
 71
     0
 72
   500
 73
     1
 74
     0
 75
     0
 76
     0
 77
     0
 78
     0
  0
ENDTAB
  0
TABLE
  2
LTYPE
 70
     4
  0
LTYPE
  2
CONTINUOUS
 70
     0
  3
Solid Line
 72
    65
 73
     0
 40
0.0
  0
LTYPE
  2
CENTER
 70
     0
  3
____ _ ____ _ ____ _ ____ _ ____ _ ____ _ ____
 72
    65
 73
     4
 40
2.0
 49
1.25
 49
-0.25
 49
0.25
 49
-0.25
  0
LTYPE
  2
HIDDEN
 70
     0
  3
Hidden __ __ __ __ __ __ __ __ __ __ __ __ __ _
 72
    65
 73
     2
 40
0.375
 49
0.25
 49
-0.125
  0
LTYPE
  2
PHANTOM2
 70
     0
  3
___ _ _ ___ _ _ ___ _ _ ___ _ _
 72
    65
 73
     6
 40
1.25
 49
0.625
 49
-0.125
 49
0.125
 49
-0.125
 49
0.125
 49
-0.125
  0
ENDTAB
  0
TABLE
  2
LAYER
 70
     4
  0
LAYER
  2
0
 70
     0
 62
     7
  6
CONTINUOUS
  0
LAYER
  2
1
 70
     0
 62
     1
  6
CENTER
  0
LAYER
  2
2
 70
     0
 62
     2
  6
HIDDEN
  0
LAYER
  2
DEFPOINTS
 70
     0
 62
     7
  6
CONTINUOUS
  0
ENDTAB
  0
TABLE
  2
STYLE
 70
     2
  0
STYLE
  2
STANDARD
 70
     0
 40
0.0
 41
1.0
 50
0.0
 71
     0
 42
0.2
  3
TXT
  4
BIGFONT
  0
STYLE
  2
STANDARD1
 70
     0
 40
0.0
 41
1.0
 50
0.0
 71
     0
 42
3.0
  3
txt
  4

  0
ENDTAB
  0
TABLE
  2
VIEW
 70
     1
  0
VIEW
  2
ALL
 70
     0
 40
540.0
 10
441.9831932773108747
 20
270.0
 41
0.0
 11
0.0
 21
0.0
 31
1.0
 12
0.0
 22
0.0
 32
0.0
 42
0.0
 43
0.0
 44
0.0
 50
0.0
 71
     0
  0
ENDTAB
  0
TABLE
  2
UCS
 70
     0
  0
ENDTAB
  0
TABLE
  2
APPID
 70
    11
  0
APPID
  2
ACAD
 70
     0
  0
APPID
  2
ACAD_EXEMPT_FROM_CAD_STANDARDS
 70
     0
  0
APPID
  2
ACAD_DSTYLE_DIMJAG
 70
     0
  0
APPID
  2
ACAD_DSTYLE_DIMTALN
 70
     0
  0
APPID
  2
ACAD_MLEADERVER
 70
     0
  0
APPID
  2
GENIUS_GENODEF_13
 70
     0
  0
APPID
  2
GENIUS_GENOBJ-N-FIL_13
 70
     0
  0
APPID
  2
GENIUS_GENOREF_13
 70
     0
  0
APPID
  2
ACAD_PSEXT
 70
     0
  0
APPID
  2
ACAD_DSTYLE_DIMRADIAL_EXTENSION
 70
     0
  0
APPID
  2
ACAD_NAV_VCDISPLAY
 70
     0
  0
ENDTAB
  0
TABLE
  2
DIMSTYLE
 70
     1
  0
DIMSTYLE
  2
STANDARD
 70
     0
  3

  4

  5

  6

  7

 40
1.0
 41
0.18
 42
0.0625
 43
0.38
 44
0.18
 45
0.0
 46
0.0
 47
0.0
 48
0.0
140
0.18
141
0.09
142
0.0
143
25.3999999999999986
144
1.0
145
0.0
146
1.0
147
0.09
 71
     0
 72
     0
 73
     1
 74
     1
 75
     0
 76
     0
 77
     0
 78
     0
170
     0
171
     2
172
     0
173
     0
174
     0
175
     0
176
     0
177
     0
178
     0
  0
ENDTAB
  0
ENDSEC
  0
SECTION
  2
BLOCKS
  0
BLOCK
  8
0
  2
$MODEL_SPACE
 70
     0
 10
0.0
 20
0.0
 30
0.0
  3
$MODEL_SPACE
  1

  0
ENDBLK
  5
13C
  8
0
  0
BLOCK
 67
     1
  8
0
  2
$PAPER_SPACE
 70
     0
 10
0.0
 20
0.0
 30
0.0
  3
$PAPER_SPACE
  1

  0
ENDBLK
  5
13A
 67
     1
  8
0
  0
ENDSEC
  0
SECTION
  2
ENTITIES
  0
CIRCLE
  5
33E
  8
0
 10
110.5925920944357017
 20
240.5478824463959882
 30
0.0
 40
7.75
  0
LINE
  5
347
  8
1
 10
95.7805369710294343
 20
240.5478824463959882
 30
0.0
 11
125.404647217842097
 21
240.5478824463959882
 31
0.0
  0
CIRCLE
  5
349
  8
0
 10
110.5925920944357017
 20
210.0478824463959882
 30
0.0
 40
10.4999999999999805
  0
CIRCLE
  5
34A
  8
0
 10
110.5925920944357017
 20
210.0478824463959882
 30
0.0
 40
40.03162978217361
  0
CIRCLE
  5
34B
  8
0
 10
110.5925920944357017
 20
210.0478824463959882
 30
0.0
 40
41.5
  0
LINE
  5
35E
  8
1
 10
110.5925920944357017
 20
258.6099375698021845
 30
0.0
 11
110.5925920944357017
 21
161.4858273229895929
 31
0.0
  0
LINE
  5
35F
  8
1
 10
62.0305369710294414
 20
210.0478824463959882
 30
0.0
 11
159.1546472178420117
 21
210.0478824463959882
 31
0.0
  0
LINE
  5
3EF
  8
0
 10
257.3691194642190112
 20
245.4228824463959029
 30
0.0
 11
257.6691194642190794
 21
245.4228824463959029
 31
0.0
  0
LINE
  5
3F0
  8
0
 10
257.6691194642190794
 20
235.6728824463959029
 30
0.0
 11
257.3691194642190112
 21
235.6728824463959029
 31
0.0
  0
LINE
  5
3F1
  8
0
 10
242.6691194642191078
 20
247.0478824463959029
 30
0.0
 11
257.3691194642190112
 21
247.0478824463959029
 31
0.0
  0
LINE
  5
3F2
  8
0
 10
257.3691194642190112
 20
234.0478824463959029
 30
0.0
 11
242.6691194642191078
 21
234.0478824463959029
 31
0.0
  0
ARC
  5
3F4
  8
0
 10
241.4191194642191078
 20
234.0478824463959029
 30
0.0
 40
1.25
 50
270.0
 51
0.0
  0
ARC
  5
3F5
  8
0
 10
241.4191194642191078
 20
247.0478824463959029
 30
0.0
 40
1.25
 50
0.0
 51
90.0
  0
LINE
  5
3F6
  8
0
 10
220.4191194642191078
 20
248.2978824463959029
 30
0.0
 11
241.4191194642191078
 21
248.2978824463959029
 31
0.0
  0
LINE
  5
3F7
  8
0
 10
241.4191194642191078
 20
232.7978824463959029
 30
0.0
 11
220.4191194642191078
 21
232.7978824463959029
 31
0.0
  0
ARC
  5
3F8
  8
0
 10
220.4191194642191078
 20
240.5478824463959029
 30
0.0
 40
7.7500000000000098
 50
90.0
 51
270.0
  0
LINE
  5
3FB
  8
0
 10
257.3691194642190112
 20
234.0478824463959029
 30
0.0
 11
257.3691194642190112
 21
247.0478824463959029
 31
0.0
  0
LINE
  5
3FC
  8
0
 10
241.4191194642191078
 20
232.7978824463959029
 30
0.0
 11
241.4191194642191078
 21
248.2978824463959029
 31
0.0
  0
LINE
  5
3FD
  8
0
 10
220.4191194642191078
 20
232.7978824463959029
 30
0.0
 11
220.4191194642191078
 21
248.2978824463959029
 31
0.0
  0
LINE
  5
406
  8
1
 10
284.7311745876253894
 20
240.5478824463959029
 30
0.0
 11
205.6070643408127978
 21
240.5478824463959029
 31
0.0
  0
ARC
  5
40A
  8
0
 10
474.9503694637675721
 20
210.0478824464765921
 30
0.0
 40
217.2812499995420978
 50
169.3832458493849913
 51
170.3293142188086904
  0
ARC
  5
40B
  8
0
 10
474.9503694642697837
 20
210.0478824463914123
 30
0.0
 40
217.2812500000515001
 50
173.525726112654695
 51
177.2301333795608969
  0
ARC
  5
40C
  8
0
 10
474.9503694642212963
 20
210.0478824463955903
 30
0.0
 40
217.281250000002899
 50
182.7698666204391031
 51
190.616754150614895
  0
ARC
  5
40D
  8
0
 10
263.1578315844286067
 20
249.7478824463958915
 30
0.0
 40
1.8
 50
90.0
 51
169.3832458493849913
  0
ARC
  5
40E
  8
0
 10
263.1578315844286067
 20
170.3478824463958006
 30
0.0
 40
1.800000000000004
 50
190.616754150614895
 51
270.0
  0
LINE
  5
40F
  8
0
 10
276.5441194642190794
 20
168.5478824463957892
 30
0.0
 11
263.1578315844286067
 21
168.5478824463957892
 31
0.0
  0
LINE
  5
410
  8
0
 10
263.1578315844286067
 20
251.5478824463959029
 30
0.0
 11
276.5441194642190794
 21
251.5478824463959029
 31
0.0
  0
ARC
  5
411
  8
0
 10
276.5441194642190794
 20
250.4228824463959029
 30
0.0
 40
1.124999999999992
 50
0.0
 51
90.0
  0
ARC
  5
412
  8
0
 10
276.5441194642190794
 20
169.6728824463957892
 30
0.0
 40
1.124999999999994
 50
270.0
 51
0.0
  0
LINE
  5
421
  8
0
 10
286.4691194642189771
 20
197.0478824463959029
 30
0.0
 11
277.6691194642190794
 21
197.0478824463959029
 31
0.0
  0
LINE
  5
424
  8
0
 10
277.6691194642190794
 20
223.0478824463959029
 30
0.0
 11
286.4691194642189771
 21
223.0478824463959029
 31
0.0
  0
LINE
  5
425
  8
0
 10
286.6691194642190794
 20
201.0478824463959029
 30
0.0
 11
286.4691194642189771
 21
201.0478824463959029
 31
0.0
  0
LINE
  5
426
  8
0
 10
286.4691194642189771
 20
219.0478824463959029
 30
0.0
 11
286.6691194642190794
 21
219.0478824463959029
 31
0.0
  0
LINE
  5
42F
  8
0
 10
259.0548123039042139
 20
234.5478824463959029
 30
0.0
 11
257.6691194642190794
 21
234.5478824463959029
 31
0.0
  0
LINE
  5
430
  8
0
 10
257.6691194642190794
 20
246.5478824463959029
 30
0.0
 11
260.7567850561823093
 21
246.5478824463959029
 31
0.0
  0
LINE
  5
43B
  8
0
 10
257.922971190262615
 20
220.5478824463959029
 30
0.0
 11
257.922971190262615
 21
199.5478824463957892
 31
0.0
  0
LINE
  5
43F
  8
0
 10
277.6691194642190794
 20
250.4228824463959029
 30
0.0
 11
277.6691194642190794
 21
169.6728824463957892
 31
0.0
  0
LINE
  5
446
  8
0
 10
286.4691194642189771
 20
223.0478824463959029
 30
0.0
 11
286.4691194642189771
 21
197.0478824463959029
 31
0.0
  0
LINE
  5
447
  8
0
 10
286.6691194642190794
 20
219.0478824463959029
 30
0.0
 11
286.6691194642190794
 21
201.0478824463959029
 31
0.0
  0
POLYLINE
  5
44C
  8
0
 66
     1
 10
0.0
 20
0.0
 30
0.0
  0
VERTEX
  5
8F0A
  8
0
 10
259.0548123039042139
 20
234.5478824463959029
 30
0.0
  0
VERTEX
  5
8F0B
  8
0
 10
259.0548960368390112
 20
234.548475153447697
 30
0.0
  0
VERTEX
  5
8F0C
  8
0
 10
259.0555729226567223
 20
234.5532665093485889
 30
0.0
  0
VERTEX
  5
8F0D
  8
0
 10
259.056943132487504
 20
234.562965533411699
 30
0.0
  0
VERTEX
  5
8F0E
  8
0
 10
259.057892836001713
 20
234.5696879693032031
 30
0.0
  0
VERTEX
  5
8F0F
  8
0
 10
259.0590210272500826
 20
234.5776737845932871
 30
0.0
  0
VERTEX
  5
8F10
  8
0
 10
259.0618180519738871
 20
234.5974721297592112
 30
0.0
  0
VERTEX
  5
8F11
  8
0
 10
259.0653427944296823
 20
234.6224211570041973
 30
0.0
  0
VERTEX
  5
8F12
  8
0
 10
259.0696011022353105
 20
234.6525620038106865
 30
0.0
  0
VERTEX
  5
8F13
  8
0
 10
259.0745962514375265
 20
234.6879175504355999
 30
0.0
  0
VERTEX
  5
8F14
  8
0
 10
259.0803289820619284
 20
234.7284926725371861
 30
0.0
  0
VERTEX
  5
8F15
  8
0
 10
259.0834714357001758
 20
234.7507338743924947
 30
0.0
  0
VERTEX
  5
8F16
  8
0
 10
259.086797339543125
 20
234.7742731207821976
 30
0.0
  0
VERTEX
  5
8F17
  8
0
 10
259.0939966694937198
 20
234.8252254868430953
 30
0.0
  0
VERTEX
  5
8F18
  8
0
 10
259.1019196928821771
 20
234.8812977394032941
 30
0.0
  0
VERTEX
  5
8F19
  8
0
 10
259.1105566320106277
 20
234.9424201204936935
 30
0.0
  0
VERTEX
  5
8F1A
  8
0
 10
259.1198954005697033
 20
235.0085064959557997
 30
0.0
  0
VERTEX
  5
8F1B
  8
0
 10
259.1299246079126988
 20
235.0794756199827873
 30
0.0
  0
VERTEX
  5
8F1C
  8
0
 10
259.1351940551887196
 20
235.116762196104105
 30
0.0
  0
VERTEX
  5
8F1D
  8
0
 10
259.1406305298403936
 20
235.1552297027585041
 30
0.0
  0
VERTEX
  5
8F1E
  8
0
 10
259.1519949859896883
 20
235.2356393991277912
 30
0.0
  0
VERTEX
  5
8F1F
  8
0
 10
259.1639972634507103
 20
235.320557429907808
 30
0.0
  0
VERTEX
  5
8F20
  8
0
 10
259.1702304525010732
 20
235.3646563750259872
 30
0.0
  0
VERTEX
  5
8F21
  8
0
 10
259.1766142531080845
 20
235.4098195555490918
 30
0.0
  0
VERTEX
  5
8F22
  8
0
 10
259.1898206322209717
 20
235.5032458771786139
 30
0.0
  0
VERTEX
  5
8F23
  8
0
 10
259.2035890931516064
 20
235.6006424641196872
 30
0.0
  0
VERTEX
  5
8F24
  8
0
 10
259.2106750706649905
 20
235.6507654716197919
 30
0.0
  0
VERTEX
  5
8F25
  8
0
 10
259.2178904502952719
 20
235.7018021196689972
 30
0.0
  0
VERTEX
  5
8F26
  8
0
 10
259.2326931437991107
 20
235.8065008805156992
 30
0.0
  0
VERTEX
  5
8F27
  8
0
 10
259.2479630434866067
 20
235.9144966409515121
 30
0.0
  0
VERTEX
  5
8F28
  8
0
 10
259.2636636055094073
 20
236.0255302723170132
 30
0.0
  0
VERTEX
  5
8F29
  8
0
 10
259.279756080529296
 20
236.139327106490299
 30
0.0
  0
VERTEX
  5
8F2A
  8
0
 10
259.2961997633490228
 20
236.2555987118234953
 30
0.0
  0
VERTEX
  5
8F2B
  8
0
 10
259.3045438751022971
 20
236.3145956849369043
 30
0.0
  0
VERTEX
  5
8F2C
  8
0
 10
259.3130247605399745
 20
236.3745573760591867
 30
0.0
  0
VERTEX
  5
8F2D
  8
0
 10
259.3304510346603138
 20
236.4977574954646116
 30
0.0
  0
VERTEX
  5
8F2E
  8
0
 10
259.3484820717264938
 20
236.6252226817686051
 30
0.0
  0
VERTEX
  5
8F2F
  8
0
 10
259.3670984298262283
 20
236.7568144410564912
 30
0.0
  0
VERTEX
  5
8F30
  8
0
 10
259.386278692005078
 20
236.8923803334695037
 30
0.0
  0
VERTEX
  5
8F31
  8
0
 10
259.4059997808121807
 20
237.0317562061592014
 30
0.0
  0
VERTEX
  5
8F32
  8
0
 10
259.416055554626098
 20
237.1028189887541089
 30
0.0
  0
VERTEX
  5
8F33
  8
0
 10
259.4262373073869981
 20
237.1747686694639867
 30
0.0
  0
VERTEX
  5
8F34
  8
0
 10
259.4469659105855044
 20
237.321237501519505
 30
0.0
  0
VERTEX
  5
8F35
  8
0
 10
259.4681589457027258
 20
237.4709734565037991
 30
0.0
  0
VERTEX
  5
8F36
  8
0
 10
259.4897879113974
 20
237.6237742247996891
 30
0.0
  0
VERTEX
  5
8F37
  8
0
 10
259.5118226289768018
 20
237.7794257100337063
 30
0.0
  0
VERTEX
  5
8F38
  8
0
 10
259.534231548775324
 20
237.9377042030731957
 30
0.0
  0
VERTEX
  5
8F39
  8
0
 10
259.5455661804336955
 20
238.0177566076505116
 30
0.0
  0
VERTEX
  5
8F3A
  8
0
 10
259.5569820773544052
 20
238.0983787017206055
 30
0.0
  0
VERTEX
  5
8F3B
  8
0
 10
259.5800409568515192
 20
238.2612135970738905
 30
0.0
  0
VERTEX
  5
8F3C
  8
0
 10
259.603380647319625
 20
238.4260137424116976
 30
0.0
  0
VERTEX
  5
8F3D
  8
0
 10
259.6269713832256798
 20
238.592568354869087
 30
0.0
  0
VERTEX
  5
8F3E
  8
0
 10
259.6507774321580087
 20
238.760624616737914
 30
0.0
  0
VERTEX
  5
8F3F
  8
0
 10
259.6747618842825887
 20
238.9299215062646056
 30
0.0
  0
VERTEX
  5
8F40
  8
0
 10
259.6868092363974938
 20
239.0149519481302036
 30
0.0
  0
VERTEX
  5
8F41
  8
0
 10
259.6988869830926774
 20
239.1001921388572953
 30
0.0
  0
VERTEX
  5
8F42
  8
0
 10
259.7231144694139857
 20
239.2711661999030071
 30
0.0
  0
VERTEX
  5
8F43
  8
0
 10
259.7474059399202133
 20
239.442572477905486
 30
0.0
  0
VERTEX
  5
8F44
  8
0
 10
259.7717230094303886
 20
239.6141400111141877
 30
0.0
  0
VERTEX
  5
8F45
  8
0
 10
259.7960265419878283
 20
239.7855926638661117
 30
0.0
  0
VERTEX
  5
8F46
  8
0
 10
259.8202763739021748
 20
239.9566471761397111
 30
0.0
  0
VERTEX
  5
8F47
  8
0
 10
259.832368403819828
 20
240.0419352552627004
 30
0.0
  0
VERTEX
  5
8F48
  8
0
 10
259.8444316574752975
 20
240.1270155913807969
 30
0.0
  0
VERTEX
  5
8F49
  8
0
 10
259.8684512313819255
 20
240.2964078700993866
 30
0.0
  0
VERTEX
  5
8F4A
  8
0
 10
259.8922939940781021
 20
240.46453452249321
 30
0.0
  0
VERTEX
  5
8F4B
  8
0
 10
259.9041363366187056
 20
240.548033580698899
 30
0.0
  0
VERTEX
  5
8F4C
  8
0
 10
259.9159795234717762
 20
240.6315339935017903
 30
0.0
  0
VERTEX
  5
8F4D
  8
0
 10
259.9398277900605194
 20
240.7996622914396028
 30
0.0
  0
VERTEX
  5
8F4E
  8
0
 10
259.9638580586486114
 20
240.9690548271387058
 30
0.0
  0
VERTEX
  5
8F4F
  8
0
 10
259.9759286372946008
 20
241.0541347859683015
 30
0.0
  0
VERTEX
  5
8F50
  8
0
 10
259.9880293228733876
 20
241.1394221598255001
 30
0.0
  0
VERTEX
  5
8F51
  8
0
 10
260.0123004816448997
 20
241.3104743087729958
 30
0.0
  0
VERTEX
  5
8F52
  8
0
 10
260.0366307123567253
 20
241.481923385068086
 30
0.0
  0
VERTEX
  5
8F53
  8
0
 10
260.0609798416870717
 20
241.6534862040749942
 30
0.0
  0
VERTEX
  5
8F54
  8
0
 10
260.0853086901306028
 20
241.8248867104960027
 30
0.0
  0
VERTEX
  5
8F55
  8
0
 10
260.1095787940943183
 20
241.9958540168620118
 30
0.0
  0
VERTEX
  5
8F56
  8
0
 10
260.1216797805593046
 20
242.0810904851593932
 30
0.0
  0
VERTEX
  5
8F57
  8
0
 10
260.1337516374924235
 20
242.1661169881803062
 30
0.0
  0
VERTEX
  5
8F58
  8
0
 10
260.1577888155068763
 20
242.3354053944169948
 30
0.0
  0
VERTEX
  5
8F59
  8
0
 10
260.1816523943386983
 20
242.5034524418132946
 30
0.0
  0
VERTEX
  5
8F5A
  8
0
 10
260.2053052569895044
 20
242.6699972037010014
 30
0.0
  0
VERTEX
  5
8F5B
  8
0
 10
260.2287114363040246
 20
242.8347869596071007
 30
0.0
  0
VERTEX
  5
8F5C
  8
0
 10
260.2518409289668853
 20
242.9976110752527916
 30
0.0
  0
VERTEX
  5
8F5D
  8
0
 10
260.2632935947568171
 20
243.0782276297161104
 30
0.0
  0
VERTEX
  5
8F5E
  8
0
 10
260.2746659207078892
 20
243.1582744080562009
 30
0.0
  0
VERTEX
  5
8F5F
  8
0
 10
260.297152849075303
 20
243.31654143549369
 30
0.0
  0
VERTEX
  5
8F60
  8
0
 10
260.3192687948741195
 20
243.4721812501385898
 30
0.0
  0
VERTEX
  5
8F61
  8
0
 10
260.3409818636823729
 20
243.6249702379602979
 30
0.0
  0
VERTEX
  5
8F62
  8
0
 10
260.3622615163362752
 20
243.7746943957500889
 30
0.0
  0
VERTEX
  5
8F63
  8
0
 10
260.3830788789351232
 20
243.9211515030038129
 30
0.0
  0
VERTEX
  5
8F64
  8
0
 10
260.3933056957487224
 20
243.9930953745162014
 30
0.0
  0
VERTEX
  5
8F65
  8
0
 10
260.4034069253963821
 20
244.0641523960325117
 30
0.0
  0
VERTEX
  5
8F66
  8
0
 10
260.4232199045520133
 20
244.2035169278221076
 30
0.0
  0
VERTEX
  5
8F67
  8
0
 10
260.4424930304307964
 20
244.3390717813041135
 30
0.0
  0
VERTEX
  5
8F68
  8
0
 10
260.4612028250804201
 20
244.470652872798496
 30
0.0
  0
VERTEX
  5
8F69
  8
0
 10
260.4793274716269025
 20
244.5981078263068014
 30
0.0
  0
VERTEX
  5
8F6A
  8
0
 10
260.4968471329382282
 20
244.7212982049134951
 30
0.0
  0
VERTEX
  5
8F6B
  8
0
 10
260.5053745074205267
 20
244.7812552257632888
 30
0.0
  0
VERTEX
  5
8F6C
  8
0
 10
260.5137650453414153
 20
244.8402478048313924
 30
0.0
  0
VERTEX
  5
8F6D
  8
0
 10
260.5303021826213126
 20
244.9565111106234099
 30
0.0
  0
VERTEX
  5
8F6E
  8
0
 10
260.5464886169384044
 20
245.0703001379995953
 30
0.0
  0
VERTEX
  5
8F6F
  8
0
 10
260.5622832353324156
 20
245.1813264575150129
 30
0.0
  0
VERTEX
  5
8F70
  8
0
 10
260.5776468727486872
 20
245.2893154018593123
 30
0.0
  0
VERTEX
  5
8F71
  8
0
 10
260.592542566092618
 20
245.3940078410786896
 30
0.0
  0
VERTEX
  5
8F72
  8
0
 10
260.5998040380413272
 20
245.4450415126360951
 30
0.0
  0
VERTEX
  5
8F73
  8
0
 10
260.6069357668184239
 20
245.495161665588995
 30
0.0
  0
VERTEX
  5
8F74
  8
0
 10
260.6207945018109058
 20
245.5925529053508001
 30
0.0
  0
VERTEX
  5
8F75
  8
0
 10
260.6340891792178809
 20
245.6859743539953058
 30
0.0
  0
VERTEX
  5
8F76
  8
0
 10
260.6405162628591938
 20
245.7311352722049946
 30
0.0
  0
VERTEX
  5
8F77
  8
0
 10
260.6467920918656773
 20
245.7752320689291139
 30
0.0
  0
VERTEX
  5
8F78
  8
0
 10
260.6588775276052274
 20
245.860146137263996
 30
0.0
  0
VERTEX
  5
8F79
  8
0
 10
260.6703220022732239
 20
245.9405523032656049
 30
0.0
  0
VERTEX
  5
8F7A
  8
0
 10
260.6757971964769922
 20
245.9790182011329023
 30
0.0
  0
VERTEX
  5
8F7B
  8
0
 10
260.6811044462177733
 20
246.0163032694833021
 30
0.0
  0
VERTEX
  5
8F7C
  8
0
 10
260.6912063442130147
 20
246.0872696706165073
 30
0.0
  0
VERTEX
  5
8F7D
  8
0
 10
260.7006136764014741
 20
246.1533536992374991
 30
0.0
  0
VERTEX
  5
8F7E
  8
0
 10
260.709314781295916
 20
246.2144740842894066
 30
0.0
  0
VERTEX
  5
8F7F
  8
0
 10
260.7172973061328776
 20
246.2705446639540128
 30
0.0
  0
VERTEX
  5
8F80
  8
0
 10
260.7245512348836201
 20
246.321495651879502
 30
0.0
  0
VERTEX
  5
8F81
  8
0
 10
260.7279025336038103
 20
246.3450343107273
 30
0.0
  0
VERTEX
  5
8F82
  8
0
 10
260.7310690813375231
 20
246.367274987896991
 30
0.0
  0
VERTEX
  5
8F83
  8
0
 10
260.736846017463904
 20
246.4078492347443046
 30
0.0
  0
VERTEX
  5
8F84
  8
0
 10
260.7418799503411719
 20
246.4432041143573997
 30
0.0
  0
VERTEX
  5
8F85
  8
0
 10
260.7461715177620931
 20
246.4733444739021877
 30
0.0
  0
VERTEX
  5
8F86
  8
0
 10
260.7497239289386926
 20
246.4982931649527984
 30
0.0
  0
VERTEX
  5
8F87
  8
0
 10
260.7525430006410829
 20
246.5180912962603941
 30
0.0
  0
VERTEX
  5
8F88
  8
0
 10
260.7536801077907853
 20
246.5260770416182936
 30
0.0
  0
VERTEX
  5
8F89
  8
0
 10
260.7546373272077744
 20
246.5327994275845072
 30
0.0
  0
VERTEX
  5
8F8A
  8
0
 10
260.7560183983994193
 20
246.5424983981203013
 30
0.0
  0
VERTEX
  5
8F8B
  8
0
 10
260.756700658019497
 20
246.547289739886395
 30
0.0
  0
VERTEX
  5
8F8C
  8
0
 10
260.7567850561823093
 20
246.5478824463959029
 30
0.0
  0
SEQEND
  5
8F8D
  8
0
  0
LINE
  5
44E
  8
0
 10
257.6691194642190794
 20
234.5478824463959029
 30
0.0
 11
257.6691194642190794
 21
246.5478824463959029
 31
0.0
  0
LINE
  5
45F
  8
1
 10
250.8609160668563902
 20
210.0478824463959029
 30
0.0
 11
293.7311745876252758
 21
210.0478824463959029
 31
0.0
  0
POINT
  5
461
  8
0
 10
257.6691194642190794
 20
240.5478824463959029
 30
0.0
210
1.0
220
-0.0000000000000001
230
-0.0000000000000001
 50
180.0
  0
POINT
  5
462
  8
0
 10
212.6691194642191078
 20
240.5478824463959029
 30
-0.0000000000000071
210
-1.0
220
0.0000000000000001
230
0.0
 50
180.0
  0
LINE
  5
2B05
  8
0
 10
242.6691194642191078
 20
247.0478824463959029
 30
0.0
 11
242.6691194642191078
 21
234.0478824463959029
 31
0.0
  0
LINE
  5
3886
  8
0
 10
105.7175920944357017
 20
69.277560119029431
 30
0.0
 11
105.7175920944357017
 21
68.9775601190294765
 31
0.0
  0
LINE
  5
3887
  8
0
 10
115.4675920944357017
 20
68.9775601190294765
 30
0.0
 11
115.4675920944357017
 21
69.277560119029431
 31
0.0
  0
LINE
  5
3888
  8
0
 10
104.0925920944357017
 20
83.9775601190294765
 30
0.0
 11
104.0925920944357017
 21
69.277560119029431
 31
0.0
  0
LINE
  5
3889
  8
0
 10
117.0925920944357017
 20
69.277560119029431
 30
0.0
 11
117.0925920944357017
 21
83.9775601190294765
 31
0.0
  0
ARC
  5
388A
  8
0
 10
117.0925920944357017
 20
85.2275601190294765
 30
0.0
 40
1.25
 50
270.0
 51
0.0000008537736463
  0
ARC
  5
388B
  8
0
 10
104.0925920944357017
 20
85.2275601190294765
 30
0.0
 40
1.2499999999999989
 50
180.0
 51
270.0
  0
LINE
  5
388C
  8
0
 10
102.8425920944357017
 20
106.2275601190294054
 30
0.0
 11
102.8425920944357017
 21
85.2275601190294765
 31
0.0
  0
LINE
  5
388D
  8
0
 10
118.3425920944357017
 20
85.2275601190294765
 30
0.0
 11
118.3425920944357017
 21
106.2275601190294054
 31
0.0
  0
ARC
  5
388E
  8
0
 10
110.5925920944357017
 20
106.2275601190294054
 30
0.0
 40
7.7500000000000098
 50
0.0
 51
180.0
  0
LINE
  5
3891
  8
0
 10
117.0925920944357017
 20
69.277560119029431
 30
0.0
 11
104.0925920944357017
 21
69.277560119029431
 31
0.0
  0
LINE
  5
3892
  8
0
 10
117.0925920944357017
 20
83.9775601190294765
 30
0.0
 11
104.0925920944357017
 21
83.9775601190294765
 31
0.0
  0
LINE
  5
3893
  8
0
 10
118.3425920944357017
 20
85.2275601190294765
 30
0.0
 11
102.8425920944357017
 21
85.2275601190294765
 31
0.0
  0
LINE
  5
3894
  8
0
 10
118.3425920944357017
 20
106.2275601190294054
 30
0.0
 11
102.8425920944357017
 21
106.2275601190294054
 31
0.0
  0
LINE
  5
389E
  8
1
 10
110.5925920944357017
 20
32.9155049956232304
 30
0.0
 11
110.5925920944357017
 21
121.0396152424357012
 31
0.0
  0
ARC
  5
38A1
  8
0
 10
110.5925920944367959
 20
-148.3036898809843933
 30
0.0
 40
217.2812500000144951
 50
92.7698666204366447
 51
100.6167541506131045
  0
ARC
  5
38A2
  8
0
 10
110.5925920944359007
 20
-148.3036898809727973
 30
0.0
 40
217.281250000002899
 50
79.3832458493868955
 51
87.2301333795633553
  0
ARC
  5
38A3
  8
0
 10
70.8925920944357131
 20
63.488847998819999
 30
0.0
 40
1.8
 50
100.6167541506137013
 51
180.0
  0
ARC
  5
38A4
  8
0
 10
150.2925920944356903
 20
63.488847998819999
 30
0.0
 40
1.800000000000004
 50
0.0
 51
79.3832458493860713
  0
LINE
  5
38A5
  8
0
 10
152.0925920944357017
 20
50.1025601190294765
 30
0.0
 11
152.0925920944357017
 21
63.488847998819999
 31
0.0
  0
LINE
  5
38A6
  8
0
 10
69.0925920944357159
 20
63.488847998819999
 30
0.0
 11
69.0925920944357159
 21
50.1025601190294765
 31
0.0
  0
ARC
  5
38A7
  8
0
 10
70.2175920944357159
 20
50.1025601190294765
 30
0.0
 40
1.124999999999992
 50
180.0
 51
270.0
  0
ARC
  5
38A8
  8
0
 10
150.9675920944357017
 20
50.1025601190294765
 30
0.0
 40
1.124999999999994
 50
270.0
 51
0.0
  0
LINE
  5
38B9
  8
0
 10
123.5925920944357017
 20
40.177560119029522
 30
0.0
 11
123.5925920944357017
 21
48.9775601190294765
 31
0.0
  0
LINE
  5
38BC
  8
0
 10
97.5925920944357159
 20
48.9775601190294765
 30
0.0
 11
97.5925920944357159
 21
40.177560119029522
 31
0.0
  0
LINE
  5
38BD
  8
0
 10
119.5925920944357017
 20
39.9775601190294765
 30
0.0
 11
119.5925920944357017
 21
40.177560119029522
 31
0.0
  0
LINE
  5
38BE
  8
0
 10
101.5925920944357017
 20
40.177560119029522
 30
0.0
 11
101.5925920944357017
 21
39.9775601190294765
 31
0.0
  0
LINE
  5
38C1
  8
2
 10
114.5925920944357017
 20
39.9775601190294765
 30
0.0
 11
114.5925920944357017
 21
56.9775601190294765
 31
0.0
  0
LINE
  5
38C2
  8
2
 10
106.5925920944357017
 20
56.9775601190294765
 30
0.0
 11
106.5925920944357017
 21
39.9775601190294765
 31
0.0
  0
LINE
  5
38C8
  8
0
 10
104.5925920944357017
 20
68.9775601190294765
 30
0.0
 11
104.5925920944357017
 21
68.7237083929859409
 31
0.0
  0
LINE
  5
38D5
  8
0
 10
100.0925920944357017
 20
68.7237083929859409
 30
0.0
 11
121.0925920944487046
 21
68.7237083929859409
 31
0.0
  0
LINE
  5
38D7
  8
0
 10
116.597371252787795
 20
68.7237083929859409
 30
0.0
 11
121.0925920944357017
 21
68.7237083929859409
 31
0.0
  0
LINE
  5
38D8
  8
0
 10
70.5609623122621059
 20
65.258034729375936
 30
0.0
 11
150.6242218766093117
 21
65.258034729375936
 31
0.0
  0
LINE
  5
38DB
  8
0
 10
70.2175920944357159
 20
48.9775601190294765
 30
0.0
 11
150.9675920944357017
 21
48.9775601190294765
 31
0.0
  0
LINE
  5
38E2
  8
0
 10
97.5925920944357159
 20
40.177560119029522
 30
0.0
 11
123.5925920944357017
 21
40.177560119029522
 31
0.0
  0
LINE
  5
38E3
  8
0
 10
101.5925920944357017
 20
39.9775601190294765
 30
0.0
 11
119.5925920944357017
 21
39.9775601190294765
 31
0.0
  0
LINE
  5
38EB
  8
0
 10
116.5925920944357017
 20
68.9775601190294765
 30
0.0
 11
104.5925920944357017
 21
68.9775601190294765
 31
0.0
  0
POINT
  5
38FF
  8
0
 10
110.5925920944357017
 20
113.9775601190295049
 30
30.5
210
0.0
220
1.0
230
0.0
  0
LINE
  5
3F0B
  8
0
 10
116.5925920944357017
 20
68.977560119028908
 30
0.0
 11
116.5925920944356022
 21
68.7237083929853725
 31
0.0
  0
LINE
  5
3FD3
  8
2
 10
101.5925920944357017
 20
40.177560119029522
 30
0.0
 11
101.5925920944357017
 21
55.9775601190294765
 31
0.0
  0
LINE
  5
419A
  8
0
 10
261.3886448538730747
 20
170.0162526642155001
 30
0.0
 11
261.3886448538722789
 21
250.0795122285717866
 31
0.0
  0
LINE
  5
6029
  8
2
 10
121.0925920944357017
 20
67.9775601190295902
 30
0.0
 11
100.0925920944357017
 21
67.9775601190295902
 31
0.0
  0
LINE
  5
602A
  8
2
 10
121.0925920944357017
 20
68.7237083929859409
 30
0.0
 11
121.0925920944357017
 21
67.9775601190295902
 31
0.0
  0
LINE
  5
602B
  8
2
 10
100.0925920944357017
 20
68.7237083929859409
 30
0.0
 11
100.0925920944357017
 21
64.9775601190294765
 31
0.0
  0
LINE
  5
606E
  8
2
 10
101.0925920944357017
 20
64.9775601190294765
 30
0.0
 11
101.0925920944357017
 21
56.9775601190294765
 31
0.0
  0
LINE
  5
60D4
  8
2
 10
101.5925920944357017
 20
55.9775601190294765
 30
0.0
 11
102.5925920944357017
 21
55.9775601190294765
 31
0.0
  0
LINE
  5
60D6
  8
2
 10
102.5925920944357017
 20
55.9775601190294765
 30
0.0
 11
102.5925920944357017
 21
56.9775601190294765
 31
0.0
  0
LINE
  5
60D7
  8
2
 10
119.5925920944356022
 20
40.1775601190294935
 30
0.0
 11
119.5925920944356022
 21
55.977560119029441
 31
0.0
  0
LINE
  5
60D8
  8
2
 10
119.5925920944356022
 20
55.977560119029441
 30
0.0
 11
118.5925920944356022
 21
55.977560119029441
 31
0.0
  0
LINE
  5
60D9
  8
2
 10
118.5925920944356022
 20
55.977560119029441
 30
0.0
 11
118.5925920944356022
 21
56.9775601190294481
 31
0.0
  0
LINE
  5
630D
  8
2
 10
120.0925920944357017
 20
64.9775601190294765
 30
0.0
 11
120.0925920944357017
 21
56.9775601190294765
 31
0.0
  0
LINE
  5
630E
  8
2
 10
100.0925920944357017
 20
64.9775601190294765
 30
0.0
 11
121.0925920944356022
 21
64.9775601190293912
 31
0.0
  0
LINE
  5
630F
  8
2
 10
101.0925920944357017
 20
56.9775601190294765
 30
0.0
 11
120.0925920944357017
 21
56.9775601190294978
 31
0.0
  0
LINE
  5
6369
  8
2
 10
121.0925920944357017
 20
68.7237083929858557
 30
0.0
 11
121.0925920944356022
 21
64.9775601190293912
 31
0.0
  0
LINE
  5
64A8
  8
2
 10
286.6691194642190794
 20
214.0478824463959029
 30
0.0
 11
269.6691194642190794
 21
214.0478824463959029
 31
0.0
  0
LINE
  5
64A9
  8
2
 10
269.6691194642190794
 20
206.0478824463959029
 30
0.0
 11
286.6691194642190794
 21
206.0478824463959029
 31
0.0
  0
LINE
  5
64B2
  8
2
 10
286.4691194642189771
 20
201.0478824463959029
 30
0.0
 11
270.6691194642190794
 21
201.0478824463959029
 31
0.0
  0
LINE
  5
64B3
  8
2
 10
258.6691194642189089
 20
220.5478824463959029
 30
0.0
 11
258.6691194642189089
 21
199.5478824463959029
 31
0.0
  0
LINE
  5
64B4
  8
2
 10
257.922971190262615
 20
220.5478824463959029
 30
0.0
 11
258.6691194642189089
 21
220.5478824463959029
 31
0.0
  0
LINE
  5
64B5
  8
2
 10
257.922971190262615
 20
199.5478824463959029
 30
0.0
 11
261.6691194642190794
 21
199.5478824463959029
 31
0.0
  0
LINE
  5
64B6
  8
2
 10
261.6691194642190794
 20
200.5478824463959029
 30
0.0
 11
269.6691194642190794
 21
200.5478824463959029
 31
0.0
  0
LINE
  5
64B7
  8
2
 10
270.6691194642190794
 20
201.0478824463959029
 30
0.0
 11
270.6691194642190794
 21
202.0478824463959029
 31
0.0
  0
LINE
  5
64B8
  8
2
 10
270.6691194642190794
 20
202.0478824463959029
 30
0.0
 11
269.6691194642190794
 21
202.0478824463959029
 31
0.0
  0
LINE
  5
64B9
  8
2
 10
286.4691194642189771
 20
219.0478824463957892
 30
0.0
 11
270.6691194642190794
 21
219.0478824463957892
 31
0.0
  0
LINE
  5
64BA
  8
2
 10
270.6691194642190794
 20
219.0478824463957892
 30
0.0
 11
270.6691194642190794
 21
218.0478824463957892
 31
0.0
  0
LINE
  5
64BB
  8
2
 10
270.6691194642190794
 20
218.0478824463957892
 30
0.0
 11
269.6691194642190794
 21
218.0478824463957892
 31
0.0
  0
LINE
  5
64BD
  8
2
 10
261.6691194642190794
 20
219.5478824463957892
 30
0.0
 11
269.6691194642190794
 21
219.5478824463957892
 31
0.0
  0
LINE
  5
64BE
  8
2
 10
261.6691194642190794
 20
199.5478824463959029
 30
0.0
 11
261.6691194642191931
 21
220.5478824463957892
 31
0.0
  0
LINE
  5
64BF
  8
2
 10
269.6691194642190794
 20
200.5478824463959029
 30
0.0
 11
269.6691194642190226
 21
219.5478824463957892
 31
0.0
  0
LINE
  5
64C0
  8
2
 10
257.9229711902626718
 20
220.5478824463959029
 30
0.0
 11
261.6691194642191931
 21
220.5478824463957892
 31
0.0
  0
TEXT
  5
89F6
  8
0
 62
     3
 10
0.0
 20
0.0
 30
0.0
 40
10.0
  1
EDHN80R-M
  7
STANDARD1
  0
LINE
  5
8AC5
  8
1
 10
281.6691194642190794
 20
225.0478824463959029
 30
0.0
 11
281.6691194642190794
 21
212.0543460802963978
 31
-0.0000000000000071
  0
CIRCLE
  5
8AC6
  8
2
 10
110.5925920944357017
 20
210.0478824463959882
 30
0.0
 40
9.0
  0
CIRCLE
  5
8AC7
  8
2
 10
110.5925920944357017
 20
210.0478824463959029
 30
0.0
 40
4.0
  0
CIRCLE
  5
8ADE
  8
2
 10
110.5925920944357017
 20
210.0478824463959882
 30
0.0
 40
13.0
  0
LINE
  5
8D15
  8
2
 10
283.2901194642188898
 20
214.0478824463959029
 30
-0.0000000000000046
 11
283.2901194642187761
 21
219.0478824463957892
 31
-0.0000000000000046
  0
LINE
  5
8D16
  8
2
 10
280.0481194642193259
 20
214.0478824463959029
 30
-0.0000000000000046
 11
280.0481194642193259
 21
219.0478824463957892
 31
-0.0000000000000046
  0
LINE
  5
8D17
  8
2
 10
279.6691194642190794
 20
214.0478824463959029
 30
-0.0000000000000046
 11
279.6691194642190794
 21
219.0478824463957892
 31
-0.0000000000000046
  0
LINE
  5
8D18
  8
2
 10
283.6691194642190794
 20
214.0478824463959029
 30
-0.0000000000000046
 11
283.6691194642190794
 21
219.0478824463957892
 31
-0.0000000000000046
  0
LINE
  5
8D19
  8
2
 10
279.1691194642190794
 20
222.0478824463959029
 30
-0.0000000000000046
 11
279.1691194642190794
 21
219.0478824463957892
 31
-0.0000000000000046
  0
LINE
  5
8D1A
  8
2
 10
278.1691194642190794
 20
223.0478824463959029
 30
-0.0000000000000046
 11
279.1691194642190794
 21
222.0478824463959029
 31
-0.0000000000000046
  0
LINE
  5
8D1B
  8
2
 10
284.1691194642190794
 20
222.0478824463959029
 30
0.0000000000000025
 11
285.1691194642190794
 21
223.0478824463959029
 31
0.0000000000000025
  0
LINE
  5
8D1C
  8
2
 10
279.1691194642190794
 20
222.0478824463959029
 30
-0.0000000000000046
 11
284.1691194642190794
 21
222.0478824463959029
 31
-0.0000000000000046
  0
LINE
  5
8D1D
  8
2
 10
284.1691194642190794
 20
222.0478824463959029
 30
-0.0000000000000046
 11
284.1691194642190226
 21
219.0478824463957892
 31
-0.0000000000000046
  0
LINE
  5
8D20
  8
2
 10
112.2135920944354979
 20
213.7047060680654909
 30
-0.0000000000000046
 11
112.2135920944354979
 21
218.9006988908955122
 31
-0.0000000000000046
  0
LINE
  5
8D21
  8
2
 10
108.9715920944359056
 20
213.7047060680654909
 30
-0.0000000000000046
 11
108.9715920944359056
 21
218.9006988908955122
 31
-0.0000000000000046
  0
LINE
  5
8D22
  8
2
 10
108.5925920944357017
 20
213.5119840615336955
 30
-0.0000000000000046
 11
108.5925920944357017
 21
218.8228468337881054
 31
-0.0000000000000046
  0
LINE
  5
8D23
  8
2
 10
112.5925920944357017
 20
213.5119840615336955
 30
-0.0000000000000046
 11
112.5925920944357017
 21
218.8228468337881054
 31
-0.0000000000000046
  0
LINE
  5
8D24
  8
2
 10
108.0925920944357017
 20
222.0478824463959029
 30
-0.0000000000000046
 11
108.0925920944357017
 21
218.6936906792913078
 31
-0.0000000000000046
  0
LINE
  5
8D25
  8
2
 10
107.4725539750870951
 20
222.6679205657445948
 30
-0.0000000000000046
 11
108.0925920944357017
 21
222.0478824463959029
 31
-0.0000000000000046
  0
LINE
  5
8D26
  8
2
 10
113.0925920944357017
 20
222.0478824463959029
 30
0.0000000000000025
 11
113.7126302137843936
 21
222.6679205657445948
 31
0.0000000000000025
  0
LINE
  5
8D27
  8
2
 10
108.0925920944357017
 20
222.0478824463959029
 30
-0.0000000000000046
 11
113.0925920944357017
 21
222.0478824463959029
 31
-0.0000000000000046
  0
LINE
  5
8D28
  8
2
 10
113.0925920944357017
 20
222.0478824463959029
 30
-0.0000000000000046
 11
113.0925920944356022
 21
218.6936906792913078
 31
-0.0000000000000046
  0
ENDSEC
  0
EOF
