  0
SECTION
  2
HEADER
  9
$ACADVER
  1
AC1009
  9
$INSBASE
 10
0.0
 20
0.0
 30
0.0
  9
$EXTMIN
 10
0.0
 20
-2.960436562073669
 30
-0.0000000000000036
  9
$EXTMAX
 10
490.1231546396650174
 20
280.3821949769031789
 30
0.0000000000000036
  9
$LIMMIN
 10
0.0
 20
0.0
  9
$LIMMAX
 10
750.0
 20
540.0
  9
$ORTHOMODE
 70
     1
  9
$REGENMODE
 70
     1
  9
$FILLMODE
 70
     1
  9
$QTEXTMODE
 70
     0
  9
$MIRRTEXT
 70
     0
  9
$DRAGMODE
 70
     2
  9
$LTSCALE
 40
20.0
  9
$OSMODE
 70
    37
  9
$ATTMODE
 70
     1
  9
$TEXTSIZE
 40
0.2
  9
$TRACEWID
 40
0.05
  9
$TEXTSTYLE
  7
STANDARD
  9
$CLAYER
  8
0
  9
$CELTYPE
  6
BYLAYER
  9
$CECOLOR
 62
   256
  9
$DIMSCALE
 40
1.0
  9
$DIMASZ
 40
3.0
  9
$DIMEXO
 40
2.0
  9
$DIMDLI
 40
0.3799999999999999
  9
$DIMRND
 40
0.0
  9
$DIMDLE
 40
0.0
  9
$DIMEXE
 40
2.0
  9
$DIMTP
 40
0.0
  9
$DIMTM
 40
0.0
  9
$DIMTXT
 40
3.0
  9
$DIMCEN
 40
0.09
  9
$DIMTSZ
 40
0.0
  9
$DIMTOL
 70
     0
  9
$DIMLIM
 70
     0
  9
$DIMTIH
 70
     0
  9
$DIMTOH
 70
     0
  9
$DIMSE1
 70
     0
  9
$DIMSE2
 70
     0
  9
$DIMTAD
 70
     1
  9
$DIMZIN
 70
     8
  9
$DIMBLK
  1

  9
$DIMASO
 70
     1
  9
$DIMSHO
 70
     0
  9
$DIMPOST
  1

  9
$DIMAPOST
  1

  9
$DIMALT
 70
     0
  9
$DIMALTD
 70
     2
  9
$DIMALTF
 40
25.3999999999999986
  9
$DIMLFAC
 40
1.0
  9
$DIMTOFL
 70
     0
  9
$DIMTVP
 40
1.6000000000000001
  9
$DIMTIX
 70
     1
  9
$DIMSOXD
 70
     0
  9
$DIMSAH
 70
     0
  9
$DIMBLK1
  1

  9
$DIMBLK2
  1

  9
$DIMSTYLE
  2
STANDARD
  9
$DIMCLRD
 70
     0
  9
$DIMCLRE
 70
     0
  9
$DIMCLRT
 70
     0
  9
$DIMTFAC
 40
1.0
  9
$DIMGAP
 40
1.5
  9
$LUNITS
 70
     2
  9
$LUPREC
 70
     1
  9
$SKETCHINC
 40
0.1
  9
$FILLETRAD
 40
0.2
  9
$AUNITS
 70
     0
  9
$AUPREC
 70
     0
  9
$MENU
  1
E:\r13\win\SUPPORT\ACAD
  9
$ELEVATION
 40
0.0
  9
$PELEVATION
 40
0.0
  9
$THICKNESS
 40
0.0
  9
$LIMCHECK
 70
     0
  9
$BLIPMODE
 70
     0
  9
$CHAMFERA
 40
0.0
  9
$CHAMFERB
 40
0.0
  9
$SKPOLY
 70
     0
  9
$TDCREATE
 40
2449839.780729167163372
  9
$TDUPDATE
 40
2460263.6914930557832122
  9
$TDINDWG
 40
0.6578156713
  9
$TDUSRTIMER
 40
0.6578156713
  9
$USRTIMER
 70
     1
  9
$ANGBASE
 50
0.0
  9
$ANGDIR
 70
     0
  9
$PDMODE
 70
     0
  9
$PDSIZE
 40
0.0
  9
$PLINEWID
 40
0.0
  9
$COORDS
 70
     1
  9
$SPLFRAME
 70
     0
  9
$SPLINETYPE
 70
     6
  9
$SPLINESEGS
 70
     8
  9
$ATTDIA
 70
     1
  9
$ATTREQ
 70
     1
  9
$HANDLING
 70
     1
  9
$HANDSEED
  5
A30F
  9
$SURFTAB1
 70
     6
  9
$SURFTAB2
 70
     6
  9
$SURFTYPE
 70
     6
  9
$SURFU
 70
     6
  9
$SURFV
 70
     6
  9
$UCSNAME
  2

  9
$UCSORG
 10
0.0
 20
0.0
 30
0.0
  9
$UCSXDIR
 10
1.0
 20
0.0
 30
0.0
  9
$UCSYDIR
 10
0.0
 20
1.0
 30
0.0
  9
$PUCSNAME
  2

  9
$PUCSORG
 10
0.0
 20
0.0
 30
0.0
  9
$PUCSXDIR
 10
1.0
 20
0.0
 30
0.0
  9
$PUCSYDIR
 10
0.0
 20
1.0
 30
0.0
  9
$USERI1
 70
     0
  9
$USERI2
 70
     1
  9
$USERI3
 70
     1
  9
$USERI4
 70
     0
  9
$USERI5
 70
     0
  9
$USERR1
 40
0.0
  9
$USERR2
 40
0.0
  9
$USERR3
 40
0.0
  9
$USERR4
 40
0.0
  9
$USERR5
 40
0.0
  9
$WORLDVIEW
 70
     1
  9
$SHADEDGE
 70
     3
  9
$SHADEDIF
 70
    70
  9
$TILEMODE
 70
     1
  9
$MAXACTVP
 70
    16
  9
$PLIMCHECK
 70
     0
  9
$PEXTMIN
 10
1.0000000000000000E+20
 20
1.0000000000000000E+20
 30
1.0000000000000000E+20
  9
$PEXTMAX
 10
-1.0000000000000000E+20
 20
-1.0000000000000000E+20
 30
-1.0000000000000000E+20
  9
$PLIMMIN
 10
0.0
 20
0.0
  9
$PLIMMAX
 10
12.0
 20
9.0
  9
$UNITMODE
 70
     0
  9
$VISRETAIN
 70
     0
  9
$PLINEGEN
 70
     0
  9
$PSLTSCALE
 70
     0
  0
ENDSEC
  0
SECTION
  2
TABLES
  0
TABLE
  2
VPORT
 70
     1
  0
VPORT
  2
*ACTIVE
 70
     0
 10
0.0
 20
0.0
 11
1.0
 21
1.0
 12
587.130541871921082
 22
250.0
 13
0.0
 23
0.0
 14
20.0
 24
20.0
 15
20.0
 25
20.0
 16
0.0
 26
0.0
 36
1.0
 17
0.0
 27
0.0
 37
0.0
 40
500.0
 41
2.3485221674876842
 42
50.0
 43
0.0
 44
0.0
 50
0.0
 51
0.0
 71
     0
 72
   500
 73
     1
 74
     0
 75
     0
 76
     0
 77
     0
 78
     0
  0
ENDTAB
  0
TABLE
  2
LTYPE
 70
     4
  0
LTYPE
  2
CONTINUOUS
 70
     0
  3
Solid Line
 72
    65
 73
     0
 40
0.0
  0
LTYPE
  2
CENTER
 70
     0
  3
____ _ ____ _ ____ _ ____ _ ____ _ ____ _ ____
 72
    65
 73
     4
 40
2.0
 49
1.25
 49
-0.25
 49
0.25
 49
-0.25
  0
LTYPE
  2
HIDDEN
 70
     0
  3
Hidden __ __ __ __ __ __ __ __ __ __ __ __ __ _
 72
    65
 73
     2
 40
0.375
 49
0.25
 49
-0.125
  0
LTYPE
  2
PHANTOM2
 70
     0
  3
___ _ _ ___ _ _ ___ _ _ ___ _ _
 72
    65
 73
     6
 40
1.25
 49
0.625
 49
-0.125
 49
0.125
 49
-0.125
 49
0.125
 49
-0.125
  0
ENDTAB
  0
TABLE
  2
LAYER
 70
     4
  0
LAYER
  2
0
 70
     0
 62
     7
  6
CONTINUOUS
  0
LAYER
  2
1
 70
     0
 62
     1
  6
CENTER
  0
LAYER
  2
2
 70
     0
 62
     2
  6
HIDDEN
  0
LAYER
  2
DEFPOINTS
 70
     0
 62
     7
  6
CONTINUOUS
  0
ENDTAB
  0
TABLE
  2
STYLE
 70
     2
  0
STYLE
  2
STANDARD
 70
     0
 40
0.0
 41
1.0
 50
0.0
 71
     0
 42
0.2
  3
TXT
  4
BIGFONT
  0
STYLE
  2
STANDARD1
 70
     0
 40
0.0
 41
1.0
 50
0.0
 71
     0
 42
3.0
  3
txt
  4

  0
ENDTAB
  0
TABLE
  2
VIEW
 70
     1
  0
VIEW
  2
ALL
 70
     0
 40
540.0
 10
441.9831932773108747
 20
270.0
 41
0.0
 11
0.0
 21
0.0
 31
1.0
 12
0.0
 22
0.0
 32
0.0
 42
0.0
 43
0.0
 44
0.0
 50
0.0
 71
     0
  0
ENDTAB
  0
TABLE
  2
UCS
 70
     0
  0
ENDTAB
  0
TABLE
  2
APPID
 70
    11
  0
APPID
  2
ACAD
 70
     0
  0
APPID
  2
ACAD_EXEMPT_FROM_CAD_STANDARDS
 70
     0
  0
APPID
  2
ACAD_DSTYLE_DIMJAG
 70
     0
  0
APPID
  2
ACAD_DSTYLE_DIMTALN
 70
     0
  0
APPID
  2
ACAD_MLEADERVER
 70
     0
  0
APPID
  2
GENIUS_GENODEF_13
 70
     0
  0
APPID
  2
GENIUS_GENOBJ-N-FIL_13
 70
     0
  0
APPID
  2
GENIUS_GENOREF_13
 70
     0
  0
APPID
  2
ACAD_PSEXT
 70
     0
  0
APPID
  2
ACAD_DSTYLE_DIMRADIAL_EXTENSION
 70
     0
  0
APPID
  2
ACAD_NAV_VCDISPLAY
 70
     0
  0
ENDTAB
  0
TABLE
  2
DIMSTYLE
 70
     1
  0
DIMSTYLE
  2
STANDARD
 70
     0
  3

  4

  5

  6

  7

 40
1.0
 41
0.18
 42
0.0625
 43
0.38
 44
0.18
 45
0.0
 46
0.0
 47
0.0
 48
0.0
140
0.18
141
0.09
142
0.0
143
25.3999999999999986
144
1.0
145
0.0
146
1.0
147
0.09
 71
     0
 72
     0
 73
     1
 74
     1
 75
     0
 76
     0
 77
     0
 78
     0
170
     0
171
     2
172
     0
173
     0
174
     0
175
     0
176
     0
177
     0
178
     0
  0
ENDTAB
  0
ENDSEC
  0
SECTION
  2
BLOCKS
  0
BLOCK
  8
0
  2
$MODEL_SPACE
 70
     0
 10
0.0
 20
0.0
 30
0.0
  3
$MODEL_SPACE
  1

  0
ENDBLK
  5
13C
  8
0
  0
BLOCK
 67
     1
  8
0
  2
$PAPER_SPACE
 70
     0
 10
0.0
 20
0.0
 30
0.0
  3
$PAPER_SPACE
  1

  0
ENDBLK
  5
13A
 67
     1
  8
0
  0
ENDSEC
  0
SECTION
  2
ENTITIES
  0
CIRCLE
  5
9121
  8
0
 10
202.2859804844979124
 20
257.3926957304415737
 30
0.0
 40
7.7500000000000071
  0
CIRCLE
  5
9122
  8
0
 10
202.2859804844979124
 20
229.3926957304416021
 30
0.0
 40
41.5000000000000071
  0
LINE
  5
9123
  8
1
 10
318.2900584649300981
 20
257.3926957304415168
 30
0.0
 11
353.9240156934566244
 21
257.3926957304415168
 31
0.0
  0
LINE
  5
9124
  8
0
 10
339.4342738007870253
 20
250.3926957304414884
 30
0.0
 11
339.9812234730819114
 21
250.3926957304414884
 31
0.0
  0
LINE
  5
9125
  8
0
 10
332.2352567806669867
 20
250.3926957304414884
 30
0.0
 11
332.7822064529618729
 21
250.3926957304414884
 31
0.0
  0
CIRCLE
  5
9127
  8
0
 10
336.1082401268744775
 20
229.3926957304414884
 30
0.0
 40
41.5000000000000071
  0
LINE
  5
9128
  8
1
 10
336.1082401268744775
 20
280.3821949769031221
 30
0.0
 11
336.1082401268744775
 21
178.4031964839799116
 31
0.0
  0
LINE
  5
9129
  8
1
 10
285.1187408804129859
 20
229.3926957304414884
 30
0.0
 11
387.0977393733360259
 21
229.3926957304414884
 31
0.0
  0
ARC
  5
912A
  8
0
 10
336.1082401268744775
 20
213.1426957304414884
 30
0.0
 40
7.7500000000000027
 50
180.0
 51
0.0
  0
LINE
  5
912B
  8
0
 10
328.3582401268744775
 20
232.8226957304414952
 30
0.0
 11
328.3582401268744775
 21
213.1426957304414884
 31
0.0
  0
LINE
  5
912C
  8
0
 10
343.8582401268745912
 20
213.1426957304414884
 30
0.0
 11
343.8582401268745912
 21
232.8226957304414952
 31
0.0
  0
ARC
  5
912D
  8
0
 10
341.2882401268744275
 20
232.8226957304414952
 30
0.0
 40
2.5699999999999958
 50
0.0
 51
62.0389257507962384
  0
ARC
  5
912E
  8
0
 10
330.9282401268745275
 20
232.8226957304414952
 30
0.0
 40
2.569999999999999
 50
117.9610742492037048
 51
180.0
  0
LINE
  5
912F
  8
0
 10
329.723240126874316
 20
250.1926957304414998
 30
0.0
 11
329.723240126874316
 21
235.0926902238267928
 31
0.0
  0
LINE
  5
9130
  8
0
 10
342.4932401268745252
 20
235.0926902238269065
 30
0.0
 11
342.4932401268745252
 21
250.1926957304414998
 31
0.0
  0
ARC
  5
9131
  8
0
 10
342.2932401268744798
 20
250.1926957304414998
 30
0.0
 40
0.1999999999999886
 50
0.0
 51
90.0
  0
LINE
  5
9132
  8
0
 10
343.8582401268745912
 20
213.1426957304414884
 30
0.0
 11
328.3582401268744775
 21
213.1426957304414884
 31
0.0
  0
LINE
  5
9133
  8
0
 10
343.8582401268745912
 20
232.8226957304414952
 30
0.0
 11
328.3582401268744775
 21
232.8226957304414952
 31
0.0
  0
LINE
  5
9134
  8
0
 10
342.4932401268745252
 20
235.0926902238267928
 30
0.0
 11
329.723240126874316
 21
235.0926902238267928
 31
0.0
  0
LINE
  5
9135
  8
0
 10
342.2932401268744798
 20
250.3926957304414884
 30
0.0
 11
329.9232401268745889
 21
250.3926957304414884
 31
0.0
  0
ARC
  5
9136
  8
0
 10
108.1582590036823035
 20
257.3926957304415737
 30
0.0
 40
7.7500000000000027
 50
270.0
 51
90.0
  0
LINE
  5
9137
  8
0
 10
88.4782590036822967
 20
265.1426957304415737
 30
0.0
 11
108.1582590036823035
 21
265.1426957304415737
 31
0.0
  0
LINE
  5
9138
  8
0
 10
108.1582590036823035
 20
249.6426957304416021
 30
0.0
 11
88.4782590036822967
 21
249.6426957304416021
 31
0.0
  0
ARC
  5
9139
  8
0
 10
88.4782590036822967
 20
252.212695730441709
 30
0.0
 40
2.5699999999999958
 50
207.9610742492025963
 51
270.0
  0
ARC
  5
913A
  8
0
 10
88.4782590036822967
 20
262.5726957304416942
 30
0.0
 40
2.569999999999999
 50
90.0
 51
152.038925750797091
  0
LINE
  5
913B
  8
0
 10
71.1082590036824058
 20
263.7776957304416783
 30
0.0
 11
86.2082645102969849
 21
263.7776957304416783
 31
0.0
  0
LINE
  5
913C
  8
0
 10
86.2082645102968854
 20
251.0076957304416112
 30
0.0
 11
71.1082590036824058
 21
251.0076957304416112
 31
0.0
  0
ARC
  5
913D
  8
0
 10
71.1082590036824058
 20
251.2076957304415998
 30
0.0
 40
0.1999999999999886
 50
180.0
 51
270.0
  0
ARC
  5
913E
  8
0
 10
71.1082590036824058
 20
263.577695730441576
 30
0.0
 40
0.1999999999999815
 50
90.0
 51
180.0
  0
LINE
  5
913F
  8
0
 10
69.9089913365844353
 20
262.4238803225237007
 30
0.0
 11
70.9082590036823603
 21
262.5643182345488071
 31
0.0
  0
LINE
  5
9140
  8
0
 10
70.9082590036823603
 20
252.2210732263343971
 30
0.0
 11
69.9082590036823603
 21
252.3616140610367893
 31
0.0
  0
LINE
  5
9141
  8
0
 10
108.1582590036823035
 20
249.6426957304416021
 30
0.0
 11
108.1582590036823035
 21
265.1426957304415737
 31
0.0
  0
LINE
  5
9142
  8
0
 10
88.4782590036822967
 20
249.6426957304416021
 30
0.0
 11
88.4782590036822967
 21
265.1426957304415737
 31
0.0
  0
LINE
  5
9143
  8
0
 10
86.2082645102969849
 20
251.0076957304416112
 30
0.0
 11
86.2082645102969849
 21
263.7776957304416783
 31
0.0
  0
LINE
  5
9144
  8
0
 10
70.9082590036823603
 20
251.2076957304415998
 30
0.0
 11
70.9082590036823603
 21
263.577695730441576
 31
0.0
  0
LINE
  5
9145
  8
0
 10
69.2082590036823149
 20
265.3926957304415737
 30
0.0
 11
69.9082590036823603
 21
264.6926957304415851
 31
0.0
  0
LINE
  5
9146
  8
0
 10
67.0251421205655333
 20
265.3926957304415737
 30
0.0
 11
69.2082590036823149
 21
265.3926957304415737
 31
0.0
  0
LINE
  5
9147
  8
0
 10
69.9082590036823603
 20
251.8926957304416021
 30
0.0
 11
69.9082590036823603
 21
264.6926957304415851
 31
0.0
  0
LINE
  5
9148
  8
0
 10
69.9082590036823603
 20
221.1426957304416021
 30
0.0
 11
66.7984036827710952
 21
191.2103382666701066
 31
0.0
  0
LINE
  5
9149
  8
0
 10
52.7207590036823603
 20
270.8926957304416874
 30
0.0
 11
63.1182130939700983
 21
270.8926957304416874
 31
0.0
  0
LINE
  5
914A
  8
0
 10
63.118213093970212
 20
187.8926957304416021
 30
0.0
 11
52.7207590036823603
 21
187.8926957304416021
 31
0.0
  0
ARC
  5
914B
  8
0
 10
52.7207590036823603
 20
190.2051957304416021
 30
0.0
 40
2.312499999999992
 50
180.0
 51
270.0
  0
ARC
  5
914C
  8
0
 10
52.7207590036823603
 20
268.5801957304415737
 30
0.0
 40
2.3125000000000071
 50
90.0
 51
180.0
  0
LINE
  5
914D
  8
0
 10
32.1082590036824129
 20
241.8926957304416021
 30
0.0
 11
50.4082590036823603
 21
241.8926957304416021
 31
0.0
  0
LINE
  5
914E
  8
0
 10
50.4082590036823603
 20
216.8926957304416021
 30
0.0
 11
32.1082590036824129
 21
216.8926957304416021
 31
0.0
  0
LINE
  5
914F
  8
0
 10
31.9082590036823603
 20
238.3926957304416021
 30
0.0
 11
32.1082590036824129
 21
238.3926957304416021
 31
0.0
  0
LINE
  5
9150
  8
0
 10
32.1082590036824129
 20
220.3926957304416021
 30
0.0
 11
31.9082590036823603
 21
220.3926957304416021
 31
0.0
  0
ARC
  5
9151
  8
0
 10
63.118213093970212
 20
191.5926957304417044
 30
0.0
 40
3.7000000000000162
 50
270.0000008537735994
 51
354.0684730750800213
  0
ARC
  5
9152
  8
0
 10
63.1182130939700983
 20
267.1926957304416987
 30
0.0
 40
3.7000000000000171
 50
5.9315269249199902
 51
89.999999146226358
  0
LINE
  5
9153
  8
0
 10
69.9082590036823603
 20
221.1426957304416021
 30
0.0
 11
69.9082590036823603
 21
237.6426957304416021
 31
0.0
  0
LINE
  5
9154
  8
0
 10
50.4082590036823603
 20
190.2051957304416021
 30
0.0
 11
50.4082590036823603
 21
268.5801957304415737
 31
0.0
  0
LINE
  5
9155
  8
0
 10
32.1082590036824129
 20
216.8926957304416021
 30
0.0
 11
32.1082590036824129
 21
241.8926957304416021
 31
0.0
  0
LINE
  5
9156
  8
0
 10
31.9082590036823603
 20
220.3926957304416021
 30
0.0
 11
31.9082590036823603
 21
238.3926957304416021
 31
0.0
  0
LINE
  5
9157
  8
0
 10
66.7984036827709815
 20
191.2103382666701066
 30
0.0
 11
66.7984036827709815
 21
267.5750027467985888
 31
0.0
  0
ARC
  5
9158
  8
0
 10
329.9232401268743047
 20
250.1926957304411019
 30
0.0
 40
0.1999999999999886
 50
90.0
 51
180.0000000000032117
  0
CIRCLE
  5
9159
  8
0
 10
202.2859804844979124
 20
229.3926957304416021
 30
0.0
 40
38.1823574637715168
  0
ARC
  5
915A
  8
0
 10
336.1082401268744775
 20
203.7103382666699076
 30
0.0
 40
10.0
 50
180.0
 51
0.0
  0
CIRCLE
  5
915B
  8
0
 10
336.1082401268744775
 20
229.3926957304414884
 30
0.0
 40
38.1823574637715524
  0
LINE
  5
915C
  8
0
 10
327.5239325807269779
 20
257.5028020352073099
 30
0.0
 11
326.1082401268744775
 21
203.7103382666699076
 31
0.0
  0
LINE
  5
915D
  8
0
 10
344.6925801812296868
 20
257.5020572526353249
 30
0.0
 11
346.1082401268745912
 21
203.7103382666699076
 31
0.0
  0
LINE
  5
915E
  8
0
 10
330.9366176227673009
 20
250.3926957304414884
 30
0.0
 11
331.3582401268745912
 21
253.3926957304414032
 31
0.0
  0
LINE
  5
915F
  8
0
 10
331.3582401268745912
 20
253.3926957304414032
 30
0.0
 11
340.8582401268744775
 21
253.3926957304414032
 31
0.0
  0
LINE
  5
9160
  8
0
 10
334.7582401268746253
 20
259.6352582893787826
 30
0.0
 11
334.7582401268746253
 21
253.3926957304414032
 31
0.0
  0
LINE
  5
9161
  8
0
 10
341.2798626309815972
 20
250.3926957304414884
 30
0.0
 11
340.8582401268744775
 21
253.3926957304414032
 31
0.0
  0
LINE
  5
9162
  8
0
 10
337.4582401268745002
 20
259.6352582893787826
 30
0.0
 11
337.4582401268745002
 21
253.3926957304414032
 31
0.0
  0
ARC
  5
9163
  8
0
 10
336.107037079193276
 20
257.3926957789248036
 30
0.0
 40
4.5
 50
299.8933168199737906
 51
240.1095406085046022
  0
ARC
  5
9164
  8
0
 10
336.1070370760767219
 20
257.3926239364121216
 30
0.0
 40
8.1014999999999997
 50
307.7300290720468752
 51
232.2699709279530111
  0
LINE
  5
9165
  8
0
 10
337.4582401268745002
 20
259.6352582893787826
 30
0.0
 11
334.7582401268746253
 21
259.6352582893787826
 31
0.0
  0
ARC
  5
9166
  8
0
 10
336.1082401239792148
 20
257.127675052892414
 30
0.0
 40
8.5924999999999994
 50
2.497214172256522
 51
177.4978148016033117
  0
LINE
  5
9167
  8
1
 10
184.4677988225533909
 20
257.3926957304415737
 30
0.0
 11
220.1017560510800024
 21
257.3926957304415737
 31
0.0
  0
LINE
  5
9169
  8
1
 10
202.2859804844979124
 20
280.3821949769031789
 30
0.0
 11
202.2859804844979124
 21
178.4031964839799969
 31
0.0
  0
LINE
  5
916A
  8
1
 10
151.2964812380363071
 20
229.3926957304416021
 30
0.0
 11
253.2754797309594039
 21
229.3926957304416021
 31
0.0
  0
ARC
  5
916B
  8
0
 10
202.2859804844977134
 20
203.7103382666699929
 30
0.0
 40
10.0
 50
180.0
 51
0.0
  0
LINE
  5
916C
  8
0
 10
193.7016729383502138
 20
257.5028020352074236
 30
0.0
 11
192.2859804844977134
 21
203.7103382666699929
 31
0.0
  0
LINE
  5
916D
  8
0
 10
210.8703205388530932
 20
257.5020572526354954
 30
0.0
 11
212.2859804844977987
 21
203.7103382666699929
 31
0.0
  0
ARC
  5
916E
  8
0
 10
202.2859804816025928
 20
257.1276750528925277
 30
0.0
 40
8.5924999999999994
 50
2.497214172256522
 51
177.4978148016033117
  0
CIRCLE
  5
916F
  8
0
 10
202.2859804844979124
 20
229.3926957304416021
 30
0.0
 40
8.2500000000000071
  0
LINE
  5
9170
  8
0
 10
66.7984088680884724
 20
267.5750032855327731
 30
0.0
 11
69.9082590036823603
 21
237.6426957304416021
 31
0.0
  0
POLYLINE
  5
9171
  8
0
 66
     1
 10
0.0
 20
0.0
 30
0.0
  0
VERTEX
  5
A2B9
  8
0
 10
69.9082590036823603
 20
251.8926957304416021
 30
0.0
  0
VERTEX
  5
A2BA
  8
0
 10
69.9079897649507984
 20
251.8642766575275118
 30
0.0
  0
VERTEX
  5
A2BB
  8
0
 10
69.9058137905935837
 20
251.8070822957519113
 30
0.0
  0
VERTEX
  5
A2BC
  8
0
 10
69.9014021448297171
 20
251.7494352681900125
 30
0.0
  0
VERTEX
  5
A2BD
  8
0
 10
69.8983363734903236
 20
251.7204475606804976
 30
0.0
  0
VERTEX
  5
A2BE
  8
0
 10
69.8946843693862547
 20
251.6913511695709929
 30
0.0
  0
VERTEX
  5
A2BF
  8
0
 10
69.8855769939208358
 20
251.6328273873947978
 30
0.0
  0
VERTEX
  5
A2C0
  8
0
 10
69.8739778809125482
 20
251.5738412606106067
 30
0.0
  0
VERTEX
  5
A2C1
  8
0
 10
69.8597597006100841
 20
251.5143496893383031
 30
0.0
  0
VERTEX
  5
A2C2
  8
0
 10
69.8425411849161719
 20
251.4535663365321909
 30
0.0
  0
VERTEX
  5
A2C3
  8
0
 10
69.8212259117074154
 20
251.3891835490333904
 30
0.0
  0
VERTEX
  5
A2C4
  8
0
 10
69.8089133031053279
 20
251.3558833484046033
 30
0.0
  0
VERTEX
  5
A2C5
  8
0
 10
69.8067513443709231
 20
251.3502759916455886
 30
0.0
  0
VERTEX
  5
A2C6
  8
0
 10
69.8023325438265232
 20
251.3390180582622122
 30
0.0
  0
VERTEX
  5
A2C7
  8
0
 10
69.7977868353723352
 20
251.3277068766055038
 30
0.0
  0
VERTEX
  5
A2C8
  8
0
 10
69.7954662700728932
 20
251.3220329578047938
 30
0.0
  0
VERTEX
  5
A2C9
  8
0
 10
69.7931138482749702
 20
251.3163476937413066
 30
0.0
  0
VERTEX
  5
A2CA
  8
0
 10
69.7883133336288211
 20
251.3049457441412926
 30
0.0
  0
VERTEX
  5
A2CB
  8
0
 10
69.7833851645675622
 20
251.2935062431760969
 30
0.0
  0
VERTEX
  5
A2CC
  8
0
 10
69.7783293354875696
 20
251.2820343791939877
 30
0.0
  0
VERTEX
  5
A2CD
  8
0
 10
69.7731459554628373
 20
251.270535293850287
 30
0.0
  0
VERTEX
  5
A2CE
  8
0
 10
69.7678352118236944
 20
251.2590140009777997
 30
0.0
  0
VERTEX
  5
A2CF
  8
0
 10
69.7651321754915443
 20
251.2532465959324952
 30
0.0
  0
VERTEX
  5
A2D0
  8
0
 10
69.7623974396426547
 20
251.2474755383713045
 30
0.0
  0
VERTEX
  5
A2D1
  8
0
 10
69.7568331784648308
 20
251.2359250740400114
 30
0.0
  0
VERTEX
  5
A2D2
  8
0
 10
69.7511431817399625
 20
251.2243679034563115
 30
0.0
  0
VERTEX
  5
A2D3
  8
0
 10
69.7453284251821515
 20
251.2128094442946917
 30
0.0
  0
VERTEX
  5
A2D4
  8
0
 10
69.7393901145094333
 20
251.2012552299005108
 30
0.0
  0
VERTEX
  5
A2D5
  8
0
 10
69.7333296922952286
 20
251.1897109011748057
 30
0.0
  0
VERTEX
  5
A2D6
  8
0
 10
69.7302542063491728
 20
251.1839442337050912
 30
0.0
  0
VERTEX
  5
A2D7
  8
0
 10
69.7271488436135769
 20
251.1781821965415986
 30
0.0
  0
VERTEX
  5
A2D8
  8
0
 10
69.7208495001123083
 20
251.1666749396362093
 30
0.0
  0
VERTEX
  5
A2D9
  8
0
 10
69.7144338420938539
 20
251.1551950243396902
 30
0.0
  0
VERTEX
  5
A2DA
  8
0
 10
69.7079042981295061
 20
251.1437483967650053
 30
0.0
  0
VERTEX
  5
A2DB
  8
0
 10
69.7012635416843835
 20
251.1323410337992073
 30
0.0
  0
VERTEX
  5
A2DC
  8
0
 10
69.6945144841745332
 20
251.1209789178062124
 30
0.0
  0
VERTEX
  5
A2DD
  8
0
 10
69.6911003147607744
 20
251.1153166912395136
 30
0.0
  0
VERTEX
  5
A2DE
  8
0
 10
69.6876602638412805
 20
251.1096680071113099
 30
0.0
  0
VERTEX
  5
A2DF
  8
0
 10
69.680704229791786
 20
251.0984142019194962
 30
0.0
  0
VERTEX
  5
A2E0
  8
0
 10
69.6736499205339896
 20
251.0872233053707134
 30
0.0
  0
VERTEX
  5
A2E1
  8
0
 10
69.6665010363387864
 20
251.0761009795052985
 30
0.0
  0
VERTEX
  5
A2E2
  8
0
 10
69.6592614047797269
 20
251.0650526960064894
 30
0.0
  0
VERTEX
  5
A2E3
  8
0
 10
69.651933777485965
 20
251.0540819593857975
 30
0.0
  0
VERTEX
  5
A2E4
  8
0
 10
69.6482149041675029
 20
251.0485930323933985
 30
0.0
  0
VERTEX
  5
A2E5
  8
0
 10
69.6444442497222553
 20
251.0430805013681947
 30
0.0
  0
VERTEX
  5
A2E6
  8
0
 10
69.6367495802255689
 20
251.031992004793608
 30
0.0
  0
VERTEX
  5
A2E7
  8
0
 10
69.6288542652207525
 20
251.0208315165241117
 30
0.0
  0
VERTEX
  5
A2E8
  8
0
 10
69.6207636443448337
 20
251.009614479156113
 30
0.0
  0
VERTEX
  5
A2E9
  8
0
 10
69.6124838860126829
 20
250.9983566265348998
 30
0.0
  0
VERTEX
  5
A2EA
  8
0
 10
69.6040219620669944
 20
250.9870738737290878
 30
0.0
  0
VERTEX
  5
A2EB
  8
0
 10
69.5997250771972631
 20
250.9814281541156902
 30
0.0
  0
VERTEX
  5
A2EC
  8
0
 10
69.5953856092166916
 20
250.9757821999315013
 30
0.0
  0
VERTEX
  5
A2ED
  8
0
 10
69.5865832748718134
 20
250.9644975232002082
 30
0.0
  0
VERTEX
  5
A2EE
  8
0
 10
69.5776240451530157
 20
250.9532355664184138
 30
0.0
  0
VERTEX
  5
A2EF
  8
0
 10
69.573088586436711
 20
250.9476179330405898
 30
0.0
  0
VERTEX
  5
A2F0
  8
0
 10
69.5685175531186815
 20
250.9420117143459095
 30
0.0
  0
VERTEX
  5
A2F1
  8
0
 10
69.5592738656023357
 20
250.9308408621587034
 30
0.0
  0
VERTEX
  5
A2F2
  8
0
 10
69.5499033475159649
 20
250.9197372564086095
 30
0.0
  0
VERTEX
  5
A2F3
  8
0
 10
69.5451738089427636
 20
250.9142149050904891
 30
0.0
  0
VERTEX
  5
A2F4
  8
0
 10
69.540416503039296
 20
250.9087143298806097
 30
0.0
  0
VERTEX
  5
A2F5
  8
0
 10
69.5308237937593958
 20
250.8977845323543931
 30
0.0
  0
VERTEX
  5
A2F6
  8
0
 10
69.5211354370028403
 20
250.88695916246769
 30
0.0
  0
VERTEX
  5
A2F7
  8
0
 10
69.5113614865504132
 20
250.8762485295056877
 30
0.0
  0
VERTEX
  5
A2F8
  8
0
 10
69.5015127132626134
 20
250.8656629527322934
 30
0.0
  0
VERTEX
  5
A2F9
  8
0
 10
69.4916008540626535
 20
250.855212990722606
 30
0.0
  0
VERTEX
  5
A2FA
  8
0
 10
69.4866251607679715
 20
250.8500421776003861
 30
0.0
  0
VERTEX
  5
A2FB
  8
0
 10
69.481638455269831
 20
250.8449092288537088
 30
0.0
  0
VERTEX
  5
A2FC
  8
0
 10
69.4716387127168673
 20
250.8347620867693877
 30
0.0
  0
VERTEX
  5
A2FD
  8
0
 10
69.4616153188969747
 20
250.8247816546858076
 30
0.0
  0
VERTEX
  5
A2FE
  8
0
 10
69.4515823190090344
 20
250.8149775577749949
 30
0.0
  0
VERTEX
  5
A2FF
  8
0
 10
69.4415539771628119
 20
250.8053588471437934
 30
0.0
  0
VERTEX
  5
A300
  8
0
 10
69.4315446534214971
 20
250.795933915352208
 30
0.0
  0
VERTEX
  5
A301
  8
0
 10
69.42655160931713
 20
250.7912965433575039
 30
0.0
  0
VERTEX
  5
A302
  8
0
 10
69.4215686918148549
 20
250.786710434003794
 30
0.0
  0
VERTEX
  5
A303
  8
0
 10
69.411640318969944
 20
250.7776953106516942
 30
0.0
  0
VERTEX
  5
A304
  8
0
 10
69.4067069357638502
 20
250.7732949863830072
 30
0.0
 42
-0.1537822037131345
  0
VERTEX
  5
A305
  8
0
 10
68.5817475984082421
 20
250.4103680062052888
 30
0.0
  0
SEQEND
  5
A306
  8
0
  0
LINE
  5
9181
  8
1
 10
79.3977582501439656
 20
229.3926957304416021
 30
0.0
 11
22.4187597572207515
 21
229.3926957304416021
 31
0.0
  0
LINE
  5
9182
  8
1
 10
125.3977582501438945
 20
257.3926957304415737
 30
0.0
 11
40.918759757220748
 21
257.3926957304416874
 31
0.0
  0
LINE
  5
9183
  8
0
 10
445.7435055287974137
 20
267.5750032855327163
 30
0.0
 11
442.6336553932031848
 21
237.6426957304414884
 31
0.0
  0
LINE
  5
9184
  8
0
 10
442.6336553932031848
 20
221.1426957304414884
 30
0.0
 11
445.7435107141146773
 21
191.2103382666699929
 31
0.0
  0
LINE
  5
9185
  8
0
 10
459.8211553932035258
 20
270.8926957304415168
 30
0.0
 11
449.4237013029155037
 21
270.8926957304415168
 31
0.0
  0
LINE
  5
9186
  8
0
 10
449.4237013029155037
 20
187.8926957304414032
 30
0.0
 11
459.8211553932031848
 21
187.8926957304414032
 31
0.0
  0
ARC
  5
9187
  8
0
 10
459.8211553932031848
 20
190.2051957304414032
 30
0.0
 40
2.312499999999992
 50
270.0
 51
0.0
  0
ARC
  5
9188
  8
0
 10
459.8211553932031848
 20
268.5801957304414032
 30
0.0
 40
2.3125000000000071
 50
0.0
 51
90.0
  0
LINE
  5
9189
  8
0
 10
480.4336553932034235
 20
241.8926957304414884
 30
0.0
 11
462.1336553932032984
 21
241.8926957304414884
 31
0.0
  0
LINE
  5
918A
  8
0
 10
462.1336553932032984
 20
216.8926957304414884
 30
0.0
 11
480.4336553932034235
 21
216.8926957304414884
 31
0.0
  0
LINE
  5
918B
  8
0
 10
480.6336553932032984
 20
238.3926957304414884
 30
0.0
 11
480.4336553932034235
 21
238.3926957304414884
 31
0.0
  0
LINE
  5
918C
  8
0
 10
480.4336553932034235
 20
220.3926957304414032
 30
0.0
 11
480.6336553932032984
 21
220.3926957304414032
 31
0.0
  0
ARC
  5
9191
  8
0
 10
449.4237013029155037
 20
191.5926957304415055
 30
0.0
 40
3.7000000000000162
 50
185.9315269249200071
 51
269.9999991462262869
  0
ARC
  5
9192
  8
0
 10
449.4237013029155037
 20
267.1926957304415282
 30
0.0
 40
3.7000000000000171
 50
90.0000008537736136
 51
174.0684730750799929
  0
LINE
  5
9193
  8
0
 10
442.6336553932031848
 20
221.1426957304414884
 30
0.0
 11
442.6336553932031848
 21
237.6426957304414884
 31
0.0
  0
LINE
  5
9194
  8
0
 10
462.1336553932032984
 20
190.2051957304414032
 30
0.0
 11
462.1336553932032984
 21
268.5801957304414032
 31
0.0
  0
LINE
  5
9195
  8
0
 10
480.4336553932034235
 20
216.8926957304414884
 30
0.0
 11
480.4336553932034235
 21
241.8926957304414884
 31
0.0
  0
LINE
  5
9196
  8
0
 10
480.6336553932032984
 20
220.3926957304414032
 30
0.0
 11
480.6336553932032984
 21
238.3926957304414884
 31
0.0
  0
LINE
  5
919A
  8
0
 10
445.7435107141146773
 20
191.2103382666699929
 30
0.0
 11
445.7435107141146773
 21
267.5750027467984182
 31
0.0
  0
LINE
  5
919B
  8
1
 10
433.1441561467418069
 20
229.3926957304414884
 30
0.0
 11
490.1231546396650174
 21
229.3926957304414884
 31
0.0
  0
LINE
  5
919C
  8
1
 10
439.9907139963196983
 20
257.3926957304415168
 30
0.0
 11
466.8668820159580264
 21
257.3926957304415168
 31
0.0
  0
LINE
  5
96C6
  8
0
 10
374.2905476819656769
 20
95.6579936626741301
 30
0.0
 11
344.3582401268744775
 21
98.7678437982682453
 31
0.0
  0
LINE
  5
96C7
  8
0
 10
327.8582401268744775
 20
98.7678437982682453
 30
0.0
 11
297.925882663102982
 21
95.657988477356767
 31
0.0
  0
LINE
  5
96C8
  8
0
 10
377.6082401268744775
 20
81.5803437982680038
 30
0.0
 11
377.6082401268744775
 21
91.9777978885559833
 31
0.0
  0
LINE
  5
96C9
  8
0
 10
294.6082401268744775
 20
91.9777978885559833
 30
0.0
 11
294.6082401268744775
 21
81.5803437982682453
 31
0.0
  0
ARC
  5
96CA
  8
0
 10
296.9207401268744775
 20
81.5803437982682453
 30
0.0
 40
2.312499999999992
 50
180.0
 51
270.0
  0
ARC
  5
96CB
  8
0
 10
375.2957401268744775
 20
81.5803437982682453
 30
0.0
 40
2.3125000000000071
 50
270.0
 51
0.0
  0
LINE
  5
96CC
  8
0
 10
348.6082401268744775
 20
60.9678437982680492
 30
0.0
 11
348.6082401268744775
 21
79.2678437982682453
 31
0.0
  0
LINE
  5
96CD
  8
0
 10
323.6082401268744775
 20
79.2678437982682453
 30
0.0
 11
323.6082401268744775
 21
60.9678437982680492
 31
0.0
  0
LINE
  5
96CE
  8
0
 10
345.1082401268744775
 20
60.7678437982682382
 30
0.0
 11
345.1082401268744775
 21
60.9678437982680492
 31
0.0
  0
LINE
  5
96CF
  8
0
 10
327.1082401268744775
 20
60.9678437982680492
 30
0.0
 11
327.1082401268744775
 21
60.7678437982682382
 31
0.0
  0
ARC
  5
96D4
  8
0
 10
298.308240126874523
 20
91.9777978885559833
 30
0.0
 40
3.7000000000000162
 50
95.9315269249199929
 51
179.9999991462262869
  0
ARC
  5
96D5
  8
0
 10
373.9082401268746025
 20
91.9777978885559833
 30
0.0
 40
3.7000000000000171
 50
0.0000008537736463
 51
84.0684730750799929
  0
LINE
  5
96D6
  8
0
 10
327.8582401268744775
 20
98.7678437982682453
 30
0.0
 11
344.3582401268744775
 21
98.7678437982682453
 31
0.0
  0
LINE
  5
96D7
  8
0
 10
296.9207401268744775
 20
79.2678437982682453
 30
0.0
 11
375.2957401268744775
 21
79.2678437982682453
 31
0.0
  0
LINE
  5
96D8
  8
0
 10
323.6082401268744775
 20
60.9678437982680492
 30
0.0
 11
348.6082401268744775
 21
60.9678437982680492
 31
0.0
  0
LINE
  5
96D9
  8
0
 10
327.1082401268744775
 20
60.7678437982682382
 30
0.0
 11
345.1082401268744775
 21
60.7678437982682382
 31
0.0
  0
LINE
  5
96DD
  8
0
 10
297.925882663102982
 20
95.657988477356767
 30
0.0
 11
374.2905471432313789
 21
95.657988477356767
 31
0.0
  0
LINE
  5
96DE
  8
1
 10
336.1082401268744775
 20
108.2573430447296943
 30
0.0
 11
336.1082401268744775
 21
51.2783445518065193
 31
0.0
  0
ARC
  5
96E9
  8
0
 10
202.2859804844979976
 20
137.5178437982681885
 30
0.0
 40
7.7500000000000027
 50
0.0
 51
180.0
  0
LINE
  5
96EA
  8
0
 10
194.5359804844979976
 20
117.8378437982681959
 30
0.0
 11
194.5359804844979976
 21
137.5178437982681885
 31
0.0
  0
LINE
  5
96EB
  8
0
 10
210.0359804844979976
 20
137.5178437982681885
 30
0.0
 11
210.0359804844979976
 21
117.8378437982681959
 31
0.0
  0
ARC
  5
96EC
  8
0
 10
207.4659804844980044
 20
117.8378437982681959
 30
0.0
 40
2.5699999999999958
 50
297.9610742492021132
 51
0.0
  0
ARC
  5
96ED
  8
0
 10
197.1059804844979055
 20
117.8378437982681959
 30
0.0
 40
2.569999999999999
 50
180.0
 51
242.0389257507978868
  0
LINE
  5
96EE
  8
0
 10
195.900980484497893
 20
100.467843798268305
 30
0.0
 11
195.900980484497893
 21
115.5678493048828983
 31
0.0
  0
LINE
  5
96EF
  8
0
 10
208.6709804844979885
 20
115.5678493048826994
 30
0.0
 11
208.6709804844979885
 21
100.467843798268305
 31
0.0
  0
ARC
  5
96F0
  8
0
 10
208.4709804844979999
 20
100.467843798268305
 30
0.0
 40
0.1999999999999886
 50
270.0
 51
0.0
  0
ARC
  5
96F1
  8
0
 10
196.1009804844979953
 20
100.467843798268305
 30
0.0
 40
0.1999999999999815
 50
180.0
 51
270.0
  0
LINE
  5
96F2
  8
0
 10
197.2547958924158991
 20
99.2685761311703345
 30
0.0
 11
197.1143579803907926
 21
100.2678437982682027
 31
0.0
  0
LINE
  5
96F3
  8
0
 10
207.4576029886052027
 20
100.2678437982682027
 30
0.0
 11
207.3170621539028105
 21
99.2678437982682453
 31
0.0
  0
LINE
  5
96F4
  8
0
 10
210.0359804844979976
 20
137.5178437982681885
 30
0.0
 11
194.5359804844979976
 21
137.5178437982681885
 31
0.0
  0
LINE
  5
96F5
  8
0
 10
210.0359804844979976
 20
117.8378437982681959
 30
0.0
 11
194.5359804844979976
 21
117.8378437982681959
 31
0.0
  0
LINE
  5
96F6
  8
0
 10
208.6709804844979885
 20
115.5678493048828983
 30
0.0
 11
195.900980484497893
 21
115.5678493048828983
 31
0.0
  0
LINE
  5
96F7
  8
0
 10
208.4709804844979999
 20
100.2678437982682027
 30
0.0
 11
196.1009804844979953
 21
100.2678437982682027
 31
0.0
  0
LINE
  5
96F8
  8
0
 10
194.4859804844979863
 20
98.7678437982682453
 30
0.0
 11
194.9859804844979863
 21
99.2678437982682453
 31
0.0
  0
LINE
  5
96FA
  8
0
 10
209.5859804844978953
 20
99.2678437982682453
 30
0.0
 11
194.9859804844979863
 21
99.2678437982682453
 31
0.0
  0
LINE
  5
96FB
  8
0
 10
210.5359804844979124
 20
98.7678437982682453
 30
0.0
 11
240.4683379482694079
 21
95.657988477356966
 31
0.0
  0
LINE
  5
96FC
  8
0
 10
160.7859804844979124
 20
81.5803437982682453
 30
0.0
 11
160.7859804844979124
 21
91.9777978885559833
 31
0.0
  0
LINE
  5
96FD
  8
0
 10
243.7859804844979124
 20
91.977797888556097
 30
0.0
 11
243.7859804844979124
 21
81.5803437982682453
 31
0.0
  0
ARC
  5
96FE
  8
0
 10
241.4734804844979124
 20
81.5803437982682453
 30
0.0
 40
2.312499999999992
 50
270.0
 51
0.0
  0
ARC
  5
96FF
  8
0
 10
163.0984804844979124
 20
81.5803437982682453
 30
0.0
 40
2.3125000000000071
 50
180.0
 51
270.0
  0
LINE
  5
9700
  8
0
 10
189.7859804844979124
 20
60.9678437982682908
 30
0.0
 11
189.7859804844979124
 21
79.2678437982682453
 31
0.0
  0
LINE
  5
9701
  8
0
 10
214.7859804844979124
 20
79.2678437982682453
 30
0.0
 11
214.7859804844979124
 21
60.9678437982682908
 31
0.0
  0
LINE
  5
9702
  8
0
 10
193.2859804844979124
 20
60.7678437982682524
 30
0.0
 11
193.2859804844979124
 21
60.9678437982682908
 31
0.0
  0
LINE
  5
9703
  8
0
 10
211.2859804844979124
 20
60.9678437982682908
 30
0.0
 11
211.2859804844979124
 21
60.7678437982682524
 31
0.0
  0
ARC
  5
9704
  8
0
 10
240.0859804844978953
 20
91.977797888556097
 30
0.0
 40
3.7000000000000162
 50
0.0000008537736463
 51
84.0684730750799929
  0
ARC
  5
9705
  8
0
 10
164.485980484497901
 20
91.9777978885559833
 30
0.0
 40
3.7000000000000171
 50
95.9315269249199929
 51
179.9999991462262869
  0
LINE
  5
9706
  8
0
 10
210.5359804844979124
 20
98.7678437982682453
 30
0.0
 11
194.0359804844979124
 21
98.7678437982682453
 31
0.0
  0
LINE
  5
9707
  8
0
 10
241.4734804844979124
 20
79.2678437982682453
 30
0.0
 11
163.0984804844979124
 21
79.2678437982682453
 31
0.0
  0
LINE
  5
9708
  8
0
 10
214.7859804844979124
 20
60.9678437982682908
 30
0.0
 11
189.7859804844979124
 21
60.9678437982682908
 31
0.0
  0
LINE
  5
9709
  8
0
 10
211.2859804844979124
 20
60.7678437982682524
 30
0.0
 11
193.2859804844979124
 21
60.7678437982682524
 31
0.0
  0
LINE
  5
970A
  8
0
 10
240.4683379482694079
 20
95.6579884773568665
 30
0.0
 11
164.103673468141011
 21
95.6579884773568665
 31
0.0
  0
LINE
  5
970B
  8
0
 10
164.1036729294067129
 20
95.6579936626743574
 30
0.0
 11
194.0359804844979124
 21
98.7678437982682453
 31
0.0
  0
LINE
  5
970D
  8
2
 10
198.2859804844979976
 20
60.7678437982682524
 30
0.0
 11
198.2859804844979124
 21
77.7678437982682453
 31
0.0
  0
LINE
  5
970E
  8
2
 10
206.2859804844979124
 20
77.7678437982682453
 30
0.0
 11
206.2859804844979124
 21
60.7678437982682524
 31
0.0
  0
LINE
  5
9710
  8
2
 10
210.5359804844979124
 20
81.2678437982682453
 30
0.0
 11
210.5359804844979124
 21
77.7678437982682453
 31
0.0
  0
LINE
  5
9711
  8
2
 10
210.5359804844979124
 20
77.7678437982682453
 30
0.0
 11
194.0359804844979124
 21
77.7678437982682453
 31
0.0
  0
LINE
  5
9713
  8
2
 10
194.2859804844979124
 20
76.7678437982682453
 30
0.0
 11
193.2859804844979124
 21
76.7678437982682453
 31
0.0
  0
LINE
  5
9714
  8
2
 10
193.2859804844979124
 20
60.9678437982682908
 30
0.0
 11
193.2859804844979124
 21
76.7678437982682453
 31
0.0
  0
LINE
  5
9715
  8
2
 10
211.2859804844979124
 20
60.9678437982682908
 30
0.0
 11
211.2859804844979124
 21
76.7678437982682453
 31
0.0
  0
LINE
  5
9719
  8
2
 10
194.2859804844979124
 20
77.7678437982682453
 30
0.0
 11
194.2859804844979124
 21
76.7678437982682453
 31
0.0
  0
LINE
  5
971A
  8
2
 10
210.2859804844979976
 20
76.7678437982682453
 30
0.0
 11
211.2859804844979124
 21
76.7678437982682453
 31
0.0
  0
LINE
  5
971B
  8
2
 10
210.2859804844979976
 20
77.7678437982682453
 30
0.0
 11
210.2859804844979976
 21
76.7678437982682453
 31
0.0
  0
LINE
  5
971C
  8
1
 10
202.2859804844979976
 20
154.7573430447297937
 30
0.0
 11
202.2859804844979124
 21
51.2783445518066401
 31
0.0
  0
LINE
  5
9726
  8
0
 10
210.0859804844978953
 20
98.7678437982682453
 30
0.0
 11
209.5859804844978953
 21
99.2678437982682453
 31
0.0
  0
ARC
  5
9B0F
  8
0
 10
336.1082401268745912
 20
229.3926957304416021
 30
0.0
 40
8.2500000000000071
 50
339.9500242758480226
 51
20.0499757241519987
  0
ARC
  5
9B10
  8
0
 10
336.1082401268745912
 20
229.3926957304416021
 30
0.0
 40
8.2500000000000071
 50
159.9500242758495858
 51
200.0499757241504142
  0
LINE
  5
9C9F
  8
2
 10
194.0359804844979124
 20
81.2678437982682453
 30
0.0
 11
194.0359804844979124
 21
77.7678437982682453
 31
0.0
  0
LINE
  5
9CA0
  8
2
 10
194.0359804844979124
 20
81.2678437982682453
 30
0.0
 11
210.5359804844979124
 21
81.2678437982682453
 31
0.0
  0
LINE
  5
9CAF
  8
2
 10
332.1082401268744775
 20
60.7678437982682524
 30
0.0
 11
332.1082401268744775
 21
77.7678437982682453
 31
0.0
  0
LINE
  5
9CB0
  8
2
 10
340.1082401268744775
 20
77.7678437982682453
 30
0.0
 11
340.1082401268744775
 21
60.7678437982682382
 31
0.0
  0
LINE
  5
9CB1
  8
2
 10
344.3582401268744775
 20
81.2678437982682453
 30
0.0
 11
344.3582401268744775
 21
77.7678437982682453
 31
0.0
  0
LINE
  5
9CB2
  8
2
 10
344.3582401268744775
 20
77.7678437982682453
 30
0.0
 11
327.8582401268744206
 21
77.7678437982682453
 31
0.0
  0
LINE
  5
9CB3
  8
2
 10
328.1082401268744775
 20
76.7678437982682453
 30
0.0
 11
327.1082401268744775
 21
76.7678437982682453
 31
0.0
  0
LINE
  5
9CB4
  8
2
 10
327.1082401268744775
 20
60.9678437982682908
 30
0.0
 11
327.1082401268744775
 21
76.7678437982682453
 31
0.0
  0
LINE
  5
9CB5
  8
2
 10
345.1082401268744775
 20
60.9678437982682908
 30
0.0
 11
345.1082401268744775
 21
76.7678437982682453
 31
0.0
  0
LINE
  5
9CB6
  8
2
 10
328.1082401268744775
 20
77.7678437982682453
 30
0.0
 11
328.1082401268744775
 21
76.7678437982682453
 31
0.0
  0
LINE
  5
9CB7
  8
2
 10
344.1082401268744775
 20
76.7678437982682453
 30
0.0
 11
345.1082401268744775
 21
76.7678437982682453
 31
0.0
  0
LINE
  5
9CB8
  8
2
 10
344.1082401268744775
 20
77.7678437982682453
 30
0.0
 11
344.1082401268744775
 21
76.7678437982682453
 31
0.0
  0
LINE
  5
9CB9
  8
2
 10
327.8582401268744206
 20
81.2678437982682453
 30
0.0
 11
327.8582401268744206
 21
77.7678437982682453
 31
0.0
  0
LINE
  5
9CBA
  8
2
 10
327.8582401268744206
 20
81.2678437982682453
 30
0.0
 11
344.3582401268744775
 21
81.2678437982682453
 31
0.0
  0
LINE
  5
9CD9
  8
2
 10
480.6336553932032984
 20
225.3926957304414884
 30
0.0
 11
463.6336553932031848
 21
225.3926957304414032
 31
0.0
  0
LINE
  5
9CDA
  8
2
 10
463.6336553932031848
 20
233.3926957304414032
 30
0.0
 11
480.6336553932032984
 21
233.3926957304414032
 31
0.0
  0
LINE
  5
9CDB
  8
2
 10
460.1336553932032984
 20
237.6426957304414884
 30
0.0
 11
463.6336553932031848
 21
237.6426957304414884
 31
0.0
  0
LINE
  5
9CDC
  8
2
 10
463.6336553932031848
 20
237.6426957304414884
 30
0.0
 11
463.6336553932031848
 21
221.1426957304412895
 31
0.0
  0
LINE
  5
9CDD
  8
2
 10
464.6336553932032984
 20
221.3926957304414032
 30
0.0
 11
464.6336553932032984
 21
220.3926957304414032
 31
0.0
  0
LINE
  5
9CDE
  8
2
 10
480.4336553932031961
 20
220.3926957304414032
 30
0.0
 11
464.6336553932032984
 21
220.3926957304414032
 31
0.0
  0
LINE
  5
9CE0
  8
2
 10
463.6336553932031848
 20
221.3926957304414032
 30
0.0
 11
464.6336553932032984
 21
221.3926957304414032
 31
0.0
  0
LINE
  5
9CE1
  8
2
 10
464.6336553932032984
 20
237.3926957304414032
 30
0.0
 11
464.6336553932032984
 21
238.3926957304414032
 31
0.0
  0
LINE
  5
9CE2
  8
2
 10
463.6336553932031848
 20
237.3926957304414032
 30
0.0
 11
464.6336553932032984
 21
237.3926957304414032
 31
0.0
  0
LINE
  5
9CE3
  8
2
 10
460.1336553932032984
 20
221.1426957304412895
 30
0.0
 11
463.6336553932031848
 21
221.1426957304412895
 31
0.0
  0
LINE
  5
9CE4
  8
2
 10
460.1336553932032984
 20
221.1426957304412895
 30
0.0
 11
460.1336553932032984
 21
237.6426957304414032
 31
0.0
  0
LINE
  5
9CE5
  8
2
 10
31.9082590036823603
 20
233.3926957304416021
 30
0.0
 11
48.9082590036823603
 21
233.3926957304416874
 31
0.0
  0
LINE
  5
9CE6
  8
2
 10
48.9082590036823603
 20
225.3926957304416021
 30
0.0
 11
31.9082590036822999
 21
225.3926957304416021
 31
0.0
  0
LINE
  5
9CE7
  8
2
 10
52.4082590036823603
 20
221.1426957304416021
 30
0.0
 11
48.9082590036823603
 21
221.1426957304416021
 31
0.0
  0
LINE
  5
9CE8
  8
2
 10
48.9082590036823603
 20
221.1426957304416021
 30
0.0
 11
48.9082590036823603
 21
237.6426957304416874
 31
0.0
  0
LINE
  5
9CE9
  8
2
 10
47.9082590036823532
 20
237.3926957304416021
 30
0.0
 11
47.9082590036823532
 21
238.3926957304416021
 31
0.0
  0
LINE
  5
9CEB
  8
2
 10
32.108259003682349
 20
220.3926957304416021
 30
0.0
 11
47.9082590036823532
 21
220.3926957304416021
 31
0.0
  0
LINE
  5
9CEC
  8
2
 10
48.9082590036823603
 20
237.3926957304416021
 30
0.0
 11
47.9082590036823532
 21
237.3926957304416021
 31
0.0
  0
LINE
  5
9CED
  8
2
 10
47.9082590036823532
 20
221.3926957304416021
 30
0.0
 11
47.9082590036823532
 21
220.3926957304416021
 31
0.0
  0
LINE
  5
9CEE
  8
2
 10
48.9082590036823603
 20
221.3926957304416021
 30
0.0
 11
47.9082590036823532
 21
221.3926957304416021
 31
0.0
  0
LINE
  5
9CEF
  8
2
 10
52.4082590036823603
 20
237.6426957304416874
 30
0.0
 11
48.9082590036823603
 21
237.6426957304416874
 31
0.0
  0
LINE
  5
9CF0
  8
2
 10
52.4082590036823603
 20
237.6426957304416874
 30
0.0
 11
52.4082590036823603
 21
221.1426957304416021
 31
0.0
  0
TEXT
  5
9DBB
  8
0
 62
     3
 10
0.0
 20
0.0
 30
0.0
 40
10.0
  1
EDHN80F-M
  7
STANDARD1
  0
CIRCLE
  5
9E75
  8
2
 10
202.2859804844979124
 20
229.3926957304416021
 30
0.0
 40
9.0
  0
CIRCLE
  5
9E76
  8
2
 10
202.2859804844979124
 20
229.3926957304416021
 30
0.0
 40
4.0
  0
CIRCLE
  5
9E77
  8
2
 10
202.2859804844979124
 20
229.3926957304416021
 30
0.0
 40
12.5
  0
CIRCLE
  5
9E84
  8
2
 10
336.1082401268744775
 20
229.3926957304414884
 30
0.0
 40
9.0
  0
CIRCLE
  5
9E85
  8
2
 10
336.1082401268744775
 20
229.3926957304414884
 30
0.0
 40
4.0
  0
CIRCLE
  5
9E86
  8
2
 10
336.1082401268744775
 20
229.3926957304414884
 30
0.0
 40
12.5
  0
LINE
  5
9EDA
  8
1
 10
475.6336553932031848
 20
232.3926957304414884
 30
0.0
 11
475.6336553932031848
 21
244.3926957304414884
 31
0.0
  0
LINE
  5
9EE6
  8
1
 10
36.9082590036825877
 20
232.3926957304416021
 30
0.0
 11
36.9082590036825877
 21
244.3926957304416021
 31
0.0
  0
LINE
  5
A200
  8
2
 10
477.2546553932031088
 20
233.3926957304414884
 30
-0.0000000000000036
 11
477.2546553932029951
 21
238.3926957304414032
 31
-0.0000000000000036
  0
LINE
  5
A202
  8
2
 10
474.0126553932034881
 20
233.3926957304414884
 30
-0.0000000000000036
 11
474.0126553932034881
 21
238.3926957304414032
 31
-0.0000000000000036
  0
LINE
  5
A203
  8
2
 10
473.6336553932032984
 20
233.3926957304414884
 30
-0.0000000000000036
 11
473.6336553932032984
 21
238.3926957304414032
 31
-0.0000000000000036
  0
LINE
  5
A204
  8
2
 10
477.6336553932032984
 20
233.3926957304414884
 30
-0.0000000000000036
 11
477.6336553932032984
 21
238.3926957304414032
 31
-0.0000000000000036
  0
LINE
  5
A205
  8
2
 10
473.1336553932032984
 20
240.8926957304414032
 30
-0.0000000000000036
 11
473.1336553932032984
 21
238.3926957304414884
 31
-0.0000000000000036
  0
LINE
  5
A206
  8
2
 10
472.1336553932031848
 20
241.8926957304414884
 30
-0.0000000000000036
 11
473.1336553932032984
 21
240.8926957304414032
 31
-0.0000000000000036
  0
LINE
  5
A207
  8
2
 10
478.1336553932032984
 20
240.8926957304414032
 30
0.0000000000000036
 11
479.1336553932031848
 21
241.8926957304414884
 31
0.0000000000000036
  0
LINE
  5
A208
  8
2
 10
473.1336553932032984
 20
240.8926957304414032
 30
-0.0000000000000036
 11
478.1336553932032984
 21
240.8926957304414032
 31
-0.0000000000000036
  0
LINE
  5
A209
  8
2
 10
478.1336553932032984
 20
240.8926957304414032
 30
-0.0000000000000036
 11
478.1336553932032984
 21
238.3926957304414884
 31
-0.0000000000000036
  0
LINE
  5
A20B
  8
2
 10
480.4336553932034803
 20
238.3926957304414032
 30
0.0
 11
464.6336553932032984
 21
238.3926957304414032
 31
0.0
  0
LINE
  5
A20D
  8
2
 10
38.529259003682462
 20
233.3926957304416874
 30
-0.0000000000000036
 11
38.529259003682327
 21
238.3926957304416021
 31
-0.0000000000000036
  0
LINE
  5
A20F
  8
2
 10
35.2872590036827773
 20
233.3926957304416874
 30
-0.0000000000000036
 11
35.2872590036828413
 21
238.3926957304416021
 31
-0.0000000000000036
  0
LINE
  5
A210
  8
2
 10
34.9082590036825877
 20
233.3926957304416874
 30
-0.0000000000000036
 11
34.9082590036825877
 21
238.3926957304416874
 31
-0.0000000000000036
  0
LINE
  5
A211
  8
2
 10
38.9082590036825877
 20
233.3926957304416874
 30
-0.0000000000000036
 11
38.9082590036825877
 21
238.3926957304416874
 31
-0.0000000000000036
  0
LINE
  5
A212
  8
2
 10
34.4082590036825877
 20
240.8926957304416021
 30
-0.0000000000000036
 11
34.4082590036825877
 21
238.3926957304416021
 31
-0.0000000000000036
  0
LINE
  5
A213
  8
2
 10
33.4082590036825877
 20
241.8926957304416021
 30
-0.0000000000000036
 11
34.4082590036825877
 21
240.8926957304416021
 31
-0.0000000000000036
  0
LINE
  5
A214
  8
2
 10
39.4082590036825877
 20
240.8926957304416021
 30
0.0000000000000036
 11
40.4082590036825806
 21
241.8926957304416021
 31
0.0000000000000036
  0
LINE
  5
A215
  8
2
 10
34.4082590036825877
 20
240.8926957304416021
 30
-0.0000000000000036
 11
39.4082590036825877
 21
240.8926957304416021
 31
-0.0000000000000036
  0
LINE
  5
A216
  8
2
 10
39.4082590036825877
 20
240.8926957304416021
 30
-0.0000000000000036
 11
39.4082590036825877
 21
238.3926957304416021
 31
-0.0000000000000036
  0
LINE
  5
A217
  8
2
 10
32.1082590036824129
 20
238.3926957304416021
 30
0.0
 11
47.9082590036823532
 21
238.3926957304416021
 31
0.0
  0
LINE
  5
A22A
  8
2
 10
203.906980484497808
 20
233.0495193521111048
 30
-0.0000000000000036
 11
203.9069804844976943
 21
238.2455121749410125
 31
-0.0000000000000036
  0
LINE
  5
A22C
  8
2
 10
200.664980484498102
 20
233.0495193521111901
 30
-0.0000000000000036
 11
200.6649804844981873
 21
238.2455121749410125
 31
-0.0000000000000036
  0
LINE
  5
A22D
  8
2
 10
200.2859804844979124
 20
232.8567973455793094
 30
-0.0000000000000036
 11
200.2859804844979124
 21
238.1676601178336909
 31
-0.0000000000000036
  0
LINE
  5
A22E
  8
2
 10
204.2859804844979124
 20
232.8567973455793094
 30
-0.0000000000000036
 11
204.2859804844979124
 21
238.1676601178336909
 31
-0.0000000000000036
  0
LINE
  5
A22F
  8
2
 10
199.7859804844979124
 20
240.8926957304416021
 30
-0.0000000000000036
 11
199.7859804844979124
 21
238.0385039633368933
 31
-0.0000000000000036
  0
LINE
  5
A230
  8
2
 10
199.1784184571465062
 20
241.5002577577930083
 30
-0.0000000000000036
 11
199.7859804844979124
 21
240.8926957304416021
 31
-0.0000000000000036
  0
LINE
  5
A231
  8
2
 10
204.7859804844979124
 20
240.8926957304416021
 30
0.0000000000000036
 11
205.3935425118492901
 21
241.5002577577930083
 31
0.0000000000000036
  0
LINE
  5
A232
  8
2
 10
199.7859804844979124
 20
240.8926957304416021
 30
-0.0000000000000036
 11
204.7859804844979124
 21
240.8926957304416021
 31
-0.0000000000000036
  0
LINE
  5
A233
  8
2
 10
204.7859804844979124
 20
240.8926957304416021
 30
-0.0000000000000036
 11
204.7859804844979124
 21
238.0385039633368933
 31
-0.0000000000000036
  0
LINE
  5
A24D
  8
2
 10
337.7292401268744015
 20
233.0495193521111048
 30
-0.0000000000000036
 11
337.7292401268742879
 21
238.2455121749410125
 31
-0.0000000000000036
  0
LINE
  5
A24E
  8
2
 10
334.487240126874724
 20
233.0495193521111901
 30
-0.0000000000000036
 11
334.4872401268747808
 21
238.2455121749410125
 31
-0.0000000000000036
  0
LINE
  5
A24F
  8
2
 10
334.1082401268744775
 20
232.8567973455793094
 30
-0.0000000000000036
 11
334.1082401268744775
 21
238.1676601178336909
 31
-0.0000000000000036
  0
LINE
  5
A250
  8
2
 10
338.1082401268744775
 20
232.8567973455793094
 30
-0.0000000000000036
 11
338.1082401268744775
 21
238.1676601178336909
 31
-0.0000000000000036
  0
LINE
  5
A251
  8
2
 10
333.6082401268745912
 20
240.8926957304416021
 30
-0.0000000000000036
 11
333.6082401268745912
 21
238.0385039633368933
 31
-0.0000000000000036
  0
LINE
  5
A252
  8
2
 10
333.0006780995230997
 20
241.5002577577930083
 30
-0.0000000000000036
 11
333.6082401268745912
 21
240.8926957304416021
 31
-0.0000000000000036
  0
LINE
  5
A253
  8
2
 10
338.6082401268744775
 20
240.8926957304416021
 30
0.0000000000000036
 11
339.2158021542259121
 21
241.5002577577930083
 31
0.0000000000000036
  0
LINE
  5
A254
  8
2
 10
333.6082401268745912
 20
240.8926957304416021
 30
-0.0000000000000036
 11
338.6082401268744775
 21
240.8926957304416021
 31
-0.0000000000000036
  0
LINE
  5
A255
  8
2
 10
338.6082401268744775
 20
240.8926957304416021
 30
-0.0000000000000036
 11
338.6082401268744775
 21
238.0385039633368933
 31
-0.0000000000000036
  0
ENDSEC
  0
EOF
