  0
SECTION
  2
HEADER
  9
$ACADVER
  1
AC1009
  9
$INSBASE
 10
0.0
 20
0.0
 30
0.0
  9
$EXTMIN
 10
0.0
 20
-2.960436562073669
 30
-0.0000000000000098
  9
$EXTMAX
 10
471.57131773395622
 20
430.43114572304142
 30
58.0
  9
$LIMMIN
 10
0.0
 20
0.0
  9
$LIMMAX
 10
750.0
 20
540.0
  9
$ORTHOMODE
 70
     1
  9
$REGENMODE
 70
     1
  9
$FILLMODE
 70
     1
  9
$QTEXTMODE
 70
     0
  9
$MIRRTEXT
 70
     0
  9
$DRAGMODE
 70
     2
  9
$LTSCALE
 40
20.0
  9
$OSMODE
 70
  3071
  9
$ATTMODE
 70
     1
  9
$TEXTSIZE
 40
0.2
  9
$TRACEWID
 40
0.05
  9
$TEXTSTYLE
  7
STANDARD
  9
$CLAYER
  8
0
  9
$CELTYPE
  6
BYLAYER
  9
$CECOLOR
 62
   256
  9
$DIMSCALE
 40
1.0
  9
$DIMASZ
 40
3.0
  9
$DIMEXO
 40
2.0
  9
$DIMDLI
 40
0.3799999999999999
  9
$DIMRND
 40
0.0
  9
$DIMDLE
 40
0.0
  9
$DIMEXE
 40
2.0
  9
$DIMTP
 40
0.0
  9
$DIMTM
 40
0.0
  9
$DIMTXT
 40
3.0
  9
$DIMCEN
 40
0.09
  9
$DIMTSZ
 40
0.0
  9
$DIMTOL
 70
     0
  9
$DIMLIM
 70
     0
  9
$DIMTIH
 70
     0
  9
$DIMTOH
 70
     0
  9
$DIMSE1
 70
     0
  9
$DIMSE2
 70
     0
  9
$DIMTAD
 70
     1
  9
$DIMZIN
 70
     8
  9
$DIMBLK
  1

  9
$DIMASO
 70
     1
  9
$DIMSHO
 70
     0
  9
$DIMPOST
  1

  9
$DIMAPOST
  1

  9
$DIMALT
 70
     0
  9
$DIMALTD
 70
     2
  9
$DIMALTF
 40
25.399999999999999
  9
$DIMLFAC
 40
1.0
  9
$DIMTOFL
 70
     0
  9
$DIMTVP
 40
1.6000000000000001
  9
$DIMTIX
 70
     1
  9
$DIMSOXD
 70
     0
  9
$DIMSAH
 70
     0
  9
$DIMBLK1
  1

  9
$DIMBLK2
  1

  9
$DIMSTYLE
  2
STANDARD
  9
$DIMCLRD
 70
     0
  9
$DIMCLRE
 70
     0
  9
$DIMCLRT
 70
     0
  9
$DIMTFAC
 40
1.0
  9
$DIMGAP
 40
1.5
  9
$LUNITS
 70
     2
  9
$LUPREC
 70
     4
  9
$SKETCHINC
 40
0.1
  9
$FILLETRAD
 40
0.2
  9
$AUNITS
 70
     0
  9
$AUPREC
 70
     0
  9
$MENU
  1
E:\r13\win\SUPPORT\ACAD
  9
$ELEVATION
 40
0.0
  9
$PELEVATION
 40
0.0
  9
$THICKNESS
 40
0.0
  9
$LIMCHECK
 70
     0
  9
$BLIPMODE
 70
     0
  9
$CHAMFERA
 40
0.0
  9
$CHAMFERB
 40
0.0
  9
$SKPOLY
 70
     0
  9
$TDCREATE
 40
2449839.7807291672
  9
$TDUPDATE
 40
2456598.6446424192
  9
$TDINDWG
 40
0.7141668056
  9
$TDUSRTIMER
 40
0.7141668056
  9
$USRTIMER
 70
     1
  9
$ANGBASE
 50
0.0
  9
$ANGDIR
 70
     0
  9
$PDMODE
 70
     0
  9
$PDSIZE
 40
0.0
  9
$PLINEWID
 40
0.0
  9
$COORDS
 70
     1
  9
$SPLFRAME
 70
     0
  9
$SPLINETYPE
 70
     6
  9
$SPLINESEGS
 70
     8
  9
$ATTDIA
 70
     0
  9
$ATTREQ
 70
     1
  9
$HANDLING
 70
     1
  9
$HANDSEED
  5
8B61
  9
$SURFTAB1
 70
     6
  9
$SURFTAB2
 70
     6
  9
$SURFTYPE
 70
     6
  9
$SURFU
 70
     6
  9
$SURFV
 70
     6
  9
$UCSNAME
  2

  9
$UCSORG
 10
0.0
 20
0.0
 30
0.0
  9
$UCSXDIR
 10
1.0
 20
0.0
 30
0.0
  9
$UCSYDIR
 10
0.0
 20
1.0
 30
0.0
  9
$PUCSNAME
  2

  9
$PUCSORG
 10
0.0
 20
0.0
 30
0.0
  9
$PUCSXDIR
 10
1.0
 20
0.0
 30
0.0
  9
$PUCSYDIR
 10
0.0
 20
1.0
 30
0.0
  9
$USERI1
 70
     0
  9
$USERI2
 70
     1
  9
$USERI3
 70
     1
  9
$USERI4
 70
     0
  9
$USERI5
 70
     0
  9
$USERR1
 40
0.0
  9
$USERR2
 40
0.0
  9
$USERR3
 40
0.0
  9
$USERR4
 40
0.0
  9
$USERR5
 40
0.0
  9
$WORLDVIEW
 70
     1
  9
$SHADEDGE
 70
     3
  9
$SHADEDIF
 70
    70
  9
$TILEMODE
 70
     1
  9
$MAXACTVP
 70
    16
  9
$PLIMCHECK
 70
     0
  9
$PEXTMIN
 10
1.0000000000000000E+020
 20
1.0000000000000000E+020
 30
1.0000000000000000E+020
  9
$PEXTMAX
 10
-1.0000000000000000E+020
 20
-1.0000000000000000E+020
 30
-1.0000000000000000E+020
  9
$PLIMMIN
 10
0.0
 20
0.0
  9
$PLIMMAX
 10
12.0
 20
9.0
  9
$UNITMODE
 70
     0
  9
$VISRETAIN
 70
     0
  9
$PLINEGEN
 70
     0
  9
$PSLTSCALE
 70
     0
  0
ENDSEC
  0
SECTION
  2
TABLES
  0
TABLE
  2
VPORT
 70
     1
  0
VPORT
  2
*ACTIVE
 70
     0
 10
0.0
 20
0.0
 11
1.0
 21
1.0
 12
374.98855678130462
 22
340.90031900923282
 13
0.0
 23
0.0
 14
20.0
 24
20.0
 15
20.0
 25
20.0
 16
0.0
 26
0.0
 36
1.0
 17
0.0
 27
0.0
 37
0.0
 40
694.00739314055488
 41
1.831871345029239
 42
50.0
 43
0.0
 44
0.0
 50
0.0
 51
0.0
 71
     0
 72
   500
 73
     1
 74
     0
 75
     0
 76
     0
 77
     0
 78
     0
  0
ENDTAB
  0
TABLE
  2
LTYPE
 70
     4
  0
LTYPE
  2
CONTINUOUS
 70
     0
  3
Solid Line
 72
    65
 73
     0
 40
0.0
  0
LTYPE
  2
CENTER
 70
     0
  3
____ _ ____ _ ____ _ ____ _ ____ _ ____ _ ____
 72
    65
 73
     4
 40
2.0
 49
1.25
 49
-0.25
 49
0.25
 49
-0.25
  0
LTYPE
  2
HIDDEN
 70
     0
  3
Hidden __ __ __ __ __ __ __ __ __ __ __ __ __ _
 72
    65
 73
     2
 40
0.375
 49
0.25
 49
-0.125
  0
LTYPE
  2
PHANTOM2
 70
     0
  3
___ _ _ ___ _ _ ___ _ _ ___ _ _
 72
    65
 73
     6
 40
1.25
 49
0.625
 49
-0.125
 49
0.125
 49
-0.125
 49
0.125
 49
-0.125
  0
ENDTAB
  0
TABLE
  2
LAYER
 70
     4
  0
LAYER
  2
0
 70
     0
 62
     7
  6
CONTINUOUS
  0
LAYER
  2
1
 70
     0
 62
     1
  6
CENTER
  0
LAYER
  2
2
 70
     0
 62
     2
  6
HIDDEN
  0
LAYER
  2
DEFPOINTS
 70
     0
 62
     7
  6
CONTINUOUS
  0
ENDTAB
  0
TABLE
  2
STYLE
 70
     2
  0
STYLE
  2
STANDARD
 70
     0
 40
0.0
 41
1.0
 50
0.0
 71
     0
 42
0.2
  3
TXT
  4
BIGFONT
  0
STYLE
  2
STANDARD1
 70
     0
 40
0.0
 41
1.0
 50
0.0
 71
     0
 42
3.0
  3
txt
  4

  0
ENDTAB
  0
TABLE
  2
VIEW
 70
     1
  0
VIEW
  2
ALL
 70
     0
 40
540.0
 10
441.98319327731087
 20
270.0
 41
0.0
 11
0.0
 21
0.0
 31
1.0
 12
0.0
 22
0.0
 32
0.0
 42
0.0
 43
0.0
 44
0.0
 50
0.0
 71
     0
  0
ENDTAB
  0
TABLE
  2
UCS
 70
     0
  0
ENDTAB
  0
TABLE
  2
APPID
 70
    11
  0
APPID
  2
ACAD
 70
     0
  0
APPID
  2
ACAD_EXEMPT_FROM_CAD_STANDARDS
 70
     0
  0
APPID
  2
ACAD_DSTYLE_DIMJAG
 70
     0
  0
APPID
  2
ACAD_DSTYLE_DIMTALN
 70
     0
  0
APPID
  2
ACAD_MLEADERVER
 70
     0
  0
APPID
  2
GENIUS_GENODEF_13
 70
     0
  0
APPID
  2
GENIUS_GENOBJ-N-FIL_13
 70
     0
  0
APPID
  2
GENIUS_GENOREF_13
 70
     0
  0
APPID
  2
ACAD_PSEXT
 70
     0
  0
APPID
  2
ACAD_DSTYLE_DIMRADIAL_EXTENSION
 70
     0
  0
APPID
  2
ACAD_NAV_VCDISPLAY
 70
     0
  0
ENDTAB
  0
TABLE
  2
DIMSTYLE
 70
     1
  0
DIMSTYLE
  2
STANDARD
 70
     0
  3

  4

  5

  6

  7

 40
1.0
 41
0.18
 42
0.0625
 43
0.38
 44
0.18
 45
0.0
 46
0.0
 47
0.0
 48
0.0
140
0.18
141
0.09
142
0.0
143
25.399999999999999
144
1.0
145
0.0
146
1.0
147
0.09
 71
     0
 72
     0
 73
     1
 74
     1
 75
     0
 76
     0
 77
     0
 78
     0
170
     0
171
     2
172
     0
173
     0
174
     0
175
     0
176
     0
177
     0
178
     0
  0
ENDTAB
  0
ENDSEC
  0
SECTION
  2
BLOCKS
  0
BLOCK
  8
0
  2
$MODEL_SPACE
 70
     0
 10
0.0
 20
0.0
 30
0.0
  3
$MODEL_SPACE
  1

  0
ENDBLK
  5
13C
  8
0
  0
BLOCK
 67
     1
  8
0
  2
$PAPER_SPACE
 70
     0
 10
0.0
 20
0.0
 30
0.0
  3
$PAPER_SPACE
  1

  0
ENDBLK
  5
13A
 67
     1
  8
0
  0
ENDSEC
  0
SECTION
  2
ENTITIES
  0
CIRCLE
  5
7E4
  8
0
 10
178.20072856376211
 20
398.54918956874332
 30
0.0
 40
11.0
  0
LINE
  5
7ED
  8
1
 10
152.31877240946389
 20
398.54918956874332
 30
0.0
 11
204.08268471806031
 21
398.54918956874332
 31
0.0
  0
CIRCLE
  5
7EF
  8
0
 10
178.20072856376211
 20
340.54918956874332
 30
0.0
 40
17.00000000000011
  0
CIRCLE
  5
7F0
  8
0
 10
178.20072856376211
 20
340.54918956874332
 30
0.0
 40
72.847949055462564
  0
CIRCLE
  5
7F1
  8
0
 10
178.20072856376211
 20
340.54918956874332
 30
0.0
 40
75.0
  0
LINE
  5
805
  8
1
 10
178.20072856376211
 20
430.43114572304142
 30
0.0
 11
178.20072856376211
 21
250.66723341444501
 31
0.0
  0
LINE
  5
806
  8
1
 10
88.318772409463918
 20
340.54918956874332
 30
0.0
 11
268.08268471806042
 21
340.54918956874332
 31
0.0
  0
LINE
  5
87D
  8
1
 10
398.01236341704799
 20
340.54918956874332
 30
0.0
 11
471.57131773395622
 21
340.54918956874332
 31
0.0
  0
ARC
  5
8A04
  8
0
 10
418.92954505889912
 20
413.14918956874311
 30
0.0
 40
2.400000000000023
 50
90.0
 51
176.05481377095811
  0
ARC
  5
8A05
  8
0
 10
418.92954505889912
 20
267.94918956874341
 30
0.0
 40
2.4000000000000341
 50
183.94518622904181
 51
270.0
  0
LINE
  5
8A06
  8
0
 10
443.189361579658
 20
265.54918956874332
 30
0.0
 11
418.92954505889912
 21
265.54918956874332
 31
0.0
  0
LINE
  5
8A07
  8
0
 10
418.92954505889912
 20
415.5491895687432
 30
0.0
 11
443.189361579658
 21
415.5491895687432
 31
0.0
  0
ARC
  5
8A08
  8
0
 10
443.189361579658
 20
414.0491895687432
 30
0.0
 40
1.500000000000014
 50
0.0
 51
90.000000853773628
  0
ARC
  5
8A09
  8
0
 10
443.189361579658
 20
267.04918956874332
 30
0.0
 40
1.500000000000014
 50
269.99999914622629
 51
0.0
  0
LINE
  5
8A0A
  8
0
 10
456.4893615796579
 20
321.54918956874332
 30
0.0
 11
444.689361579658
 21
321.54918956874332
 31
0.0
  0
LINE
  5
8A0B
  8
0
 10
444.689361579658
 20
359.54918956874332
 30
0.0
 11
456.4893615796579
 21
359.54918956874332
 31
0.0
  0
LINE
  5
8A0C
  8
0
 10
456.689361579658
 20
327.54918956874332
 30
0.0
 11
456.4893615796579
 21
327.54918956874332
 31
0.0
  0
LINE
  5
8A0D
  8
0
 10
456.4893615796579
 20
353.54918956874332
 30
0.0
 11
456.689361579658
 21
353.54918956874332
 31
0.0
  0
LINE
  5
8A0E
  8
0
 10
416.53523227068399
 20
267.78406454886641
 30
0.0
 11
412.68936157965788
 21
323.54918956874332
 31
0.0
  0
LINE
  5
8A0F
  8
0
 10
418.92954505889912
 20
415.5491895687432
 30
0.0
 11
418.92954505889912
 21
265.54918956874332
 31
0.0
  0
LINE
  5
8A10
  8
0
 10
444.689361579658
 20
414.0491895687432
 30
0.0
 11
444.689361579658
 21
267.04918956874332
 31
0.0
  0
LINE
  5
8A11
  8
0
 10
456.4893615796579
 20
359.54918956874332
 30
0.0
 11
456.4893615796579
 21
321.54918956874332
 31
0.0
  0
LINE
  5
8A12
  8
0
 10
456.689361579658
 20
353.54918956874332
 30
0.0
 11
456.689361579658
 21
327.54918956874332
 31
0.0
  0
LINE
  5
8A13
  8
0
 10
412.68936157965788
 20
357.54918956874332
 30
0.0
 11
412.68936157965788
 21
323.54918956874332
 31
0.0
  0
LINE
  5
8A14
  8
1
 10
398.01236341704799
 20
340.54918956874332
 30
0.0
 11
471.57131773395622
 21
340.54918956874332
 31
0.0
  0
LINE
  5
8A15
  8
2
 10
426.689361579658
 20
325.5492048996739
 30
0.0
 11
426.689361579658
 21
355.54920162419188
 31
0.0
  0
LINE
  5
8A16
  8
2
 10
416.68936157965788
 20
323.5491895687428
 30
0.0
 11
416.68936157965788
 21
357.5491895688188
 31
0.0
  0
LINE
  5
8A17
  8
2
 10
456.689361579658
 20
333.54918956874297
 30
0.0
 11
426.689361579658
 21
333.54918956874371
 31
0.0
  0
LINE
  5
8A18
  8
2
 10
426.689361579658
 20
347.5491895687432
 30
0.0
 11
456.689361579658
 21
347.5491895687432
 31
0.0
  0
LINE
  5
8A19
  8
2
 10
456.4893615796579
 20
353.54918956874332
 30
0.0
 11
428.69321834142232
 21
353.54918956874332
 31
0.0
  0
LINE
  5
8A1A
  8
2
 10
413.68936157965481
 20
357.54918956881897
 30
0.0
 11
413.68936157965481
 21
323.54918956874332
 31
0.0
  0
LINE
  5
8A1B
  8
2
 10
428.69303191185071
 20
352.54918956874332
 30
0.0
 11
428.69321834142232
 21
353.54918956874332
 31
0.0
  0
LINE
  5
8A1C
  8
2
 10
426.68917515008633
 20
352.54918956874309
 30
0.0
 11
428.69303191185071
 21
352.54918956874309
 31
0.0
  0
LINE
  5
8A1D
  8
2
 10
456.4893615796579
 20
327.54918956874332
 30
0.0
 11
428.69321834142232
 21
327.54918956874332
 31
0.0
  0
LINE
  5
8A1E
  8
2
 10
428.69303191185071
 20
328.54918956874332
 30
0.0
 11
428.69321834142232
 21
327.54918956874332
 31
0.0
  0
LINE
  5
8A1F
  8
2
 10
426.68917515008633
 20
328.54918956874349
 30
0.0
 11
428.69303191185071
 21
328.54918956874349
 31
0.0
  0
LINE
  5
8A20
  8
2
 10
412.68936157966323
 20
357.54918956881909
 30
0.0
 11
416.68936157965788
 21
357.54918956881897
 31
0.0
  0
LINE
  5
8A21
  8
2
 10
412.68936157965788
 20
323.54918956874337
 30
0.0
 11
416.68936157965788
 21
323.54918956874309
 31
0.0
  0
LINE
  5
8A22
  8
2
 10
426.689361579658
 20
355.54920162419188
 30
0.0
 11
416.68938488365609
 21
355.5492672472792
 31
0.0
  0
LINE
  5
8A23
  8
2
 10
426.689361579658
 20
325.5492048996739
 30
0.0
 11
416.68915184669157
 21
325.54926724818438
 31
0.0
  0
LINE
  5
8A24
  8
0
 10
416.53523227068399
 20
413.31431458861999
 30
0.0
 11
412.68936157965788
 21
357.54918956874332
 31
0.0
  0
ARC
  5
8A25
  8
0
 10
250.80072856376211
 20
109.9912518732032
 30
0.0
 40
2.400000000000023
 50
0.0
 51
86.054813770958148
  0
ARC
  5
8A26
  8
0
 10
105.6007285637622
 20
109.9912518732032
 30
0.0
 40
2.4000000000000341
 50
93.945186229041838
 51
180.0
  0
LINE
  5
8A27
  8
0
 10
103.2007285637622
 20
85.73143535244435
 30
0.0
 11
103.2007285637622
 21
109.9912518732032
 31
0.0
  0
LINE
  5
8A28
  8
0
 10
253.2007285637622
 20
109.9912518732032
 30
0.0
 11
253.2007285637622
 21
85.73143535244435
 31
0.0
  0
ARC
  5
8A29
  8
0
 10
251.70072856376211
 20
85.73143535244435
 30
0.0
 40
1.500000000000014
 50
270.0
 51
0.0000008537736463
  0
ARC
  5
8A2A
  8
0
 10
104.7007285637622
 20
85.73143535244435
 30
0.0
 40
1.500000000000014
 50
179.99999914622629
 51
270.0
  0
LINE
  5
8A2B
  8
0
 10
159.20072856376211
 20
72.431435352444396
 30
0.0
 11
159.20072856376211
 21
84.23143535244435
 31
0.0
  0
LINE
  5
8A2C
  8
0
 10
197.20072856376211
 20
84.23143535244435
 30
0.0
 11
197.20072856376211
 21
72.431435352444396
 31
0.0
  0
LINE
  5
8A2D
  8
0
 10
165.20072856376211
 20
72.23143535244435
 30
0.0
 11
165.20072856376211
 21
72.431435352444396
 31
0.0
  0
LINE
  5
8A2E
  8
0
 10
191.20072856376211
 20
72.431435352444396
 30
0.0
 11
191.20072856376211
 21
72.23143535244435
 31
0.0
  0
LINE
  5
8A2F
  8
0
 10
105.43560354388531
 20
112.3855646614183
 30
0.0
 11
161.20072856376211
 21
116.23143535244429
 31
0.0
  0
LINE
  5
8A30
  8
0
 10
253.2007285637622
 20
109.9912518732032
 30
0.0
 11
103.2007285637622
 21
109.9912518732032
 31
0.0
  0
LINE
  5
8A31
  8
0
 10
251.70072856376211
 20
84.23143535244435
 30
0.0
 11
104.7007285637622
 21
84.23143535244435
 31
0.0
  0
LINE
  5
8A32
  8
0
 10
197.20072856376211
 20
72.431435352444396
 30
0.0
 11
159.20072856376211
 21
72.431435352444396
 31
0.0
  0
LINE
  5
8A33
  8
0
 10
191.20072856376211
 20
72.23143535244435
 30
0.0
 11
165.20072856376211
 21
72.23143535244435
 31
0.0
  0
LINE
  5
8A34
  8
0
 10
195.20072856376211
 20
116.23143535244429
 30
0.0
 11
161.20072856376211
 21
116.23143535244429
 31
0.0
  0
LINE
  5
8A36
  8
2
 10
163.20074389469281
 20
102.23143535244429
 30
0.0
 11
193.20074061921079
 21
102.23143535244429
 31
0.0
  0
LINE
  5
8A37
  8
2
 10
161.20072856376169
 20
112.23143535244429
 30
0.0
 11
195.2007285638376
 21
112.23143535244429
 31
0.0
  0
LINE
  5
8A38
  8
2
 10
171.20072856376191
 20
72.23143535244435
 30
0.0
 11
171.2007285637626
 21
102.23143535244429
 31
0.0
  0
LINE
  5
8A39
  8
2
 10
185.20072856376211
 20
102.23143535244429
 30
0.0
 11
185.20072856376211
 21
72.23143535244435
 31
0.0
  0
LINE
  5
8A3A
  8
2
 10
191.20072856376211
 20
72.431435352444396
 30
0.0
 11
191.20072856376211
 21
100.2275785906799
 31
0.0
  0
LINE
  5
8A3B
  8
2
 10
195.2007285638378
 20
115.23143535244751
 30
0.0
 11
161.20072856376211
 21
115.23143535244751
 31
0.0
  0
LINE
  5
8A3C
  8
2
 10
190.20072856376211
 20
100.2277650202516
 30
0.0
 11
191.20072856376211
 21
100.2275785906799
 31
0.0
  0
LINE
  5
8A3D
  8
2
 10
190.20072856376191
 20
102.23162178201591
 30
0.0
 11
190.20072856376191
 21
100.2277650202516
 31
0.0
  0
LINE
  5
8A3E
  8
2
 10
165.20072856376211
 20
72.431435352444396
 30
0.0
 11
165.20072856376211
 21
100.2275785906799
 31
0.0
  0
LINE
  5
8A3F
  8
2
 10
166.20072856376211
 20
100.2277650202516
 30
0.0
 11
165.20072856376211
 21
100.2275785906799
 31
0.0
  0
LINE
  5
8A40
  8
2
 10
166.20072856376231
 20
102.23162178201591
 30
0.0
 11
166.20072856376231
 21
100.2277650202516
 31
0.0
  0
LINE
  5
8A41
  8
2
 10
195.20072856383791
 20
116.23143535243911
 30
0.0
 11
195.2007285638378
 21
112.23143535244429
 31
0.0
  0
LINE
  5
8A42
  8
2
 10
161.2007285637622
 20
116.23143535244429
 30
0.0
 11
161.20072856376191
 21
112.23143535244429
 31
0.0
  0
LINE
  5
8A43
  8
2
 10
193.20074061921079
 20
102.23143535244429
 30
0.0
 11
193.20080624229811
 21
112.2314120484461
 31
0.0
  0
LINE
  5
8A44
  8
2
 10
163.20074389469281
 20
102.23143535244429
 30
0.0
 11
163.2008062432032
 21
112.2316450854107
 31
0.0
  0
LINE
  5
8A45
  8
0
 10
250.9658535836389
 20
112.3855646614183
 30
0.0
 11
195.20072856376211
 21
116.23143535244429
 31
0.0
  0
LINE
  5
8A48
  8
0
 10
412.38936157965799
 20
405.2991895687432
 30
0.0
 11
412.68936157965788
 21
405.2991895687432
 31
0.0
  0
LINE
  5
8A49
  8
0
 10
412.68936157965788
 20
391.79918956874332
 30
0.0
 11
412.38936157965799
 21
391.79918956874332
 31
0.0
  0
LINE
  5
8A4A
  8
0
 10
391.689361579658
 20
407.54918956874332
 30
0.0
 11
412.38936157965799
 21
407.54918956874332
 31
0.0
  0
LINE
  5
8A4B
  8
0
 10
412.38936157965799
 20
389.54918956874332
 30
0.0
 11
391.689361579658
 21
389.54918956874332
 31
0.0
  0
ARC
  5
8A4C
  8
0
 10
389.689361579658
 20
389.54918956874332
 30
0.0
 40
2.0
 50
270.0
 51
0.0
  0
ARC
  5
8A4D
  8
0
 10
389.689361579658
 20
407.54918956874332
 30
0.0
 40
2.0
 50
0.0
 51
90.0
  0
LINE
  5
8A4E
  8
0
 10
358.689361579658
 20
409.5491895687432
 30
0.0
 11
389.689361579658
 21
409.5491895687432
 31
0.0
  0
LINE
  5
8A4F
  8
0
 10
389.689361579658
 20
387.5491895687432
 30
0.0
 11
358.689361579658
 21
387.5491895687432
 31
0.0
  0
ARC
  5
8A50
  8
0
 10
358.689361579658
 20
398.54918956874332
 30
0.0
 40
11.0
 50
90.0
 51
270.0
  0
LINE
  5
8A51
  8
0
 10
412.38936157965799
 20
389.54918956874332
 30
0.0
 11
412.38936157965799
 21
407.54918956874332
 31
0.0
  0
LINE
  5
8A52
  8
0
 10
391.689361579658
 20
389.54918956874332
 30
0.0
 11
391.689361579658
 21
407.54918956874332
 31
0.0
  0
LINE
  5
8A53
  8
0
 10
389.689361579658
 20
387.5491895687432
 30
0.0
 11
389.689361579658
 21
409.5491895687432
 31
0.0
  0
LINE
  5
8A54
  8
0
 10
358.689361579658
 20
387.5491895687432
 30
0.0
 11
358.689361579658
 21
409.5491895687432
 31
0.0
  0
LINE
  5
8A55
  8
1
 10
433.81150121319729
 20
398.54918956874332
 30
0.0
 11
332.80740542535978
 21
398.54918956874332
 31
0.0
  0
LINE
  5
8A56
  8
0
 10
414.96522364862352
 20
390.54918956874332
 30
0.0
 11
412.68936157965788
 21
390.54918956874332
 31
0.0
  0
LINE
  5
8A57
  8
0
 10
412.68936157965788
 20
406.5491895687432
 30
0.0
 11
416.0686719244855
 21
406.5491895687432
 31
0.0
  0
LINE
  5
8A58
  8
0
 10
412.68936157965788
 20
390.54918956874332
 30
0.0
 11
412.68936157965788
 21
406.5491895687432
 31
0.0
  0
POINT
  5
8A59
  8
0
 10
347.689361579658
 20
398.54918956874332
 30
-0.0000000000000098
210
-1.0
220
0.0000000000000001
230
0.0
 50
180.0
  0
LINE
  5
8A5D
  8
0
 10
169.20072856376211
 20
137.23143535244429
 30
0.0
 11
169.20072856376211
 21
116.5314353524443
 31
0.0
  0
LINE
  5
8A5E
  8
0
 10
187.20072856376211
 20
116.5314353524443
 30
0.0
 11
187.20072856376211
 21
137.23143535244429
 31
0.0
  0
ARC
  5
8A5F
  8
0
 10
187.20072856376211
 20
139.23143535244429
 30
0.0
 40
2.0
 50
270.0
 51
0.0
  0
ARC
  5
8A60
  8
0
 10
169.20072856376211
 20
139.23143535244429
 30
0.0
 40
2.000000000000008
 50
180.0
 51
270.0
  0
LINE
  5
8A61
  8
0
 10
167.20072856376211
 20
170.23143535244429
 30
0.0
 11
167.20072856376211
 21
139.23143535244429
 31
0.0
  0
LINE
  5
8A62
  8
0
 10
189.20072856376211
 20
139.23143535244429
 30
0.0
 11
189.20072856376211
 21
170.23143535244429
 31
0.0
  0
ARC
  5
8A63
  8
0
 10
178.20072856376211
 20
170.23143535244429
 30
0.0
 40
10.999999999999989
 50
0.0
 51
180.0
  0
LINE
  5
8A64
  8
0
 10
187.20072856376211
 20
137.23143535244429
 30
0.0
 11
169.20072856376211
 21
137.23143535244429
 31
0.0
  0
LINE
  5
8A65
  8
0
 10
189.20072856376211
 20
139.23143535244429
 30
0.0
 11
167.20072856376211
 21
139.23143535244429
 31
0.0
  0
LINE
  5
8A66
  8
0
 10
189.20072856376211
 20
170.23143535244429
 30
0.0
 11
167.20072856376211
 21
170.23143535244429
 31
0.0
  0
LINE
  5
8A67
  8
1
 10
178.20072856376211
 20
57.34947919814612
 30
0.0
 11
178.20072856376211
 21
196.1133915067426
 31
0.0
  0
POINT
  5
8A68
  8
0
 10
178.20072856376211
 20
181.23143535244429
 30
58.0
210
0.0
220
1.0
230
0.0
  0
LINE
  5
8A69
  8
0
 10
171.45072856376211
 20
116.5314353524443
 30
0.0
 11
171.45072856376211
 21
116.23143535244429
 31
0.0
  0
LINE
  5
8A6A
  8
0
 10
184.95072856376211
 20
116.23143535244429
 30
0.0
 11
184.95072856376211
 21
116.5314353524443
 31
0.0
  0
LINE
  5
8A6E
  8
0
 10
169.20072856376211
 20
116.5314353524443
 30
0.0
 11
187.20072856376211
 21
116.5314353524443
 31
0.0
  0
TEXT
  5
8AFB
  8
0
 62
     3
 10
0.0
 20
0.0
 30
0.0
 40
10.0
  1
EDHN150R-RE
  7
STANDARD1
  0
ENDSEC
  0
EOF
