  0
SECTION
  2
HEADER
  9
$ACADVER
  1
AC1009
  9
$INSBASE
 10
0.0
 20
0.0
 30
0.0
  9
$EXTMIN
 10
0.0
 20
-2.960436562073669
 30
0.0
  9
$EXTMAX
 10
373.46377441521008
 20
353.32447454624207
 30
0.0
  9
$LIMMIN
 10
0.0
 20
0.0
  9
$LIMMAX
 10
750.0
 20
540.0
  9
$ORTHOMODE
 70
     1
  9
$REGENMODE
 70
     1
  9
$FILLMODE
 70
     1
  9
$QTEXTMODE
 70
     0
  9
$MIRRTEXT
 70
     0
  9
$DRAGMODE
 70
     2
  9
$LTSCALE
 40
20.0
  9
$OSMODE
 70
  3071
  9
$ATTMODE
 70
     1
  9
$TEXTSIZE
 40
0.2
  9
$TRACEWID
 40
0.05
  9
$TEXTSTYLE
  7
STANDARD
  9
$CLAYER
  8
0
  9
$CELTYPE
  6
BYLAYER
  9
$CECOLOR
 62
     6
  9
$DIMSCALE
 40
1.0
  9
$DIMASZ
 40
3.0
  9
$DIMEXO
 40
2.0
  9
$DIMDLI
 40
0.3799999999999999
  9
$DIMRND
 40
0.0
  9
$DIMDLE
 40
0.0
  9
$DIMEXE
 40
2.0
  9
$DIMTP
 40
0.0
  9
$DIMTM
 40
0.0
  9
$DIMTXT
 40
3.0
  9
$DIMCEN
 40
0.09
  9
$DIMTSZ
 40
0.0
  9
$DIMTOL
 70
     0
  9
$DIMLIM
 70
     0
  9
$DIMTIH
 70
     0
  9
$DIMTOH
 70
     0
  9
$DIMSE1
 70
     0
  9
$DIMSE2
 70
     0
  9
$DIMTAD
 70
     1
  9
$DIMZIN
 70
     8
  9
$DIMBLK
  1

  9
$DIMASO
 70
     1
  9
$DIMSHO
 70
     0
  9
$DIMPOST
  1

  9
$DIMAPOST
  1

  9
$DIMALT
 70
     0
  9
$DIMALTD
 70
     2
  9
$DIMALTF
 40
25.399999999999999
  9
$DIMLFAC
 40
1.0
  9
$DIMTOFL
 70
     0
  9
$DIMTVP
 40
1.6000000000000001
  9
$DIMTIX
 70
     1
  9
$DIMSOXD
 70
     0
  9
$DIMSAH
 70
     0
  9
$DIMBLK1
  1

  9
$DIMBLK2
  1

  9
$DIMSTYLE
  2
STANDARD
  9
$DIMCLRD
 70
     0
  9
$DIMCLRE
 70
     0
  9
$DIMCLRT
 70
     0
  9
$DIMTFAC
 40
1.0
  9
$DIMGAP
 40
1.5
  9
$LUNITS
 70
     2
  9
$LUPREC
 70
     4
  9
$SKETCHINC
 40
0.1
  9
$FILLETRAD
 40
0.2
  9
$AUNITS
 70
     0
  9
$AUPREC
 70
     0
  9
$MENU
  1
E:\r13\win\SUPPORT\ACAD
  9
$ELEVATION
 40
0.0
  9
$PELEVATION
 40
0.0
  9
$THICKNESS
 40
0.0
  9
$LIMCHECK
 70
     0
  9
$BLIPMODE
 70
     0
  9
$CHAMFERA
 40
0.0
  9
$CHAMFERB
 40
0.0
  9
$SKPOLY
 70
     0
  9
$TDCREATE
 40
2449839.7807291672
  9
$TDUPDATE
 40
2456598.6441080212
  9
$TDINDWG
 40
0.5914190278
  9
$TDUSRTIMER
 40
0.5914190278
  9
$USRTIMER
 70
     1
  9
$ANGBASE
 50
0.0
  9
$ANGDIR
 70
     0
  9
$PDMODE
 70
     0
  9
$PDSIZE
 40
0.0
  9
$PLINEWID
 40
0.0
  9
$COORDS
 70
     1
  9
$SPLFRAME
 70
     0
  9
$SPLINETYPE
 70
     6
  9
$SPLINESEGS
 70
     8
  9
$ATTDIA
 70
     0
  9
$ATTREQ
 70
     1
  9
$HANDLING
 70
     1
  9
$HANDSEED
  5
AABC
  9
$SURFTAB1
 70
     6
  9
$SURFTAB2
 70
     6
  9
$SURFTYPE
 70
     6
  9
$SURFU
 70
     6
  9
$SURFV
 70
     6
  9
$UCSNAME
  2

  9
$UCSORG
 10
0.0
 20
0.0
 30
0.0
  9
$UCSXDIR
 10
1.0
 20
0.0
 30
0.0
  9
$UCSYDIR
 10
0.0
 20
1.0
 30
0.0
  9
$PUCSNAME
  2

  9
$PUCSORG
 10
0.0
 20
0.0
 30
0.0
  9
$PUCSXDIR
 10
1.0
 20
0.0
 30
0.0
  9
$PUCSYDIR
 10
0.0
 20
1.0
 30
0.0
  9
$USERI1
 70
     0
  9
$USERI2
 70
     1
  9
$USERI3
 70
     1
  9
$USERI4
 70
     0
  9
$USERI5
 70
     0
  9
$USERR1
 40
0.0
  9
$USERR2
 40
0.0
  9
$USERR3
 40
0.0
  9
$USERR4
 40
0.0
  9
$USERR5
 40
0.0
  9
$WORLDVIEW
 70
     1
  9
$SHADEDGE
 70
     3
  9
$SHADEDIF
 70
    70
  9
$TILEMODE
 70
     1
  9
$MAXACTVP
 70
    16
  9
$PLIMCHECK
 70
     0
  9
$PEXTMIN
 10
1.0000000000000000E+020
 20
1.0000000000000000E+020
 30
1.0000000000000000E+020
  9
$PEXTMAX
 10
-1.0000000000000000E+020
 20
-1.0000000000000000E+020
 30
-1.0000000000000000E+020
  9
$PLIMMIN
 10
0.0
 20
0.0
  9
$PLIMMAX
 10
12.0
 20
9.0
  9
$UNITMODE
 70
     0
  9
$VISRETAIN
 70
     0
  9
$PLINEGEN
 70
     0
  9
$PSLTSCALE
 70
     0
  0
ENDSEC
  0
SECTION
  2
TABLES
  0
TABLE
  2
VPORT
 70
     1
  0
VPORT
  2
*ACTIVE
 70
     0
 10
0.0
 20
0.0
 11
1.0
 21
1.0
 12
374.98855678130462
 22
340.90031900923282
 13
0.0
 23
0.0
 14
20.0
 24
20.0
 15
20.0
 25
20.0
 16
0.0
 26
0.0
 36
1.0
 17
0.0
 27
0.0
 37
0.0
 40
694.00739314055488
 41
1.831871345029239
 42
50.0
 43
0.0
 44
0.0
 50
0.0
 51
0.0
 71
     0
 72
   500
 73
     1
 74
     0
 75
     0
 76
     0
 77
     0
 78
     0
  0
ENDTAB
  0
TABLE
  2
LTYPE
 70
     4
  0
LTYPE
  2
CONTINUOUS
 70
     0
  3
Solid Line
 72
    65
 73
     0
 40
0.0
  0
LTYPE
  2
CENTER
 70
     0
  3
____ _ ____ _ ____ _ ____ _ ____ _ ____ _ ____
 72
    65
 73
     4
 40
2.0
 49
1.25
 49
-0.25
 49
0.25
 49
-0.25
  0
LTYPE
  2
HIDDEN
 70
     0
  3
Hidden __ __ __ __ __ __ __ __ __ __ __ __ __ _
 72
    65
 73
     2
 40
0.375
 49
0.25
 49
-0.125
  0
LTYPE
  2
PHANTOM2
 70
     0
  3
___ _ _ ___ _ _ ___ _ _ ___ _ _
 72
    65
 73
     6
 40
1.25
 49
0.625
 49
-0.125
 49
0.125
 49
-0.125
 49
0.125
 49
-0.125
  0
ENDTAB
  0
TABLE
  2
LAYER
 70
     4
  0
LAYER
  2
0
 70
     0
 62
     7
  6
CONTINUOUS
  0
LAYER
  2
1
 70
     0
 62
     1
  6
CENTER
  0
LAYER
  2
2
 70
     0
 62
     2
  6
HIDDEN
  0
LAYER
  2
DEFPOINTS
 70
     0
 62
     7
  6
CONTINUOUS
  0
ENDTAB
  0
TABLE
  2
STYLE
 70
     2
  0
STYLE
  2
STANDARD
 70
     0
 40
0.0
 41
1.0
 50
0.0
 71
     0
 42
0.2
  3
TXT
  4
BIGFONT
  0
STYLE
  2
STANDARD1
 70
     0
 40
0.0
 41
1.0
 50
0.0
 71
     0
 42
3.0
  3
txt
  4

  0
ENDTAB
  0
TABLE
  2
VIEW
 70
     1
  0
VIEW
  2
ALL
 70
     0
 40
540.0
 10
441.98319327731087
 20
270.0
 41
0.0
 11
0.0
 21
0.0
 31
1.0
 12
0.0
 22
0.0
 32
0.0
 42
0.0
 43
0.0
 44
0.0
 50
0.0
 71
     0
  0
ENDTAB
  0
TABLE
  2
UCS
 70
     0
  0
ENDTAB
  0
TABLE
  2
APPID
 70
    11
  0
APPID
  2
ACAD
 70
     0
  0
APPID
  2
ACAD_EXEMPT_FROM_CAD_STANDARDS
 70
     0
  0
APPID
  2
ACAD_DSTYLE_DIMJAG
 70
     0
  0
APPID
  2
ACAD_DSTYLE_DIMTALN
 70
     0
  0
APPID
  2
ACAD_MLEADERVER
 70
     0
  0
APPID
  2
GENIUS_GENODEF_13
 70
     0
  0
APPID
  2
GENIUS_GENOBJ-N-FIL_13
 70
     0
  0
APPID
  2
GENIUS_GENOREF_13
 70
     0
  0
APPID
  2
ACAD_PSEXT
 70
     0
  0
APPID
  2
ACAD_DSTYLE_DIMRADIAL_EXTENSION
 70
     0
  0
APPID
  2
ACAD_NAV_VCDISPLAY
 70
     0
  0
ENDTAB
  0
TABLE
  2
DIMSTYLE
 70
     1
  0
DIMSTYLE
  2
STANDARD
 70
     0
  3

  4

  5

  6

  7

 40
1.0
 41
0.18
 42
0.0625
 43
0.38
 44
0.18
 45
0.0
 46
0.0
 47
0.0
 48
0.0
140
0.18
141
0.09
142
0.0
143
25.399999999999999
144
1.0
145
0.0
146
1.0
147
0.09
 71
     0
 72
     0
 73
     1
 74
     1
 75
     0
 76
     0
 77
     0
 78
     0
170
     0
171
     2
172
     0
173
     0
174
     0
175
     0
176
     0
177
     0
178
     0
  0
ENDTAB
  0
ENDSEC
  0
SECTION
  2
BLOCKS
  0
BLOCK
  8
0
  2
$MODEL_SPACE
 70
     0
 10
0.0
 20
0.0
 30
0.0
  3
$MODEL_SPACE
  1

  0
ENDBLK
  5
13C
  8
0
  0
BLOCK
 67
     1
  8
0
  2
$PAPER_SPACE
 70
     0
 10
0.0
 20
0.0
 30
0.0
  3
$PAPER_SPACE
  1

  0
ENDBLK
  5
13A
 67
     1
  8
0
  0
ENDSEC
  0
SECTION
  2
ENTITIES
  0
CIRCLE
  5
9CD2
  8
0
 10
137.00391673307561
 20
326.70187398609761
 30
0.0
 40
9.0000000000000089
  0
CIRCLE
  5
9D14
  8
0
 10
137.00391673307561
 20
277.70187398609761
 30
0.0
 40
15.500000000000011
  0
CIRCLE
  5
9D15
  8
0
 10
137.00391673307561
 20
277.70187398609761
 30
0.0
 40
60.467596660924791
  0
CIRCLE
  5
9D16
  8
0
 10
137.00391673307561
 20
277.70187398609761
 30
0.0
 40
62.5
  0
LINE
  5
9D3D
  8
1
 10
61.381316172931093
 20
277.70187398609761
 30
0.0
 11
212.6265172932201
 21
277.70187398609761
 31
0.0
  0
LINE
  5
9D3E
  8
1
 10
137.00391673307561
 20
353.32447454624207
 30
0.0
 11
137.00391673307561
 21
202.07927342595301
 31
0.0
  0
LINE
  5
9D40
  8
1
 10
121.00452796563231
 20
326.70187398609761
 30
0.0
 11
153.00330550051891
 21
326.70187398609761
 31
0.0
  0
LINE
  5
A206
  8
2
 10
152.50391673307561
 20
86.951641503833443
 30
0.0
 11
152.50391673307561
 21
88.451641503833443
 31
0.0
  0
LINE
  5
A207
  8
2
 10
121.5039167330756
 20
88.451641503833443
 30
0.0
 11
121.5039167330756
 21
86.951641503833443
 31
0.0
  0
LINE
  5
A208
  8
0
 10
197.47151339400031
 20
85.016012745406869
 30
0.0
 11
152.50391673307561
 21
88.451641503833443
 31
0.0
  0
LINE
  5
A209
  8
0
 10
121.5039167330756
 20
88.451641503833443
 30
0.0
 11
76.536320072152222
 21
85.016012745406897
 31
0.0
  0
ARC
  5
A20A
  8
0
 10
76.703916733075545
 20
82.822405816340734
 30
0.0
 40
2.1999999999999851
 50
94.369042577037106
 51
180.0
  0
ARC
  5
A20B
  8
0
 10
197.30391673307551
 20
82.822405816340719
 30
0.0
 40
2.1999999999999891
 50
0.0
 51
85.630957422956371
  0
LINE
  5
A20C
  8
0
 10
199.50391673307561
 20
61.32664150383345
 30
0.0
 11
199.50391673307561
 21
82.822405816340719
 31
0.0
  0
LINE
  5
A20D
  8
0
 10
74.503916733075556
 20
82.822405816340734
 30
0.0
 11
74.503916733075556
 21
61.326641503833343
 31
0.0
  0
ARC
  5
A20E
  8
0
 10
75.878916733075556
 20
61.326641503833343
 30
0.0
 40
1.375000000000014
 50
180.0
 51
270.0
  0
ARC
  5
A20F
  8
0
 10
198.12891673307561
 20
61.32664150383345
 30
0.0
 40
1.375
 50
270.0
 51
0.0
  0
LINE
  5
A210
  8
0
 10
154.50391673307561
 20
49.151641503833503
 30
0.0
 11
154.50391673307561
 21
59.951641503833351
 31
0.0
  0
LINE
  5
A211
  8
0
 10
119.5039167330756
 20
59.951641503833351
 30
0.0
 11
119.5039167330756
 21
49.151641503833389
 31
0.0
  0
LINE
  5
A212
  8
0
 10
124.0039167330756
 20
49.151641503833389
 30
0.0
 11
124.0039167330756
 21
48.951641503833457
 31
0.0
  0
LINE
  5
A213
  8
2
 10
152.50391673307561
 20
86.951641503833443
 30
0.0
 11
121.5039167330756
 21
86.951641503833443
 31
0.0
  0
LINE
  5
A214
  8
0
 10
76.536320072150744
 20
85.016012745406897
 30
0.0
 11
197.47151339400031
 21
85.016012745406869
 31
0.0
  0
LINE
  5
A215
  8
0
 10
75.878916733075556
 20
59.951641503833351
 30
0.0
 11
198.12891673307561
 21
59.951641503833351
 31
0.0
  0
LINE
  5
A216
  8
0
 10
119.5039167330756
 20
49.151641503833389
 30
0.0
 11
154.50391673307561
 21
49.151641503833389
 31
0.0
  0
LINE
  5
A217
  8
0
 10
124.0039167330756
 20
48.951641503833457
 30
0.0
 11
150.00391673307561
 21
48.951641503833457
 31
0.0
  0
LINE
  5
A218
  8
2
 10
124.0039167330756
 20
49.151641503833389
 30
0.0
 11
124.0039167330756
 21
74.951641503833443
 31
0.0
  0
LINE
  5
A219
  8
2
 10
150.00391673307561
 20
49.151641503833389
 30
0.0
 11
150.00391673307561
 21
74.951641503833443
 31
0.0
  0
LINE
  5
A21A
  8
0
 10
150.00391673307561
 20
48.951641503833457
 30
0.0
 11
150.00391673307561
 21
49.151641503833389
 31
0.0
  0
LINE
  5
A21B
  8
0
 10
121.5039167330756
 20
88.451641503833443
 30
0.0
 11
152.50391673307561
 21
88.451641503833443
 31
0.0
  0
LINE
  5
A21C
  8
2
 10
124.0039167330756
 20
74.951641503833443
 30
0.0
 11
125.0039167330756
 21
74.951641503833429
 31
0.0
  0
LINE
  5
A21D
  8
2
 10
123.0039167330756
 20
75.951641503833443
 30
0.0
 11
151.00391673307561
 21
75.951641503833443
 31
0.0
  0
LINE
  5
A21E
  8
2
 10
149.00391673307561
 20
74.951641503833443
 30
0.0
 11
150.00391673307561
 21
74.951641503833443
 31
0.0
  0
LINE
  5
A21F
  8
2
 10
125.0039167330756
 20
74.951641503833443
 30
0.0
 11
125.0039167330756
 21
75.951641503833443
 31
0.0
  0
LINE
  5
A220
  8
2
 10
149.00391673307561
 20
74.951641503833443
 30
0.0
 11
149.00391673307561
 21
75.951641503833443
 31
0.0
  0
LINE
  5
A221
  8
1
 10
137.00391673307561
 20
35.829040943688938
 30
0.0
 11
137.00391673307561
 21
156.57424206397789
 31
0.0
  0
LINE
  5
A222
  8
2
 10
123.0039167330756
 20
75.951641503833443
 30
0.0
 11
123.0039167330756
 21
86.951641503833443
 31
0.0
  0
LINE
  5
A223
  8
2
 10
151.00391673307561
 20
75.951641503833443
 30
0.0
 11
151.00391673307561
 21
86.951641503833443
 31
0.0
  0
LINE
  5
A224
  8
2
 10
131.00391673307561
 20
75.951641503833443
 30
0.0
 11
131.00391673307561
 21
48.951641503833457
 31
0.0
  0
LINE
  5
A225
  8
2
 10
143.00391673307561
 20
75.951641503833443
 30
0.0
 11
143.00391673307561
 21
48.951641503833457
 31
0.0
  0
LINE
  5
A80A
  8
1
 10
339.45604858640718
 20
326.70187398609761
 30
0.0
 11
252.7185732949211
 21
326.70187398609761
 31
0.0
  0
LINE
  5
A80B
  8
2
 10
322.34117385506562
 20
262.20187398609761
 30
0.0
 11
320.84117385506562
 21
262.20187398609761
 31
0.0
  0
LINE
  5
A80C
  8
2
 10
320.84117385506562
 20
293.2018739860975
 30
0.0
 11
322.34117385506562
 21
293.2018739860975
 31
0.0
  0
LINE
  5
A80D
  8
0
 10
324.27680261349212
 20
217.23427732517271
 30
0.0
 11
320.84117385506562
 21
262.20187398609761
 31
0.0
  0
LINE
  5
A80E
  8
0
 10
320.84117385506562
 20
293.2018739860975
 30
0.0
 11
324.27680261349212
 21
338.16947064702089
 31
0.0
  0
ARC
  5
A80F
  8
0
 10
326.47040954255829
 20
338.00187398609762
 30
0.0
 40
2.1999999999999851
 50
90.0
 51
175.63095742296289
  0
ARC
  5
A810
  8
0
 10
326.47040954255829
 20
217.4018739860976
 30
0.0
 40
2.1999999999999891
 50
184.36904257704359
 51
270.0
  0
LINE
  5
A811
  8
0
 10
347.96617385506562
 20
215.2018739860975
 30
0.0
 11
326.47040954255829
 21
215.2018739860975
 31
0.0
  0
LINE
  5
A812
  8
0
 10
326.47040954255829
 20
340.20187398609761
 30
0.0
 11
347.96617385506568
 21
340.20187398609761
 31
0.0
  0
ARC
  5
A813
  8
0
 10
347.96617385506568
 20
338.82687398609761
 30
0.0
 40
1.375000000000014
 50
0.0
 51
90.0
  0
ARC
  5
A814
  8
0
 10
347.96617385506562
 20
216.5768739860975
 30
0.0
 40
1.375
 50
270.0
 51
0.0
  0
LINE
  5
A815
  8
0
 10
360.14117385506552
 20
260.20187398609761
 30
0.0
 11
349.34117385506568
 21
260.20187398609761
 31
0.0
  0
LINE
  5
A816
  8
0
 10
349.34117385506568
 20
295.2018739860975
 30
0.0
 11
360.14117385506557
 21
295.2018739860975
 31
0.0
  0
LINE
  5
A817
  8
0
 10
360.14117385506557
 20
290.7018739860975
 30
0.0
 11
360.34117385506562
 21
290.7018739860975
 31
0.0
  0
LINE
  5
A818
  8
2
 10
322.34117385506562
 20
262.20187398609761
 30
0.0
 11
322.34117385506562
 21
293.2018739860975
 31
0.0
  0
LINE
  5
A819
  8
0
 10
324.27680261349212
 20
338.16947064702242
 30
0.0
 11
324.27680261349212
 21
217.23427732517271
 31
0.0
  0
LINE
  5
A81A
  8
0
 10
349.34117385506568
 20
338.82687398609761
 30
0.0
 11
349.34117385506568
 21
216.5768739860975
 31
0.0
  0
LINE
  5
A81B
  8
0
 10
360.14117385506557
 20
295.2018739860975
 30
0.0
 11
360.14117385506557
 21
260.20187398609761
 31
0.0
  0
LINE
  5
A81C
  8
0
 10
360.34117385506562
 20
290.7018739860975
 30
0.0
 11
360.34117385506562
 21
264.70187398609761
 31
0.0
  0
LINE
  5
A81D
  8
2
 10
360.14117385506557
 20
290.7018739860975
 30
0.0
 11
334.34117385506562
 21
290.7018739860975
 31
0.0
  0
LINE
  5
A81E
  8
2
 10
360.14117385506557
 20
264.70187398609761
 30
0.0
 11
334.34117385506562
 21
264.70187398609761
 31
0.0
  0
LINE
  5
A81F
  8
0
 10
360.34117385506562
 20
264.70187398609761
 30
0.0
 11
360.14117385506557
 21
264.70187398609761
 31
0.0
  0
LINE
  5
A820
  8
0
 10
320.84117385506562
 20
293.2018739860975
 30
0.0
 11
320.84117385506562
 21
262.20187398609761
 31
0.0
  0
LINE
  5
A821
  8
2
 10
334.34117385506562
 20
290.7018739860975
 30
0.0
 11
334.34117385506562
 21
289.70187398609761
 31
0.0
  0
LINE
  5
A822
  8
2
 10
333.34117385506562
 20
291.70187398609738
 30
0.0
 11
333.34117385506562
 21
263.7018739860975
 31
0.0
  0
LINE
  5
A823
  8
2
 10
334.34117385506562
 20
265.7018739860975
 30
0.0
 11
334.34117385506562
 21
264.70187398609761
 31
0.0
  0
LINE
  5
A824
  8
2
 10
334.34117385506562
 20
289.70187398609761
 30
0.0
 11
333.34117385506562
 21
289.70187398609761
 31
0.0
  0
LINE
  5
A825
  8
2
 10
334.34117385506562
 20
265.7018739860975
 30
0.0
 11
333.34117385506562
 21
265.7018739860975
 31
0.0
  0
LINE
  5
A826
  8
1
 10
373.46377441521008
 20
277.70187398609761
 30
0.0
 11
307.7185732949211
 21
277.70187398609738
 31
0.0
  0
LINE
  5
A827
  8
2
 10
333.34117385506562
 20
291.70187398609738
 30
0.0
 11
322.34117385506562
 21
291.70187398609738
 31
0.0
  0
LINE
  5
A828
  8
2
 10
333.34117385506562
 20
263.7018739860975
 30
0.0
 11
322.34117385506562
 21
263.7018739860975
 31
0.0
  0
LINE
  5
A829
  8
2
 10
333.34117385506562
 20
283.70187398609761
 30
0.0
 11
360.34117385506562
 21
283.70187398609761
 31
0.0
  0
LINE
  5
A82A
  8
2
 10
333.34117385506562
 20
271.7018739860975
 30
0.0
 11
360.34117385506562
 21
271.7018739860975
 31
0.0
  0
LINE
  5
A978
  8
0
 10
320.29610017428649
 20
332.13937398609761
 30
0.0
 11
320.59610017428639
 21
332.13937398609761
 31
0.0
  0
LINE
  5
A979
  8
0
 10
301.59610017428639
 20
333.95187398609761
 30
0.0
 11
320.29610017428649
 21
333.95187398609761
 31
0.0
  0
LINE
  5
A97A
  8
0
 10
320.29610017428649
 20
319.45187398609761
 30
0.0
 11
301.59610017428639
 21
319.45187398609761
 31
0.0
  0
LINE
  5
A97B
  8
0
 10
301.59610017428639
 20
333.95187398609761
 30
0.0
 11
301.59610017428639
 21
319.45187398609761
 31
0.0
  0
ARC
  5
A97C
  8
0
 10
299.84610017428639
 20
319.45187398609761
 30
0.0
 40
1.7499999999999849
 50
270.0
 51
0.0
  0
ARC
  5
A97D
  8
0
 10
299.84610017428639
 20
333.95187398609761
 30
0.0
 40
1.7499999999999849
 50
0.0
 51
90.0
  0
LINE
  5
A97E
  8
0
 10
269.59610017428651
 20
335.70187398609761
 30
0.0
 11
299.84610017428639
 21
335.70187398609761
 31
0.0
  0
LINE
  5
A97F
  8
0
 10
299.84610017428639
 20
317.7018739860975
 30
0.0
 11
269.59610017428651
 21
317.7018739860975
 31
0.0
  0
ARC
  5
A980
  8
0
 10
269.59610017428651
 20
326.70187398609761
 30
0.0
 40
9.0000000000000142
 50
90.0
 51
270.0
  0
LINE
  5
A981
  8
0
 10
320.29610017428649
 20
319.45187398609761
 30
0.0
 11
320.29610017428649
 21
333.95187398609761
 31
0.0
  0
LINE
  5
A982
  8
0
 10
299.84610017428639
 20
317.7018739860975
 30
0.0
 11
299.84610017428639
 21
335.70187398609761
 31
0.0
  0
LINE
  5
A983
  8
0
 10
269.59610017428651
 20
317.7018739860975
 30
0.0
 11
269.59610017428651
 21
335.70187398609761
 31
0.0
  0
LINE
  5
A984
  8
0
 10
322.94223768485278
 20
320.7018739860975
 30
0.0
 11
320.59610017428639
 21
320.70187398609761
 31
0.0
  0
LINE
  5
A985
  8
0
 10
320.59610017428639
 20
332.7018739860975
 30
0.0
 11
323.859065537851
 21
332.70187398609761
 31
0.0
  0
LINE
  5
A986
  8
0
 10
320.59610017428639
 20
320.70187398609761
 30
0.0
 11
320.59610017428639
 21
332.7018739860975
 31
0.0
  0
LINE
  5
A987
  8
0
 10
320.29610017428649
 20
321.2643739860975
 30
0.0
 11
320.59610017428639
 21
321.2643739860975
 31
0.0
  0
LINE
  5
A9BB
  8
0
 10
142.48820974687999
 20
88.996715184612526
 30
0.0
 11
142.48820974687999
 21
88.696715184612586
 31
0.0
  0
LINE
  5
A9BC
  8
0
 10
144.30070974687999
 20
107.6967151846125
 30
0.0
 11
144.30070974687999
 21
88.996715184612526
 31
0.0
  0
LINE
  5
A9BD
  8
0
 10
129.80070974687999
 20
88.996715184612526
 30
0.0
 11
129.80070974687999
 21
107.6967151846125
 31
0.0
  0
LINE
  5
A9BE
  8
0
 10
144.30070974687999
 20
107.6967151846125
 30
0.0
 11
129.80070974687999
 21
107.6967151846125
 31
0.0
  0
ARC
  5
A9BF
  8
0
 10
129.80070974687999
 20
109.4467151846125
 30
0.0
 40
1.7499999999999849
 50
180.0
 51
270.0
  0
ARC
  5
A9C0
  8
0
 10
144.30070974687999
 20
109.4467151846125
 30
0.0
 40
1.7499999999999849
 50
270.0
 51
0.0
  0
LINE
  5
A9C1
  8
0
 10
146.05070974687999
 20
139.69671518461249
 30
0.0
 11
146.05070974687999
 21
109.4467151846125
 31
0.0
  0
LINE
  5
A9C2
  8
0
 10
128.05070974687999
 20
109.4467151846125
 30
0.0
 11
128.05070974687999
 21
139.69671518461249
 31
0.0
  0
ARC
  5
A9C3
  8
0
 10
137.05070974687999
 20
139.69671518461249
 30
0.0
 40
9.0000000000000142
 50
0.0
 51
180.0
  0
LINE
  5
A9C4
  8
0
 10
129.80070974687999
 20
88.996715184612526
 30
0.0
 11
144.30070974687999
 21
88.996715184612526
 31
0.0
  0
LINE
  5
A9C5
  8
0
 10
128.05070974687999
 20
109.4467151846125
 30
0.0
 11
146.05070974687999
 21
109.4467151846125
 31
0.0
  0
LINE
  5
A9C6
  8
0
 10
128.05070974687999
 20
139.69671518461249
 30
0.0
 11
146.05070974687999
 21
139.69671518461249
 31
0.0
  0
LINE
  5
A9C7
  8
0
 10
131.05070974687999
 20
88.451641503833443
 30
0.0
 11
131.05070974687999
 21
88.696715184612586
 31
0.0
  0
LINE
  5
A9C8
  8
0
 10
143.05070974687999
 20
88.696715184612586
 30
0.0
 11
143.0507097468801
 21
88.451641503833443
 31
0.0
  0
LINE
  5
A9C9
  8
0
 10
131.05070974687999
 20
88.696715184612586
 30
0.0
 11
143.05070974687999
 21
88.696715184612586
 31
0.0
  0
LINE
  5
A9CA
  8
0
 10
131.61320974687999
 20
88.996715184612526
 30
0.0
 11
131.61320974687999
 21
88.696715184612586
 31
0.0
  0
TEXT
  5
AA56
  8
0
 62
     3
 10
0.0
 20
0.0
 30
0.0
 40
10.0
  1
EDHN125R-BR
  7
STANDARD1
  0
ENDSEC
  0
EOF
