  0
SECTION
  2
HEADER
  9
$ACADVER
  1
AC1009
  9
$INSBASE
 10
0.0
 20
0.0
 30
0.0
  9
$EXTMIN
 10
0.0
 20
-2.960436562073669
 30
-0.0000000000000089
  9
$EXTMAX
 10
742.4560933489909758
 20
375.1897603564183896
 30
0.0
  9
$LIMMIN
 10
0.0
 20
0.0
  9
$LIMMAX
 10
750.0
 20
540.0
  9
$ORTHOMODE
 70
     1
  9
$REGENMODE
 70
     1
  9
$FILLMODE
 70
     1
  9
$QTEXTMODE
 70
     0
  9
$MIRRTEXT
 70
     0
  9
$DRAGMODE
 70
     2
  9
$LTSCALE
 40
20.0
  9
$OSMODE
 70
    37
  9
$ATTMODE
 70
     1
  9
$TEXTSIZE
 40
0.2
  9
$TRACEWID
 40
0.05
  9
$TEXTSTYLE
  7
STANDARD
  9
$CLAYER
  8
0
  9
$CELTYPE
  6
BYLAYER
  9
$CECOLOR
 62
   256
  9
$DIMSCALE
 40
1.0
  9
$DIMASZ
 40
3.0
  9
$DIMEXO
 40
2.0
  9
$DIMDLI
 40
0.3799999999999999
  9
$DIMRND
 40
0.0
  9
$DIMDLE
 40
0.0
  9
$DIMEXE
 40
2.0
  9
$DIMTP
 40
0.0
  9
$DIMTM
 40
0.0
  9
$DIMTXT
 40
3.0
  9
$DIMCEN
 40
0.09
  9
$DIMTSZ
 40
0.0
  9
$DIMTOL
 70
     0
  9
$DIMLIM
 70
     0
  9
$DIMTIH
 70
     0
  9
$DIMTOH
 70
     0
  9
$DIMSE1
 70
     0
  9
$DIMSE2
 70
     0
  9
$DIMTAD
 70
     1
  9
$DIMZIN
 70
     8
  9
$DIMBLK
  1

  9
$DIMASO
 70
     1
  9
$DIMSHO
 70
     0
  9
$DIMPOST
  1

  9
$DIMAPOST
  1

  9
$DIMALT
 70
     0
  9
$DIMALTD
 70
     2
  9
$DIMALTF
 40
25.3999999999999986
  9
$DIMLFAC
 40
1.0
  9
$DIMTOFL
 70
     0
  9
$DIMTVP
 40
1.6000000000000001
  9
$DIMTIX
 70
     1
  9
$DIMSOXD
 70
     0
  9
$DIMSAH
 70
     0
  9
$DIMBLK1
  1

  9
$DIMBLK2
  1

  9
$DIMSTYLE
  2
STANDARD
  9
$DIMCLRD
 70
     0
  9
$DIMCLRE
 70
     0
  9
$DIMCLRT
 70
     0
  9
$DIMTFAC
 40
1.0
  9
$DIMGAP
 40
1.5
  9
$LUNITS
 70
     2
  9
$LUPREC
 70
     1
  9
$SKETCHINC
 40
0.1
  9
$FILLETRAD
 40
0.2
  9
$AUNITS
 70
     0
  9
$AUPREC
 70
     0
  9
$MENU
  1
E:\r13\win\SUPPORT\ACAD
  9
$ELEVATION
 40
0.0
  9
$PELEVATION
 40
0.0
  9
$THICKNESS
 40
0.0
  9
$LIMCHECK
 70
     0
  9
$BLIPMODE
 70
     0
  9
$CHAMFERA
 40
0.0
  9
$CHAMFERB
 40
0.0
  9
$SKPOLY
 70
     0
  9
$TDCREATE
 40
2449839.780729167163372
  9
$TDUPDATE
 40
2460263.6914699068292975
  9
$TDINDWG
 40
0.6018658102
  9
$TDUSRTIMER
 40
0.6018658102
  9
$USRTIMER
 70
     1
  9
$ANGBASE
 50
0.0
  9
$ANGDIR
 70
     0
  9
$PDMODE
 70
     0
  9
$PDSIZE
 40
0.0
  9
$PLINEWID
 40
0.0
  9
$COORDS
 70
     1
  9
$SPLFRAME
 70
     0
  9
$SPLINETYPE
 70
     6
  9
$SPLINESEGS
 70
     8
  9
$ATTDIA
 70
     1
  9
$ATTREQ
 70
     1
  9
$HANDLING
 70
     1
  9
$HANDSEED
  5
ABD6
  9
$SURFTAB1
 70
     6
  9
$SURFTAB2
 70
     6
  9
$SURFTYPE
 70
     6
  9
$SURFU
 70
     6
  9
$SURFV
 70
     6
  9
$UCSNAME
  2

  9
$UCSORG
 10
0.0
 20
0.0
 30
0.0
  9
$UCSXDIR
 10
1.0
 20
0.0
 30
0.0
  9
$UCSYDIR
 10
0.0
 20
1.0
 30
0.0
  9
$PUCSNAME
  2

  9
$PUCSORG
 10
0.0
 20
0.0
 30
0.0
  9
$PUCSXDIR
 10
1.0
 20
0.0
 30
0.0
  9
$PUCSYDIR
 10
0.0
 20
1.0
 30
0.0
  9
$USERI1
 70
     0
  9
$USERI2
 70
     1
  9
$USERI3
 70
     1
  9
$USERI4
 70
     0
  9
$USERI5
 70
     0
  9
$USERR1
 40
0.0
  9
$USERR2
 40
0.0
  9
$USERR3
 40
0.0
  9
$USERR4
 40
0.0
  9
$USERR5
 40
0.0
  9
$WORLDVIEW
 70
     1
  9
$SHADEDGE
 70
     3
  9
$SHADEDIF
 70
    70
  9
$TILEMODE
 70
     1
  9
$MAXACTVP
 70
    16
  9
$PLIMCHECK
 70
     0
  9
$PEXTMIN
 10
1.0000000000000000E+20
 20
1.0000000000000000E+20
 30
1.0000000000000000E+20
  9
$PEXTMAX
 10
-1.0000000000000000E+20
 20
-1.0000000000000000E+20
 30
-1.0000000000000000E+20
  9
$PLIMMIN
 10
0.0
 20
0.0
  9
$PLIMMAX
 10
12.0
 20
9.0
  9
$UNITMODE
 70
     0
  9
$VISRETAIN
 70
     0
  9
$PLINEGEN
 70
     0
  9
$PSLTSCALE
 70
     0
  0
ENDSEC
  0
SECTION
  2
TABLES
  0
TABLE
  2
VPORT
 70
     1
  0
VPORT
  2
*ACTIVE
 70
     0
 10
0.0
 20
0.0
 11
1.0
 21
1.0
 12
587.130541871921082
 22
250.0
 13
0.0
 23
0.0
 14
20.0
 24
20.0
 15
20.0
 25
20.0
 16
0.0
 26
0.0
 36
1.0
 17
0.0
 27
0.0
 37
0.0
 40
500.0
 41
2.3485221674876842
 42
50.0
 43
0.0
 44
0.0
 50
0.0
 51
0.0
 71
     0
 72
   500
 73
     1
 74
     0
 75
     0
 76
     0
 77
     0
 78
     0
  0
ENDTAB
  0
TABLE
  2
LTYPE
 70
     4
  0
LTYPE
  2
CONTINUOUS
 70
     0
  3
Solid Line
 72
    65
 73
     0
 40
0.0
  0
LTYPE
  2
CENTER
 70
     0
  3
____ _ ____ _ ____ _ ____ _ ____ _ ____ _ ____
 72
    65
 73
     4
 40
2.0
 49
1.25
 49
-0.25
 49
0.25
 49
-0.25
  0
LTYPE
  2
HIDDEN
 70
     0
  3
Hidden __ __ __ __ __ __ __ __ __ __ __ __ __ _
 72
    65
 73
     2
 40
0.375
 49
0.25
 49
-0.125
  0
LTYPE
  2
PHANTOM2
 70
     0
  3
___ _ _ ___ _ _ ___ _ _ ___ _ _
 72
    65
 73
     6
 40
1.25
 49
0.625
 49
-0.125
 49
0.125
 49
-0.125
 49
0.125
 49
-0.125
  0
ENDTAB
  0
TABLE
  2
LAYER
 70
     4
  0
LAYER
  2
0
 70
     0
 62
     7
  6
CONTINUOUS
  0
LAYER
  2
1
 70
     0
 62
     1
  6
CENTER
  0
LAYER
  2
2
 70
     0
 62
     2
  6
HIDDEN
  0
LAYER
  2
DEFPOINTS
 70
     0
 62
     7
  6
CONTINUOUS
  0
ENDTAB
  0
TABLE
  2
STYLE
 70
     2
  0
STYLE
  2
STANDARD
 70
     0
 40
0.0
 41
1.0
 50
0.0
 71
     0
 42
0.2
  3
TXT
  4
BIGFONT
  0
STYLE
  2
STANDARD1
 70
     0
 40
0.0
 41
1.0
 50
0.0
 71
     0
 42
3.0
  3
txt
  4

  0
ENDTAB
  0
TABLE
  2
VIEW
 70
     1
  0
VIEW
  2
ALL
 70
     0
 40
540.0
 10
441.9831932773108747
 20
270.0
 41
0.0
 11
0.0
 21
0.0
 31
1.0
 12
0.0
 22
0.0
 32
0.0
 42
0.0
 43
0.0
 44
0.0
 50
0.0
 71
     0
  0
ENDTAB
  0
TABLE
  2
UCS
 70
     0
  0
ENDTAB
  0
TABLE
  2
APPID
 70
    11
  0
APPID
  2
ACAD
 70
     0
  0
APPID
  2
ACAD_EXEMPT_FROM_CAD_STANDARDS
 70
     0
  0
APPID
  2
ACAD_DSTYLE_DIMJAG
 70
     0
  0
APPID
  2
ACAD_DSTYLE_DIMTALN
 70
     0
  0
APPID
  2
ACAD_MLEADERVER
 70
     0
  0
APPID
  2
GENIUS_GENODEF_13
 70
     0
  0
APPID
  2
GENIUS_GENOBJ-N-FIL_13
 70
     0
  0
APPID
  2
GENIUS_GENOREF_13
 70
     0
  0
APPID
  2
ACAD_PSEXT
 70
     0
  0
APPID
  2
ACAD_DSTYLE_DIMRADIAL_EXTENSION
 70
     0
  0
APPID
  2
ACAD_NAV_VCDISPLAY
 70
     0
  0
ENDTAB
  0
TABLE
  2
DIMSTYLE
 70
     1
  0
DIMSTYLE
  2
STANDARD
 70
     0
  3

  4

  5

  6

  7

 40
1.0
 41
0.18
 42
0.0625
 43
0.38
 44
0.18
 45
0.0
 46
0.0
 47
0.0
 48
0.0
140
0.18
141
0.09
142
0.0
143
25.3999999999999986
144
1.0
145
0.0
146
1.0
147
0.09
 71
     0
 72
     0
 73
     1
 74
     1
 75
     0
 76
     0
 77
     0
 78
     0
170
     0
171
     2
172
     0
173
     0
174
     0
175
     0
176
     0
177
     0
178
     0
  0
ENDTAB
  0
ENDSEC
  0
SECTION
  2
BLOCKS
  0
BLOCK
  8
0
  2
$MODEL_SPACE
 70
     0
 10
0.0
 20
0.0
 30
0.0
  3
$MODEL_SPACE
  1

  0
ENDBLK
  5
13C
  8
0
  0
BLOCK
 67
     1
  8
0
  2
$PAPER_SPACE
 70
     0
 10
0.0
 20
0.0
 30
0.0
  3
$PAPER_SPACE
  1

  0
ENDBLK
  5
13A
 67
     1
  8
0
  0
ENDSEC
  0
SECTION
  2
ENTITIES
  0
ARC
  5
9A6C
  8
0
 10
149.9498658507762059
 20
348.567159796273927
 30
0.0
 40
9.0000000000000089
 50
270.0
 51
90.0
  0
LINE
  5
9A6D
  8
0
 10
117.5498658507762002
 20
339.567159796273927
 30
0.0
 11
149.9498658507762059
 21
339.567159796273927
 31
0.0
  0
LINE
  5
9A6E
  8
0
 10
149.9498658507762059
 20
357.567159796273927
 30
0.0
 11
117.5498658507762002
 21
357.567159796273927
 31
0.0
  0
ARC
  5
9A6F
  8
0
 10
117.5498658507762002
 20
353.9671597962739042
 30
0.0
 40
3.6000000000000081
 50
90.0
 51
149.999999999999801
  0
ARC
  5
9A70
  8
0
 10
117.5498658507762002
 20
343.1671597962738929
 30
0.0
 40
3.6000000000000081
 50
210.000000000000199
 51
270.0
  0
LINE
  5
9A72
  8
0
 10
101.9404848062886941
 20
341.3671597962738815
 30
0.0
 11
114.4321743971520959
 21
341.3671597962738815
 31
0.0
  0
LINE
  5
9A73
  8
0
 10
114.4321743971520959
 20
355.7671597962739156
 30
0.0
 11
100.8402913826910066
 21
355.7671597962739725
 31
0.0
  0
LINE
  5
9A7D
  8
0
 10
149.9498658507762059
 20
357.567159796273927
 30
0.0
 11
149.9498658507762059
 21
339.567159796273927
 31
0.0
  0
LINE
  5
9A7E
  8
0
 10
117.5498658507762002
 20
357.567159796273927
 30
0.0
 11
117.5498658507762002
 21
339.567159796273927
 31
0.0
  0
LINE
  5
9A7F
  8
0
 10
114.4321743971520959
 20
355.7671597962739156
 30
0.0
 11
114.4321743971520959
 21
341.3671597962738815
 31
0.0
  0
LINE
  5
9A8F
  8
1
 10
85.3349911194345623
 20
348.567159796273927
 30
0.0
 11
172.0724664109206969
 21
348.567159796273927
 31
0.0
  0
LINE
  5
9ABD
  8
2
 10
102.4498658507762059
 20
284.067159796273927
 30
0.0
 11
103.9498658507761064
 21
284.067159796273927
 31
0.0
  0
LINE
  5
9ABE
  8
2
 10
103.9498658507761064
 20
315.067159796273927
 30
0.0
 11
102.4498658507762059
 21
315.067159796273927
 31
0.0
  0
LINE
  5
9ABF
  8
0
 10
100.5142370923496031
 20
239.0995631353492001
 30
0.0
 11
103.9498658507761064
 21
284.067159796273927
 31
0.0
  0
LINE
  5
9AC0
  8
0
 10
103.9498658507761064
 20
315.067159796273927
 30
0.0
 11
100.5142370923496031
 21
360.034756457197318
 31
0.0
  0
ARC
  5
9AC3
  8
0
 10
98.3206301632834538
 20
359.8671597962739952
 30
0.0
 40
2.1999999999999851
 50
4.3690425770371011
 51
90.0
  0
ARC
  5
9AC4
  8
0
 10
98.3206301632834538
 20
239.2671597962740009
 30
0.0
 40
2.1999999999999891
 50
270.0
 51
355.630957422956385
  0
LINE
  5
9AC5
  8
0
 10
76.8248658507761775
 20
237.0671597962738986
 30
0.0
 11
98.3206301632834538
 21
237.0671597962738986
 31
0.0
  0
LINE
  5
9AC6
  8
0
 10
98.3206301632834538
 20
362.0671597962739838
 30
0.0
 11
76.8248658507760638
 21
362.0671597962739838
 31
0.0
  0
ARC
  5
9AC7
  8
0
 10
76.8248658507760638
 20
360.6921597962739838
 30
0.0
 40
1.375000000000014
 50
90.0
 51
180.0
  0
ARC
  5
9AC8
  8
0
 10
76.8248658507761775
 20
238.4421597962738986
 30
0.0
 40
1.375
 50
180.0
 51
270.0
  0
LINE
  5
9ACB
  8
0
 10
64.6498658507762229
 20
282.067159796273927
 30
0.0
 11
75.4498658507760638
 21
282.067159796273927
 31
0.0
  0
LINE
  5
9ACE
  8
0
 10
75.4498658507760638
 20
317.067159796273927
 30
0.0
 11
64.649865850776095
 21
317.067159796273927
 31
0.0
  0
LINE
  5
9AD0
  8
0
 10
64.649865850776095
 20
312.567159796273927
 30
0.0
 11
64.4498658507761775
 21
312.567159796273927
 31
0.0
  0
LINE
  5
9ADB
  8
2
 10
102.4498658507762059
 20
284.067159796273927
 30
0.0
 11
102.4498658507762059
 21
315.067159796273927
 31
0.0
  0
LINE
  5
9ADD
  8
0
 10
100.5142370923496031
 20
360.0347564571987959
 30
0.0
 11
100.5142370923496031
 21
239.0995631353492001
 31
0.0
  0
LINE
  5
9AE0
  8
0
 10
75.4498658507760638
 20
360.6921597962739838
 30
0.0
 11
75.4498658507760638
 21
238.4421597962738986
 31
0.0
  0
LINE
  5
9AE3
  8
0
 10
64.649865850776095
 20
317.067159796273927
 30
0.0
 11
64.649865850776095
 21
282.067159796273927
 31
0.0
  0
LINE
  5
9AE5
  8
0
 10
64.4498658507761775
 20
312.567159796273927
 30
0.0
 11
64.4498658507761775
 21
286.567159796273927
 31
0.0
  0
CIRCLE
  5
9CD2
  8
0
 10
287.7871229727660989
 20
348.567159796273927
 30
0.0
 40
9.0000000000000089
  0
CIRCLE
  5
9D14
  8
0
 10
287.7871229727660989
 20
299.5671597962739838
 30
0.0
 40
15.5000000000000107
  0
CIRCLE
  5
9D15
  8
0
 10
287.7871229727660989
 20
299.5671597962739838
 30
0.0
 40
60.4675966609247908
  0
CIRCLE
  5
9D16
  8
0
 10
287.7871229727660989
 20
299.5671597962739838
 30
0.0
 40
62.5
  0
POLYLINE
  5
9D20
  8
0
 66
     1
 10
0.0
 20
0.0
 30
0.0
  0
VERTEX
  5
A9CA
  8
0
 10
282.9155619642079955
 20
340.995042817681508
 30
0.0
  0
VERTEX
  5
A9CB
  8
0
 10
287.8168915539882278
 20
335.031400809477077
 30
0.0
  0
VERTEX
  5
A9CC
  8
0
 10
294.8567993827377904
 20
326.4656658813552781
 30
0.0
  0
VERTEX
  5
A9CD
  8
0
 10
300.0308331029850137
 20
320.170213947196487
 30
0.0
  0
VERTEX
  5
A9CE
  8
0
 10
302.284477505307791
 20
317.4281154649253835
 30
0.0
  0
SEQEND
  5
A9CF
  8
0
  0
POLYLINE
  5
9D22
  8
0
 66
     1
 10
0.0
 20
0.0
 30
0.0
  0
VERTEX
  5
A9D0
  8
0
 10
302.284477505307791
 20
317.4281154649253835
 30
0.0
  0
VERTEX
  5
A9D1
  8
0
 10
302.7990033541782964
 20
316.8124182204613248
 30
0.0
  0
VERTEX
  5
A9D2
  8
0
 10
303.8508809428051904
 20
315.6145023489572736
 30
0.0
  0
VERTEX
  5
A9D3
  8
0
 10
304.9335803209608002
 20
314.4592771407741907
 30
0.0
  0
VERTEX
  5
A9D4
  8
0
 10
305.4916618567108912
 20
313.8920581638520275
 30
0.0
  0
SEQEND
  5
A9D5
  8
0
  0
POLYLINE
  5
9D24
  8
0
 66
     1
 10
0.0
 20
0.0
 30
0.0
  0
VERTEX
  5
A9D6
  8
0
 10
305.4916618567108912
 20
313.8920581638520275
 30
0.0
  0
VERTEX
  5
A9D7
  8
0
 10
306.6252649264973797
 20
312.7584550940655959
 30
0.0
  0
VERTEX
  5
A9D8
  8
0
 10
308.9645990570601839
 20
310.4191209635027917
 30
0.0
  0
VERTEX
  5
A9D9
  8
0
 10
311.4650016557043841
 20
307.9187183648584778
 30
0.0
  0
VERTEX
  5
A9DA
  8
0
 10
312.804023266217996
 20
306.5796967543449227
 30
0.0
  0
SEQEND
  5
A9DB
  8
0
  0
POLYLINE
  5
9D26
  8
0
 66
     1
 10
0.0
 20
0.0
 30
0.0
  0
VERTEX
  5
A9DC
  8
0
 10
312.8040232662178255
 20
306.579696754345207
 30
0.0
  0
VERTEX
  5
A9DD
  8
0
 10
313.8921868083069739
 20
305.5246828715066272
 30
0.0
  0
VERTEX
  5
A9DE
  8
0
 10
316.1759586191005269
 20
303.5079972901950214
 30
0.0
  0
VERTEX
  5
A9DF
  8
0
 10
318.5927010454615811
 20
301.6283568867518738
 30
0.0
  0
VERTEX
  5
A9E0
  8
0
 10
319.846659965387289
 20
300.7442151128084902
 30
0.0
  0
SEQEND
  5
A9E1
  8
0
  0
POLYLINE
  5
9D28
  8
0
 66
     1
 10
0.0
 20
0.0
 30
0.0
  0
VERTEX
  5
A9E2
  8
0
 10
318.9261673041145855
 20
334.069805263732178
 30
0.0
  0
VERTEX
  5
A9E3
  8
0
 10
315.2879121750253262
 20
337.0599725968555731
 30
0.0
  0
VERTEX
  5
A9E4
  8
0
 10
307.8613913441009799
 20
343.1635962294702153
 30
0.0
  0
VERTEX
  5
A9E5
  8
0
 10
299.8208350847427255
 20
349.7718762466255953
 30
0.0
  0
VERTEX
  5
A9E6
  8
0
 10
295.3825516702717096
 20
353.4195616370716948
 30
0.0
  0
SEQEND
  5
A9E7
  8
0
  0
POLYLINE
  5
9D2B
  8
0
 66
     1
 10
0.0
 20
0.0
 30
0.0
  0
VERTEX
  5
A9E8
  8
0
 10
322.4622246051879983
 20
330.8626209123290778
 30
0.0
  0
VERTEX
  5
A9E9
  8
0
 10
321.9018810532908219
 20
331.4140454817660952
 30
0.0
  0
VERTEX
  5
A9EA
  8
0
 10
320.7458053386645815
 20
332.4979343783389822
 30
0.0
  0
VERTEX
  5
A9EB
  8
0
 10
319.5438350931045761
 20
333.5536049896675195
 30
0.0
  0
VERTEX
  5
A9EC
  8
0
 10
318.9261673041145855
 20
334.069805263732178
 30
0.0
  0
SEQEND
  5
A9ED
  8
0
  0
POLYLINE
  5
9D2D
  8
0
 66
     1
 10
0.0
 20
0.0
 30
0.0
  0
VERTEX
  5
A9EE
  8
0
 10
329.7745860146953873
 20
323.5502595028218025
 30
0.0
  0
VERTEX
  5
A9EF
  8
0
 10
328.5251690239506956
 20
324.7996764935664942
 30
0.0
  0
VERTEX
  5
A9F0
  8
0
 10
326.0707638653800018
 20
327.2540816521370743
 30
0.0
  0
VERTEX
  5
A9F1
  8
0
 10
323.6585885997357082
 20
329.6662569177814248
 30
0.0
  0
VERTEX
  5
A9F2
  8
0
 10
322.4622246051879983
 20
330.8626209123290778
 30
0.0
  0
SEQEND
  5
A9F3
  8
0
  0
POLYLINE
  5
9D2F
  8
0
 66
     1
 10
0.0
 20
0.0
 30
0.0
  0
VERTEX
  5
A9F4
  8
0
 10
335.6100676562315925
 20
316.5076228036527937
 30
0.0
  0
VERTEX
  5
A9F5
  8
0
 10
334.7411418001955781
 20
317.7406916645056185
 30
0.0
  0
VERTEX
  5
A9F6
  8
0
 10
332.8760040969509078
 20
320.1424481192179883
 30
0.0
  0
VERTEX
  5
A9F7
  8
0
 10
330.847408956183699
 20
322.4431395198361088
 30
0.0
  0
VERTEX
  5
A9F8
  8
0
 10
329.7745860146949894
 20
323.5502595028223141
 30
0.0
  0
SEQEND
  5
A9F9
  8
0
  0
POLYLINE
  5
9D31
  8
0
 66
     1
 10
0.0
 20
0.0
 30
0.0
  0
VERTEX
  5
A9FA
  8
0
 10
343.8688222006979913
 20
304.3961269529452807
 30
0.0
  0
VERTEX
  5
A9FB
  8
0
 10
342.3926895433755249
 20
306.5608812700759245
 30
0.0
  0
VERTEX
  5
A9FC
  8
0
 10
339.5761493079126012
 20
310.6913485447105927
 30
0.0
  0
VERTEX
  5
A9FD
  8
0
 10
336.9040827264598761
 20
314.609944640505887
 30
0.0
  0
VERTEX
  5
A9FE
  8
0
 10
335.6100676562315925
 20
316.5076228036527937
 30
0.0
  0
SEQEND
  5
A9FF
  8
0
  0
POLYLINE
  5
9D33
  8
0
 66
     1
 10
0.0
 20
0.0
 30
0.0
  0
VERTEX
  5
AA00
  8
0
 10
331.958155816094802
 20
292.4854605683420914
 30
0.0
  0
VERTEX
  5
AA01
  8
0
 10
332.0516798577046984
 20
292.4225837935205732
 30
0.0
  0
VERTEX
  5
AA02
  8
0
 10
332.2413467538598866
 20
292.3004338262975921
 30
0.0
  0
VERTEX
  5
AA03
  8
0
 10
332.4342907717161779
 20
292.1832421650565266
 30
0.0
  0
VERTEX
  5
AA04
  8
0
 10
332.5319102499249198
 20
292.1265581782276968
 30
0.0
  0
VERTEX
  5
AA05
  8
0
 10
332.6302647730196895
 20
292.0711663556215854
 30
0.0
  0
VERTEX
  5
AA06
  8
0
 10
332.8290531728654855
 20
291.9643266918175755
 30
0.0
  0
VERTEX
  5
AA07
  8
0
 10
333.0303780909235911
 20
291.8628586827496747
 30
0.0
  0
VERTEX
  5
AA08
  8
0
 10
333.2339453227957051
 20
291.7668831125367888
 30
0.0
  0
VERTEX
  5
AA09
  8
0
 10
333.4394500888968764
 20
291.6765024080895046
 30
0.0
  0
VERTEX
  5
AA0A
  8
0
 10
333.6465794422820181
 20
291.5917993600155
 30
0.0
  0
VERTEX
  5
AA0B
  8
0
 10
333.7506539335601019
 20
291.5515972128338262
 30
0.0
  0
VERTEX
  5
AA0C
  8
0
 10
333.8550148152751831
 20
291.5128361432364841
 30
0.0
  0
VERTEX
  5
AA0D
  8
0
 10
334.0644342946235952
 20
291.4396537755432064
 30
0.0
  0
VERTEX
  5
AA0E
  8
0
 10
334.2745093731762154
 20
291.3722735460409012
 30
0.0
  0
VERTEX
  5
AA0F
  8
0
 10
334.4849003659368236
 20
291.3106981556130108
 30
0.0
  0
VERTEX
  5
AA10
  8
0
 10
334.6952581320838931
 20
291.2549104470652992
 30
0.0
  0
VERTEX
  5
AA11
  8
0
 10
334.9052266516073928
 20
291.2048721911079951
 30
0.0
  0
VERTEX
  5
AA12
  8
0
 10
335.0099524504075816
 20
291.1819911820144853
 30
0.0
  0
VERTEX
  5
AA13
  8
0
 10
335.1144456462196217
 20
291.1605232324417898
 30
0.0
  0
VERTEX
  5
AA14
  8
0
 10
335.3226066085578054
 20
291.1217717309410205
 30
0.0
  0
VERTEX
  5
AA15
  8
0
 10
335.5318072504728093
 20
291.088152177898678
 30
0.0
  0
VERTEX
  5
AA16
  8
0
 10
335.637215259037589
 20
291.0732148938737964
 30
0.0
  0
VERTEX
  5
AA17
  8
0
 10
335.7431242930543931
 20
291.0595482329817969
 30
0.0
  0
VERTEX
  5
AA18
  8
0
 10
335.9563311659014175
 20
291.0360887774189109
 30
0.0
  0
VERTEX
  5
AA19
  8
0
 10
336.1711968643735986
 20
291.0178894891599271
 30
0.0
  0
VERTEX
  5
AA1A
  8
0
 10
336.2791787784786948
 20
291.0107948875880197
 30
0.0
  0
VERTEX
  5
AA1B
  8
0
 10
336.3874876024659102
 20
291.0050526183704278
 30
0.0
  0
VERTEX
  5
AA1C
  8
0
 10
336.6049684698858186
 20
290.997666958761215
 30
0.0
  0
VERTEX
  5
AA1D
  8
0
 10
336.823405097401178
 20
290.9958080147557098
 30
0.0
  0
VERTEX
  5
AA1E
  8
0
 10
337.0425653321213986
 20
290.9995383669535158
 30
0.0
  0
VERTEX
  5
AA1F
  8
0
 10
337.2622208358268949
 20
291.0089082356093968
 30
0.0
  0
VERTEX
  5
AA20
  8
0
 10
337.4821456828506143
 20
291.0239559951481851
 30
0.0
  0
VERTEX
  5
AA21
  8
0
 10
337.5921378462488747
 20
291.0336178113432766
 30
0.0
  0
VERTEX
  5
AA22
  8
0
 10
337.7021114789901048
 20
291.0447080487671769
 30
0.0
  0
VERTEX
  5
AA23
  8
0
 10
337.9218875057250102
 20
291.0711785574857231
 30
0.0
  0
VERTEX
  5
AA24
  8
0
 10
338.1412422936338089
 20
291.1033693558179039
 30
0.0
  0
VERTEX
  5
AA25
  8
0
 10
338.3599451688291992
 20
291.1412700453531102
 30
0.0
  0
VERTEX
  5
AA26
  8
0
 10
338.5777677685032927
 20
291.1848582644390717
 30
0.0
  0
VERTEX
  5
AA27
  8
0
 10
338.7944855265743058
 20
291.2341001341407036
 30
0.0
  0
VERTEX
  5
AA28
  8
0
 10
338.9023613101380192
 20
291.260827601423216
 30
0.0
  0
VERTEX
  5
AA29
  8
0
 10
339.0098793228156069
 20
291.2889509342423935
 30
0.0
  0
VERTEX
  5
AA2A
  8
0
 10
339.2237888305876936
 20
291.34937133146002
 30
0.0
  0
VERTEX
  5
AA2B
  8
0
 10
339.4360433781490087
 20
291.4153128619253721
 30
0.0
  0
VERTEX
  5
AA2C
  8
0
 10
339.6464300482087992
 20
291.4867049326276174
 30
0.0
  0
VERTEX
  5
AA2D
  8
0
 10
339.8547369409075145
 20
291.5634648809510168
 30
0.0
  0
VERTEX
  5
AA2E
  8
0
 10
340.0607547396136852
 20
291.6454981770056065
 30
0.0
  0
VERTEX
  5
AA2F
  8
0
 10
340.162840895326724
 20
291.6884596330232853
 30
0.0
  0
VERTEX
  5
AA30
  8
0
 10
340.2642782163488846
 20
291.7326987958522864
 30
0.0
  0
VERTEX
  5
AA31
  8
0
 10
340.4651076775313072
 20
291.8249497586543839
 30
0.0
  0
VERTEX
  5
AA32
  8
0
 10
340.6630503507279855
 20
291.9221238437183956
 30
0.0
  0
VERTEX
  5
AA33
  8
0
 10
340.8579216940983088
 20
292.0240844602121797
 30
0.0
  0
VERTEX
  5
AA34
  8
0
 10
341.0495448824485152
 20
292.1306856842392108
 30
0.0
  0
VERTEX
  5
AA35
  8
0
 10
341.2377463892477749
 20
292.2417697752737809
 30
0.0
  0
VERTEX
  5
AA36
  8
0
 10
341.3305105519605149
 20
292.2989401339132769
 30
0.0
  0
VERTEX
  5
AA37
  8
0
 10
341.4223556646019233
 20
292.3571663394365032
 30
0.0
  0
VERTEX
  5
AA38
  8
0
 10
341.6032068407794213
 20
292.47669267968962
 30
0.0
  0
VERTEX
  5
AA39
  8
0
 10
341.7801403631797257
 20
292.6001543352361978
 30
0.0
  0
VERTEX
  5
AA3A
  8
0
 10
341.9530045155937046
 20
292.7273457899887035
 30
0.0
  0
VERTEX
  5
AA3B
  8
0
 10
342.1216568421759803
 20
292.8580513494517277
 30
0.0
  0
VERTEX
  5
AA3C
  8
0
 10
342.2859654693284028
 20
292.992046188654399
 30
0.0
  0
VERTEX
  5
AA3D
  8
0
 10
342.3666912465869814
 20
293.0604090224334755
 30
0.0
  0
VERTEX
  5
AA3E
  8
0
 10
342.4468376410259225
 20
293.1300006690667033
 30
0.0
  0
VERTEX
  5
AA3F
  8
0
 10
342.6052720810171763
 20
293.2728346768304277
 30
0.0
  0
VERTEX
  5
AA40
  8
0
 10
342.7610230056653791
 20
293.4204609951264047
 30
0.0
  0
VERTEX
  5
AA41
  8
0
 10
342.8378166587933151
 20
293.4960401571157718
 30
0.0
  0
VERTEX
  5
AA42
  8
0
 10
342.913849840661328
 20
293.5727786237662826
 30
0.0
  0
VERTEX
  5
AA43
  8
0
 10
343.063520346056805
 20
293.7296754264745005
 30
0.0
  0
VERTEX
  5
AA44
  8
0
 10
343.209811756774684
 20
293.8910293768003044
 30
0.0
  0
VERTEX
  5
AA45
  8
0
 10
343.2816235256810842
 20
293.9733372818130874
 30
0.0
  0
VERTEX
  5
AA46
  8
0
 10
343.3525117754355165
 20
294.056709939421296
 30
0.0
  0
VERTEX
  5
AA47
  8
0
 10
343.4914194170960968
 20
294.226579589812502
 30
0.0
  0
VERTEX
  5
AA48
  8
0
 10
343.6263456892726253
 20
294.4004954575419788
 30
0.0
  0
VERTEX
  5
AA49
  8
0
 10
343.7571129180918774
 20
294.578309436004588
 30
0.0
  0
VERTEX
  5
AA4A
  8
0
 10
343.8835514591909828
 20
294.7598642476145869
 30
0.0
  0
VERTEX
  5
AA4B
  8
0
 10
344.0054994271276883
 20
294.9449926510681053
 30
0.0
  0
VERTEX
  5
AA4C
  8
0
 10
344.0647412540914729
 20
295.0388422382372937
 30
0.0
  0
VERTEX
  5
AA4D
  8
0
 10
344.1228038041552963
 20
295.1335185731828119
 30
0.0
  0
VERTEX
  5
AA4E
  8
0
 10
344.2353214108017028
 20
295.3252583614515743
 30
0.0
  0
VERTEX
  5
AA4F
  8
0
 10
344.3429197176844241
 20
295.5200221281700124
 30
0.0
  0
VERTEX
  5
AA50
  8
0
 10
344.4454774993354249
 20
295.7176151867805061
 30
0.0
  0
VERTEX
  5
AA51
  8
0
 10
344.5428853288643154
 20
295.9178395813797806
 30
0.0
  0
VERTEX
  5
AA52
  8
0
 10
344.6350615108046895
 20
296.1205312322605891
 30
0.0
  0
VERTEX
  5
AA53
  8
0
 10
344.6791681558684104
 20
296.2227599124420863
 30
0.0
  0
VERTEX
  5
AA54
  8
0
 10
344.7219392128847062
 20
296.3255430714506815
 30
0.0
  0
VERTEX
  5
AA55
  8
0
 10
344.8034339113257261
 20
296.532666973505286
 30
0.0
  0
VERTEX
  5
AA56
  8
0
 10
344.8794706426692755
 20
296.7416869253166851
 30
0.0
  0
VERTEX
  5
AA57
  8
0
 10
344.9499851829388035
 20
296.9523809733453277
 30
0.0
  0
VERTEX
  5
AA58
  8
0
 10
345.0149247699433204
 20
297.1645226323494171
 30
0.0
  0
VERTEX
  5
AA59
  8
0
 10
345.0742486536814226
 20
297.3778823575241859
 30
0.0
  0
VERTEX
  5
AA5A
  8
0
 10
345.1017953537379981
 20
297.4849468023161876
 30
0.0
  0
VERTEX
  5
AA5B
  8
0
 10
345.1279284748961231
 20
297.592229080845982
 30
0.0
  0
VERTEX
  5
AA5C
  8
0
 10
345.1759484694558182
 20
297.8073318100231859
 30
0.0
  0
VERTEX
  5
AA5D
  8
0
 10
345.2183052542840755
 20
298.0229599740621893
 30
0.0
  0
VERTEX
  5
AA5E
  8
0
 10
345.2550068237595724
 20
298.2388786358316111
 30
0.0
  0
VERTEX
  5
AA5F
  8
0
 10
345.2860727601129156
 20
298.4548467705201915
 30
0.0
  0
VERTEX
  5
AA60
  8
0
 10
345.3115350878256891
 20
298.670618749959317
 30
0.0
  0
VERTEX
  5
AA61
  8
0
 10
345.3221784781526935
 20
298.7783535620989142
 30
0.0
  0
VERTEX
  5
AA62
  8
0
 10
345.3314389470396009
 20
298.8859459628286004
 30
0.0
  0
VERTEX
  5
AA63
  8
0
 10
345.3458430647734758
 20
299.1005784617012182
 30
0.0
  0
VERTEX
  5
AA64
  8
0
 10
345.3548200265541936
 20
299.3142666377797809
 30
0.0
  0
VERTEX
  5
AA65
  8
0
 10
345.3584563490883852
 20
299.5267629270151133
 30
0.0
  0
VERTEX
  5
AA66
  8
0
 10
345.3568329764069063
 20
299.7387937340687927
 30
0.0
  0
VERTEX
  5
AA67
  8
0
 10
345.3499053849284905
 20
299.9520560382177905
 30
0.0
  0
VERTEX
  5
AA68
  8
0
 10
345.3444233692853231
 20
300.0590923920985915
 30
0.0
  0
VERTEX
  5
AA69
  8
0
 10
345.3375820176815978
 20
300.1663574901319862
 30
0.0
  0
VERTEX
  5
AA6A
  8
0
 10
345.3197849696426829
 20
300.3814490582454937
 30
0.0
  0
VERTEX
  5
AA6B
  8
0
 10
345.296450245549579
 20
300.5970807251638917
 30
0.0
  0
VERTEX
  5
AA6C
  8
0
 10
345.2826900158207764
 20
300.7050211112264151
 30
0.0
  0
VERTEX
  5
AA6D
  8
0
 10
345.2675275641627763
 20
300.8130031737974832
 30
0.0
  0
VERTEX
  5
AA6E
  8
0
 10
345.2329799634349001
 20
301.0289694447145052
 30
0.0
  0
VERTEX
  5
AA6F
  8
0
 10
345.1927832046864069
 20
301.2447365666826045
 30
0.0
  0
VERTEX
  5
AA70
  8
0
 10
345.1705621028099245
 20
301.3524710038657872
 30
0.0
  0
VERTEX
  5
AA71
  8
0
 10
345.1469249731450759
 20
301.4600671552224753
 30
0.0
  0
VERTEX
  5
AA72
  8
0
 10
345.0954042120660006
 20
301.6747296299448067
 30
0.0
  0
VERTEX
  5
AA73
  8
0
 10
345.0382318801302972
 20
301.8884933685807255
 30
0.0
  0
VERTEX
  5
AA74
  8
0
 10
344.9754315437194236
 20
302.1011271405694174
 30
0.0
  0
VERTEX
  5
AA75
  8
0
 10
344.9070392588524783
 20
302.3124006348983812
 30
0.0
  0
VERTEX
  5
AA76
  8
0
 10
344.8331032585518869
 20
302.5220860213850074
 30
0.0
  0
VERTEX
  5
AA77
  8
0
 10
344.7940746517724051
 20
302.6262630251894734
 30
0.0
  0
VERTEX
  5
AA78
  8
0
 10
344.7536834679502249
 20
302.7299594471647879
 30
0.0
  0
VERTEX
  5
AA79
  8
0
 10
344.6688508476996162
 20
302.9358024696069833
 30
0.0
  0
VERTEX
  5
AA7A
  8
0
 10
344.5786865647144737
 20
303.1394034256653072
 30
0.0
  0
VERTEX
  5
AA7B
  8
0
 10
344.483268684577979
 20
303.3405838299153174
 30
0.0
  0
VERTEX
  5
AA7C
  8
0
 10
344.3826626574622765
 20
303.5392077130679809
 30
0.0
  0
VERTEX
  5
AA7D
  8
0
 10
344.2769731078250857
 20
303.7350768671212791
 30
0.0
  0
VERTEX
  5
AA7E
  8
0
 10
344.2222583533938973
 20
303.8319164865013136
 30
0.0
  0
VERTEX
  5
AA7F
  8
0
 10
344.1663177159970815
 20
303.9279937413552943
 30
0.0
  0
VERTEX
  5
AA80
  8
0
 10
344.0508250598014115
 20
304.117766321332283
 30
0.0
  0
VERTEX
  5
AA81
  8
0
 10
343.9306338573637731
 20
304.3042095106782199
 30
0.0
  0
VERTEX
  5
AA82
  8
0
 10
343.8688222006979913
 20
304.3961269529452807
 30
0.0
  0
SEQEND
  5
AA83
  8
0
  0
POLYLINE
  5
9D35
  8
0
 66
     1
 10
0.0
 20
0.0
 30
0.0
  0
VERTEX
  5
AA84
  8
0
 10
319.846659965387289
 20
300.7442151128084902
 30
0.0
  0
VERTEX
  5
AA85
  8
0
 10
321.4457006995245933
 20
299.6538390690377014
 30
0.0
  0
VERTEX
  5
AA86
  8
0
 10
325.0690906403007148
 20
297.1830717494078158
 30
0.0
  0
VERTEX
  5
AA87
  8
0
 10
329.4235813307162744
 20
294.213771324290974
 30
0.0
  0
VERTEX
  5
AA88
  8
0
 10
331.9581558160952
 20
292.4854605683416935
 30
0.0
  0
SEQEND
  5
AA89
  8
0
  0
LINE
  5
9D3D
  8
1
 10
212.1645224126216078
 20
299.5671597962739838
 30
0.0
 11
363.4097235329106752
 21
299.5671597962739838
 31
0.0
  0
LINE
  5
9D3E
  8
1
 10
287.7871229727660989
 20
375.1897603564183896
 30
0.0
 11
287.7871229727660989
 21
223.9445592361294075
 31
0.0
  0
LINE
  5
9D40
  8
1
 10
271.7877342053228062
 20
348.567159796273927
 30
0.0
 11
303.7865117402095052
 21
348.567159796273927
 31
0.0
  0
CIRCLE
  5
9DE6
  8
0
 10
505.9962356668565917
 20
299.5671597962739838
 30
0.0
 40
15.5000000000000107
  0
CIRCLE
  5
9DE7
  8
0
 10
505.9962356668565917
 20
299.5671597962739838
 30
0.0
 40
60.4675966609247908
  0
CIRCLE
  5
9DE8
  8
0
 10
505.9962356668565917
 20
299.5671597962739838
 30
0.0
 40
62.5
  0
POLYLINE
  5
9DE9
  8
0
 66
     1
 10
0.0
 20
0.0
 30
0.0
  0
VERTEX
  5
AA8A
  8
0
 10
501.1246746582983747
 20
340.995042817681508
 30
0.0
  0
VERTEX
  5
AA8B
  8
0
 10
506.0260042480786069
 20
335.031400809477077
 30
0.0
  0
VERTEX
  5
AA8C
  8
0
 10
513.0659120768282264
 20
326.4656658813552781
 30
0.0
  0
VERTEX
  5
AA8D
  8
0
 10
518.2399457970752792
 20
320.170213947196487
 30
0.0
  0
VERTEX
  5
AA8E
  8
0
 10
520.493590199398227
 20
317.4281154649253835
 30
0.0
  0
SEQEND
  5
AA8F
  8
0
  0
POLYLINE
  5
9DEA
  8
0
 66
     1
 10
0.0
 20
0.0
 30
0.0
  0
VERTEX
  5
AA90
  8
0
 10
520.493590199398227
 20
317.4281154649253835
 30
0.0
  0
VERTEX
  5
AA91
  8
0
 10
521.0081160482687892
 20
316.8124182204613248
 30
0.0
  0
VERTEX
  5
AA92
  8
0
 10
522.0599936368955696
 20
315.6145023489572736
 30
0.0
  0
VERTEX
  5
AA93
  8
0
 10
523.1426930150512362
 20
314.4592771407741907
 30
0.0
  0
VERTEX
  5
AA94
  8
0
 10
523.7007745508012704
 20
313.8920581638520275
 30
0.0
  0
SEQEND
  5
AA95
  8
0
  0
POLYLINE
  5
9DEB
  8
0
 66
     1
 10
0.0
 20
0.0
 30
0.0
  0
VERTEX
  5
AA96
  8
0
 10
523.7007745508012704
 20
313.8920581638520275
 30
0.0
  0
VERTEX
  5
AA97
  8
0
 10
524.8343776205878157
 20
312.7584550940655959
 30
0.0
  0
VERTEX
  5
AA98
  8
0
 10
527.1737117511506767
 20
310.4191209635027917
 30
0.0
  0
VERTEX
  5
AA99
  8
0
 10
529.6741143497947633
 20
307.9187183648584778
 30
0.0
  0
VERTEX
  5
AA9A
  8
0
 10
531.013135960308432
 20
306.5796967543449227
 30
0.0
  0
SEQEND
  5
AA9B
  8
0
  0
POLYLINE
  5
9DEC
  8
0
 66
     1
 10
0.0
 20
0.0
 30
0.0
  0
VERTEX
  5
AA9C
  8
0
 10
531.0131359603082046
 20
306.579696754345207
 30
0.0
  0
VERTEX
  5
AA9D
  8
0
 10
532.1012995023972962
 20
305.5246828715066272
 30
0.0
  0
VERTEX
  5
AA9E
  8
0
 10
534.3850713131907924
 20
303.5079972901950214
 30
0.0
  0
VERTEX
  5
AA9F
  8
0
 10
536.8018137395520171
 20
301.6283568867518738
 30
0.0
  0
VERTEX
  5
AAA0
  8
0
 10
538.055772659477725
 20
300.7442151128084902
 30
0.0
  0
SEQEND
  5
AAA1
  8
0
  0
POLYLINE
  5
9DED
  8
0
 66
     1
 10
0.0
 20
0.0
 30
0.0
  0
VERTEX
  5
AAA2
  8
0
 10
537.1352799982050783
 20
334.069805263732178
 30
0.0
  0
VERTEX
  5
AAA3
  8
0
 10
533.4970248691156485
 20
337.0599725968555731
 30
0.0
  0
VERTEX
  5
AAA4
  8
0
 10
526.0705040381914159
 20
343.1635962294702153
 30
0.0
  0
VERTEX
  5
AAA5
  8
0
 10
518.0299477788330478
 20
349.7718762466255953
 30
0.0
  0
VERTEX
  5
AAA6
  8
0
 10
513.5916643643621455
 20
353.4195616370716948
 30
0.0
  0
SEQEND
  5
AAA7
  8
0
  0
POLYLINE
  5
9DEE
  8
0
 66
     1
 10
0.0
 20
0.0
 30
0.0
  0
VERTEX
  5
AAA8
  8
0
 10
540.6713372992784343
 20
330.8626209123290778
 30
0.0
  0
VERTEX
  5
AAA9
  8
0
 10
540.1109937473811442
 20
331.4140454817660952
 30
0.0
  0
VERTEX
  5
AAAA
  8
0
 10
538.9549180327549038
 20
332.4979343783389822
 30
0.0
  0
VERTEX
  5
AAAB
  8
0
 10
537.7529477871950121
 20
333.5536049896675195
 30
0.0
  0
VERTEX
  5
AAAC
  8
0
 10
537.1352799982050783
 20
334.069805263732178
 30
0.0
  0
SEQEND
  5
AAAD
  8
0
  0
POLYLINE
  5
9DEF
  8
0
 66
     1
 10
0.0
 20
0.0
 30
0.0
  0
VERTEX
  5
AAAE
  8
0
 10
547.9836987087858233
 20
323.5502595028218025
 30
0.0
  0
VERTEX
  5
AAAF
  8
0
 10
546.7342817180409611
 20
324.7996764935664942
 30
0.0
  0
VERTEX
  5
AAB0
  8
0
 10
544.2798765594703809
 20
327.2540816521370743
 30
0.0
  0
VERTEX
  5
AAB1
  8
0
 10
541.8677012938261441
 20
329.6662569177814248
 30
0.0
  0
VERTEX
  5
AAB2
  8
0
 10
540.6713372992784343
 20
330.8626209123290778
 30
0.0
  0
SEQEND
  5
AAB3
  8
0
  0
POLYLINE
  5
9DF0
  8
0
 66
     1
 10
0.0
 20
0.0
 30
0.0
  0
VERTEX
  5
AAB4
  8
0
 10
553.819180350321858
 20
316.5076228036527937
 30
0.0
  0
VERTEX
  5
AAB5
  8
0
 10
552.9502544942860141
 20
317.7406916645056185
 30
0.0
  0
VERTEX
  5
AAB6
  8
0
 10
551.0851167910414006
 20
320.1424481192179883
 30
0.0
  0
VERTEX
  5
AAB7
  8
0
 10
549.056521650274135
 20
322.4431395198361088
 30
0.0
  0
VERTEX
  5
AAB8
  8
0
 10
547.9836987087852549
 20
323.5502595028223141
 30
0.0
  0
SEQEND
  5
AAB9
  8
0
  0
POLYLINE
  5
9DF1
  8
0
 66
     1
 10
0.0
 20
0.0
 30
0.0
  0
VERTEX
  5
AABA
  8
0
 10
562.0779348947884273
 20
304.3961269529452807
 30
0.0
  0
VERTEX
  5
AABB
  8
0
 10
560.601802237465904
 20
306.5608812700759245
 30
0.0
  0
VERTEX
  5
AABC
  8
0
 10
557.7852620020030372
 20
310.6913485447105927
 30
0.0
  0
VERTEX
  5
AABD
  8
0
 10
555.1131954205502552
 20
314.609944640505887
 30
0.0
  0
VERTEX
  5
AABE
  8
0
 10
553.819180350321858
 20
316.5076228036527937
 30
0.0
  0
SEQEND
  5
AABF
  8
0
  0
POLYLINE
  5
9DF2
  8
0
 66
     1
 10
0.0
 20
0.0
 30
0.0
  0
VERTEX
  5
AAC0
  8
0
 10
550.1672685101850675
 20
292.4854605683420914
 30
0.0
  0
VERTEX
  5
AAC1
  8
0
 10
550.2607925517951344
 20
292.4225837935205732
 30
0.0
  0
VERTEX
  5
AAC2
  8
0
 10
550.450459447950152
 20
292.3004338262975921
 30
0.0
  0
VERTEX
  5
AAC3
  8
0
 10
550.6434034658066139
 20
292.1832421650565266
 30
0.0
  0
VERTEX
  5
AAC4
  8
0
 10
550.7410229440152989
 20
292.1265581782276968
 30
0.0
  0
VERTEX
  5
AAC5
  8
0
 10
550.8393774671101255
 20
292.0711663556215854
 30
0.0
  0
VERTEX
  5
AAC6
  8
0
 10
551.0381658669558647
 20
291.9643266918175755
 30
0.0
  0
VERTEX
  5
AAC7
  8
0
 10
551.2394907850140271
 20
291.8628586827496747
 30
0.0
  0
VERTEX
  5
AAC8
  8
0
 10
551.4430580168860843
 20
291.7668831125367888
 30
0.0
  0
VERTEX
  5
AAC9
  8
0
 10
551.6485627829872556
 20
291.6765024080895046
 30
0.0
  0
VERTEX
  5
AACA
  8
0
 10
551.8556921363724541
 20
291.5917993600155
 30
0.0
  0
VERTEX
  5
AACB
  8
0
 10
551.9597666276505379
 20
291.5515972128338262
 30
0.0
  0
VERTEX
  5
AACC
  8
0
 10
552.0641275093655622
 20
291.5128361432364841
 30
0.0
  0
VERTEX
  5
AACD
  8
0
 10
552.2735469887138606
 20
291.4396537755432064
 30
0.0
  0
VERTEX
  5
AACE
  8
0
 10
552.4836220672666514
 20
291.3722735460409012
 30
0.0
  0
VERTEX
  5
AACF
  8
0
 10
552.6940130600271459
 20
291.3106981556130108
 30
0.0
  0
VERTEX
  5
AAD0
  8
0
 10
552.9043708261743859
 20
291.2549104470652992
 30
0.0
  0
VERTEX
  5
AAD1
  8
0
 10
553.1143393456978856
 20
291.2048721911079951
 30
0.0
  0
VERTEX
  5
AAD2
  8
0
 10
553.2190651444980176
 20
291.1819911820144853
 30
0.0
  0
VERTEX
  5
AAD3
  8
0
 10
553.3235583403100009
 20
291.1605232324417898
 30
0.0
  0
VERTEX
  5
AAD4
  8
0
 10
553.5317193026480709
 20
291.1217717309410205
 30
0.0
  0
VERTEX
  5
AAD5
  8
0
 10
553.7409199445630748
 20
291.088152177898678
 30
0.0
  0
VERTEX
  5
AAD6
  8
0
 10
553.846327953128025
 20
291.0732148938737964
 30
0.0
  0
VERTEX
  5
AAD7
  8
0
 10
553.9522369871447154
 20
291.0595482329817969
 30
0.0
  0
VERTEX
  5
AAD8
  8
0
 10
554.1654438599917967
 20
291.0360887774189109
 30
0.0
  0
VERTEX
  5
AAD9
  8
0
 10
554.3803095584640914
 20
291.0178894891599271
 30
0.0
  0
VERTEX
  5
AADA
  8
0
 10
554.4882914725691307
 20
291.0107948875880197
 30
0.0
  0
VERTEX
  5
AADB
  8
0
 10
554.5966002965561756
 20
291.0050526183704278
 30
0.0
  0
VERTEX
  5
AADC
  8
0
 10
554.8140811639760841
 20
290.997666958761215
 30
0.0
  0
VERTEX
  5
AADD
  8
0
 10
555.0325177914916139
 20
290.9958080147557098
 30
0.0
  0
VERTEX
  5
AADE
  8
0
 10
555.2516780262118345
 20
290.9995383669535158
 30
0.0
  0
VERTEX
  5
AADF
  8
0
 10
555.4713335299172741
 20
291.0089082356093968
 30
0.0
  0
VERTEX
  5
AAE0
  8
0
 10
555.6912583769410503
 20
291.0239559951481851
 30
0.0
  0
VERTEX
  5
AAE1
  8
0
 10
555.8012505403393106
 20
291.0336178113432766
 30
0.0
  0
VERTEX
  5
AAE2
  8
0
 10
555.9112241730805408
 20
291.0447080487671769
 30
0.0
  0
VERTEX
  5
AAE3
  8
0
 10
556.1310001998153894
 20
291.0711785574857231
 30
0.0
  0
VERTEX
  5
AAE4
  8
0
 10
556.3503549877242449
 20
291.1033693558179039
 30
0.0
  0
VERTEX
  5
AAE5
  8
0
 10
556.5690578629196352
 20
291.1412700453531102
 30
0.0
  0
VERTEX
  5
AAE6
  8
0
 10
556.7868804625937855
 20
291.1848582644390717
 30
0.0
  0
VERTEX
  5
AAE7
  8
0
 10
557.0035982206645713
 20
291.2341001341407036
 30
0.0
  0
VERTEX
  5
AAE8
  8
0
 10
557.1114740042283984
 20
291.260827601423216
 30
0.0
  0
VERTEX
  5
AAE9
  8
0
 10
557.218992016905986
 20
291.2889509342423935
 30
0.0
  0
VERTEX
  5
AAEA
  8
0
 10
557.4329015246781864
 20
291.34937133146002
 30
0.0
  0
VERTEX
  5
AAEB
  8
0
 10
557.6451560722395016
 20
291.4153128619253721
 30
0.0
  0
VERTEX
  5
AAEC
  8
0
 10
557.8555427422992352
 20
291.4867049326276174
 30
0.0
  0
VERTEX
  5
AAED
  8
0
 10
558.0638496349979505
 20
291.5634648809510168
 30
0.0
  0
VERTEX
  5
AAEE
  8
0
 10
558.2698674337041211
 20
291.6454981770056065
 30
0.0
  0
VERTEX
  5
AAEF
  8
0
 10
558.3719535894171031
 20
291.6884596330232853
 30
0.0
  0
VERTEX
  5
AAF0
  8
0
 10
558.4733909104393206
 20
291.7326987958522864
 30
0.0
  0
VERTEX
  5
AAF1
  8
0
 10
558.6742203716218
 20
291.8249497586543839
 30
0.0
  0
VERTEX
  5
AAF2
  8
0
 10
558.8721630448183078
 20
291.9221238437183956
 30
0.0
  0
VERTEX
  5
AAF3
  8
0
 10
559.0670343881887447
 20
292.0240844602121797
 30
0.0
  0
VERTEX
  5
AAF4
  8
0
 10
559.2586575765387806
 20
292.1306856842392108
 30
0.0
  0
VERTEX
  5
AAF5
  8
0
 10
559.4468590833382677
 20
292.2417697752737809
 30
0.0
  0
VERTEX
  5
AAF6
  8
0
 10
559.5396232460509509
 20
292.2989401339132769
 30
0.0
  0
VERTEX
  5
AAF7
  8
0
 10
559.6314683586922456
 20
292.3571663394365032
 30
0.0
  0
VERTEX
  5
AAF8
  8
0
 10
559.8123195348697436
 20
292.47669267968962
 30
0.0
  0
VERTEX
  5
AAF9
  8
0
 10
559.989253057270048
 20
292.6001543352361978
 30
0.0
  0
VERTEX
  5
AAFA
  8
0
 10
560.16211720968397
 20
292.7273457899887035
 30
0.0
  0
VERTEX
  5
AAFB
  8
0
 10
560.3307695362664163
 20
292.8580513494517277
 30
0.0
  0
VERTEX
  5
AAFC
  8
0
 10
560.4950781634188388
 20
292.992046188654399
 30
0.0
  0
VERTEX
  5
AAFD
  8
0
 10
560.5758039406773605
 20
293.0604090224334755
 30
0.0
  0
VERTEX
  5
AAFE
  8
0
 10
560.6559503351162448
 20
293.1300006690667033
 30
0.0
  0
VERTEX
  5
AAFF
  8
0
 10
560.8143847751075555
 20
293.2728346768304277
 30
0.0
  0
VERTEX
  5
AB00
  8
0
 10
560.970135699755815
 20
293.4204609951264047
 30
0.0
  0
VERTEX
  5
AB01
  8
0
 10
561.0469293528835806
 20
293.4960401571157718
 30
0.0
  0
VERTEX
  5
AB02
  8
0
 10
561.1229625347516503
 20
293.5727786237662826
 30
0.0
  0
VERTEX
  5
AB03
  8
0
 10
561.2726330401470705
 20
293.7296754264745005
 30
0.0
  0
VERTEX
  5
AB04
  8
0
 10
561.41892445086512
 20
293.8910293768003044
 30
0.0
  0
VERTEX
  5
AB05
  8
0
 10
561.4907362197715202
 20
293.9733372818130874
 30
0.0
  0
VERTEX
  5
AB06
  8
0
 10
561.5616244695257819
 20
294.056709939421296
 30
0.0
  0
VERTEX
  5
AB07
  8
0
 10
561.7005321111863623
 20
294.226579589812502
 30
0.0
  0
VERTEX
  5
AB08
  8
0
 10
561.8354583833629476
 20
294.4004954575419788
 30
0.0
  0
VERTEX
  5
AB09
  8
0
 10
561.9662256121823702
 20
294.578309436004588
 30
0.0
  0
VERTEX
  5
AB0A
  8
0
 10
562.0926641532814756
 20
294.7598642476145869
 30
0.0
  0
VERTEX
  5
AB0B
  8
0
 10
562.2146121212181242
 20
294.9449926510681053
 30
0.0
  0
VERTEX
  5
AB0C
  8
0
 10
562.2738539481819089
 20
295.0388422382372937
 30
0.0
  0
VERTEX
  5
AB0D
  8
0
 10
562.3319164982457323
 20
295.1335185731828119
 30
0.0
  0
VERTEX
  5
AB0E
  8
0
 10
562.4444341048921387
 20
295.3252583614515743
 30
0.0
  0
VERTEX
  5
AB0F
  8
0
 10
562.5520324117748032
 20
295.5200221281700124
 30
0.0
  0
VERTEX
  5
AB10
  8
0
 10
562.6545901934257472
 20
295.7176151867805061
 30
0.0
  0
VERTEX
  5
AB11
  8
0
 10
562.7519980229545808
 20
295.9178395813797806
 30
0.0
  0
VERTEX
  5
AB12
  8
0
 10
562.8441742048951255
 20
296.1205312322605891
 30
0.0
  0
VERTEX
  5
AB13
  8
0
 10
562.8882808499588464
 20
296.2227599124420863
 30
0.0
  0
VERTEX
  5
AB14
  8
0
 10
562.9310519069749716
 20
296.3255430714506815
 30
0.0
  0
VERTEX
  5
AB15
  8
0
 10
563.0125466054161052
 20
296.532666973505286
 30
0.0
  0
VERTEX
  5
AB16
  8
0
 10
563.0885833367597115
 20
296.7416869253166851
 30
0.0
  0
VERTEX
  5
AB17
  8
0
 10
563.1590978770292395
 20
296.9523809733453277
 30
0.0
  0
VERTEX
  5
AB18
  8
0
 10
563.2240374640335858
 20
297.1645226323494171
 30
0.0
  0
VERTEX
  5
AB19
  8
0
 10
563.2833613477718018
 20
297.3778823575241859
 30
0.0
  0
VERTEX
  5
AB1A
  8
0
 10
563.3109080478284341
 20
297.4849468023161876
 30
0.0
  0
VERTEX
  5
AB1B
  8
0
 10
563.3370411689865023
 20
297.592229080845982
 30
0.0
  0
VERTEX
  5
AB1C
  8
0
 10
563.3850611635461973
 20
297.8073318100231859
 30
0.0
  0
VERTEX
  5
AB1D
  8
0
 10
563.4274179483744547
 20
298.0229599740621893
 30
0.0
  0
VERTEX
  5
AB1E
  8
0
 10
563.4641195178500084
 20
298.2388786358316111
 30
0.0
  0
VERTEX
  5
AB1F
  8
0
 10
563.4951854542033516
 20
298.4548467705201915
 30
0.0
  0
VERTEX
  5
AB20
  8
0
 10
563.5206477819161819
 20
298.670618749959317
 30
0.0
  0
VERTEX
  5
AB21
  8
0
 10
563.5312911722430727
 20
298.7783535620989142
 30
0.0
  0
VERTEX
  5
AB22
  8
0
 10
563.5405516411300368
 20
298.8859459628286004
 30
0.0
  0
VERTEX
  5
AB23
  8
0
 10
563.5549557588639118
 20
299.1005784617012182
 30
0.0
  0
VERTEX
  5
AB24
  8
0
 10
563.5639327206446296
 20
299.3142666377797809
 30
0.0
  0
VERTEX
  5
AB25
  8
0
 10
563.567569043178878
 20
299.5267629270151133
 30
0.0
  0
VERTEX
  5
AB26
  8
0
 10
563.5659456704971717
 20
299.7387937340687927
 30
0.0
  0
VERTEX
  5
AB27
  8
0
 10
563.5590180790188697
 20
299.9520560382177905
 30
0.0
  0
VERTEX
  5
AB28
  8
0
 10
563.5535360633756454
 20
300.0590923920985915
 30
0.0
  0
VERTEX
  5
AB29
  8
0
 10
563.5466947117720338
 20
300.1663574901319862
 30
0.0
  0
VERTEX
  5
AB2A
  8
0
 10
563.5288976637331189
 20
300.3814490582454937
 30
0.0
  0
VERTEX
  5
AB2B
  8
0
 10
563.5055629396400718
 20
300.5970807251638917
 30
0.0
  0
VERTEX
  5
AB2C
  8
0
 10
563.4918027099112123
 20
300.7050211112264151
 30
0.0
  0
VERTEX
  5
AB2D
  8
0
 10
563.4766402582531555
 20
300.8130031737974832
 30
0.0
  0
VERTEX
  5
AB2E
  8
0
 10
563.4420926575253361
 20
301.0289694447145052
 30
0.0
  0
VERTEX
  5
AB2F
  8
0
 10
563.4018958987768428
 20
301.2447365666826045
 30
0.0
  0
VERTEX
  5
AB30
  8
0
 10
563.3796747969003036
 20
301.3524710038657872
 30
0.0
  0
VERTEX
  5
AB31
  8
0
 10
563.356037667235455
 20
301.4600671552224753
 30
0.0
  0
VERTEX
  5
AB32
  8
0
 10
563.3045169061564366
 20
301.6747296299448067
 30
0.0
  0
VERTEX
  5
AB33
  8
0
 10
563.2473445742207332
 20
301.8884933685807255
 30
0.0
  0
VERTEX
  5
AB34
  8
0
 10
563.1845442378097459
 20
302.1011271405694174
 30
0.0
  0
VERTEX
  5
AB35
  8
0
 10
563.1161519529428006
 20
302.3124006348983812
 30
0.0
  0
VERTEX
  5
AB36
  8
0
 10
563.0422159526423229
 20
302.5220860213850074
 30
0.0
  0
VERTEX
  5
AB37
  8
0
 10
563.0031873458626706
 20
302.6262630251894734
 30
0.0
  0
VERTEX
  5
AB38
  8
0
 10
562.962796162040604
 20
302.7299594471647879
 30
0.0
  0
VERTEX
  5
AB39
  8
0
 10
562.8779635417899954
 20
302.9358024696069833
 30
0.0
  0
VERTEX
  5
AB3A
  8
0
 10
562.7877992588048528
 20
303.1394034256653072
 30
0.0
  0
VERTEX
  5
AB3B
  8
0
 10
562.6923813786683013
 20
303.3405838299153174
 30
0.0
  0
VERTEX
  5
AB3C
  8
0
 10
562.5917753515526556
 20
303.5392077130679809
 30
0.0
  0
VERTEX
  5
AB3D
  8
0
 10
562.4860858019153511
 20
303.7350768671212791
 30
0.0
  0
VERTEX
  5
AB3E
  8
0
 10
562.4313710474843901
 20
303.8319164865013136
 30
0.0
  0
VERTEX
  5
AB3F
  8
0
 10
562.3754304100874606
 20
303.9279937413552943
 30
0.0
  0
VERTEX
  5
AB40
  8
0
 10
562.2599377538916769
 20
304.117766321332283
 30
0.0
  0
VERTEX
  5
AB41
  8
0
 10
562.1397465514542091
 20
304.3042095106782199
 30
0.0
  0
VERTEX
  5
AB42
  8
0
 10
562.0779348947884273
 20
304.3961269529452807
 30
0.0
  0
SEQEND
  5
AB43
  8
0
  0
POLYLINE
  5
9DF3
  8
0
 66
     1
 10
0.0
 20
0.0
 30
0.0
  0
VERTEX
  5
AB44
  8
0
 10
538.055772659477725
 20
300.7442151128084902
 30
0.0
  0
VERTEX
  5
AB45
  8
0
 10
539.6548133936148588
 20
299.6538390690377014
 30
0.0
  0
VERTEX
  5
AB46
  8
0
 10
543.2782033343911507
 20
297.1830717494078158
 30
0.0
  0
VERTEX
  5
AB47
  8
0
 10
547.6326940248067103
 20
294.213771324290974
 30
0.0
  0
VERTEX
  5
AB48
  8
0
 10
550.1672685101856359
 20
292.4854605683416935
 30
0.0
  0
SEQEND
  5
AB49
  8
0
  0
LINE
  5
9DF4
  8
1
 10
430.3736351067120154
 20
299.5671597962739838
 30
0.0
 11
581.6188362270009975
 21
299.5671597962739838
 31
0.0
  0
LINE
  5
9DF5
  8
1
 10
505.9962356668565917
 20
375.1897603564183896
 30
0.0
 11
505.9962356668565917
 21
223.9445592361294075
 31
0.0
  0
LINE
  5
9DF6
  8
1
 10
489.9968468994131854
 20
348.567159796273927
 30
0.0
 11
521.9956244342997707
 21
348.567159796273927
 31
0.0
  0
LINE
  5
9DF7
  8
1
 10
572.0991925767926887
 20
282.4642028863376026
 30
0.0
 11
492.2191805647246952
 21
362.3442148984058235
 31
0.0
  0
ARC
  5
9DF8
  8
0
 10
505.9962356668565917
 20
348.5671597962739838
 30
0.0
 40
7.3000000000000762
 50
331.482970138014025
 51
298.5170298619780738
  0
ARC
  5
9DF9
  8
0
 10
505.9962356668565917
 20
348.5671597962739838
 30
0.0
 40
4.75
 50
344.6523989064954776
 51
285.3476010935029876
  0
ARC
  5
9DFA
  8
0
 10
505.9962356668565917
 20
348.5671597962739838
 30
0.0
 40
5.1716225041071731
 50
342.02651906658798
 51
287.9734809334092915
  0
ARC
  5
9DFB
  8
0
 10
502.9203211686951818
 20
349.7338859852317796
 30
0.0
 40
1.0
 50
135.0000000000003979
 51
224.9999999999996021
  0
LINE
  5
9DFC
  8
0
 10
509.2842821993738767
 20
341.955711392179694
 30
0.0
 11
502.2132143875085148
 21
349.0267792040452832
 31
0.0
  0
ARC
  5
9DFD
  8
0
 10
504.8295094778986822
 20
351.6430742944355075
 30
0.0
 40
1.000000000000004
 50
44.9999999999995808
 51
135.0000000000003979
  0
LINE
  5
9DFE
  8
0
 10
502.2132143875085148
 20
350.440992766418276
 30
0.0
 11
504.1224026967121858
 21
352.3501810756220038
 31
0.0
  0
LINE
  5
9DFF
  8
0
 10
505.5366162590852923
 20
352.3501810756221175
 30
0.0
 11
512.6076840709506541
 21
345.2791132637565283
 31
0.0
  0
ARC
  5
9E00
  8
0
 10
505.9962356668565917
 20
348.567159796273927
 30
0.0
 40
7.9999999999999583
 50
343.9550243718608158
 51
286.0449756281374789
  0
POINT
  5
9E01
  8
0
 10
555.4937103499147497
 20
299.0696851132155984
 30
-0.0000000000000089
210
0.7071067811865474
220
-0.7071067811865478
230
0.0
 50
180.0
  0
ARC
  5
9E02
  8
0
 10
549.129749319235998
 20
305.4336461438945207
 30
0.0
 40
9.0000000000000089
 50
224.9999999999996021
 51
44.9999999999995808
  0
LINE
  5
9E03
  8
0
 10
521.9556357182368629
 20
319.8798376835356976
 30
0.0
 11
542.7657882885569052
 21
299.0696851132155984
 31
0.0
  0
LINE
  5
9E04
  8
0
 10
555.4937103499148634
 20
311.7976071745733861
 30
0.0
 11
534.6835577795948211
 21
332.6077597448934853
 31
0.0
  0
ARC
  5
9E05
  8
0
 10
532.8662933519453873
 20
330.7904953172441083
 30
0.0
 40
2.5700000000000092
 50
44.9999999999995808
 51
116.2523408187302039
  0
ARC
  5
9E06
  8
0
 10
523.7729001458862967
 20
321.6971021111850746
 30
0.0
 40
2.5700000000000078
 50
153.7476591812672098
 51
225.0000008537741962
  0
LINE
  5
9E07
  8
0
 10
508.0779580306697767
 20
336.2239038238815851
 30
0.0
 11
521.4679836412045688
 21
322.8338782133466793
 31
0.0
  0
LINE
  5
9E08
  8
0
 10
531.7295172497838394
 20
333.095411821925893
 30
0.0
 11
518.3394916392488767
 21
346.4854374324606852
 31
0.0
  0
ARC
  5
9E09
  8
0
 10
518.1980702830115888
 20
346.3440160762233972
 30
0.0
 40
0.2000000000000055
 50
44.9999999999995808
 51
135.0000000000003979
  0
ARC
  5
9E0A
  8
0
 10
508.2193793869071214
 20
336.365325180118873
 30
0.0
 40
0.2000000000000028
 50
135.0000000000003979
 51
224.9999999999996021
  0
LINE
  5
9E0B
  8
0
 10
507.5872259245263081
 20
340.2586551173320117
 30
0.0
 11
509.4104141363309282
 21
337.8392026420173124
 31
0.0
  0
LINE
  5
9E0C
  8
0
 10
516.7241928211132063
 20
345.1529813267995905
 30
0.0
 11
514.3047403457984501
 21
346.9761695386042106
 31
0.0
  0
LINE
  5
9E0D
  8
0
 10
555.4937103499148634
 20
311.7976071745733861
 30
0.0
 11
542.7657882885569052
 21
299.0696851132155984
 31
0.0
  0
LINE
  5
9E0E
  8
0
 10
534.6835577795948211
 20
332.6077597448934853
 30
0.0
 11
521.9556357182368629
 21
319.8798376835356976
 31
0.0
  0
LINE
  5
9E0F
  8
0
 10
531.7295172497838394
 20
333.095411821925893
 30
0.0
 11
521.4679836412045688
 21
322.8338782133466793
 31
0.0
  0
LINE
  5
9E10
  8
0
 10
514.3047403457984501
 20
346.9761695386042106
 30
0.0
 11
507.5872259245263081
 21
340.2586551173320117
 31
0.0
  0
LINE
  5
9E11
  8
0
 10
508.0779580306697767
 20
336.5067465363562178
 30
0.0
 11
518.0566489267743009
 21
346.4854374324606852
 31
0.0
  0
POLYLINE
  5
9E12
  8
0
 66
     1
 10
0.0
 20
0.0
 30
0.0
  0
VERTEX
  5
AB4A
  8
0
 10
511.4385986366061161
 20
355.1890985652902941
 30
0.0
  0
VERTEX
  5
AB4B
  8
0
 10
511.3478674588503168
 20
355.2626377417253138
 30
0.0
  0
VERTEX
  5
AB4C
  8
0
 10
511.1629838868485081
 20
355.4063191441991876
 30
0.0
  0
VERTEX
  5
AB4D
  8
0
 10
510.9736886733481924
 20
355.5452934524366242
 30
0.0
  0
VERTEX
  5
AB4E
  8
0
 10
510.8774454323893224
 20
355.6129513756475262
 30
0.0
  0
VERTEX
  5
AB4F
  8
0
 10
510.7801714259741743
 20
355.6793568132117116
 30
0.0
  0
VERTEX
  5
AB50
  8
0
 10
510.5826345654447778
 20
355.8083152909536011
 30
0.0
  0
VERTEX
  5
AB51
  8
0
 10
510.3812916254174752
 20
355.9319864741660808
 30
0.0
  0
VERTEX
  5
AB52
  8
0
 10
510.1763655257420282
 20
356.0502007635517998
 30
0.0
  0
VERTEX
  5
AB53
  8
0
 10
509.9680867128092814
 20
356.162802430302122
 30
0.0
  0
VERTEX
  5
AB54
  8
0
 10
509.7566911658637991
 20
356.2696504450893258
 30
0.0
  0
VERTEX
  5
AB55
  8
0
 10
509.6498993523640024
 20
356.3208769324807008
 30
0.0
  0
VERTEX
  5
AB56
  8
0
 10
509.5424111890894778
 20
356.3706222918984281
 30
0.0
  0
VERTEX
  5
AB57
  8
0
 10
509.3254124623858274
 20
356.4656387396663035
 30
0.0
  0
VERTEX
  5
AB58
  8
0
 10
509.1059217472372893
 20
356.5546024556355178
 30
0.0
  0
VERTEX
  5
AB59
  8
0
 10
508.8841958441860243
 20
356.637418389978393
 30
0.0
  0
VERTEX
  5
AB5A
  8
0
 10
508.6604997943289845
 20
356.7140048552010967
 30
0.0
  0
VERTEX
  5
AB5B
  8
0
 10
508.435104988198475
 20
356.7842945881901073
 30
0.0
  0
VERTEX
  5
AB5C
  8
0
 10
508.3218566111034988
 20
356.8170613095517183
 30
0.0
  0
VERTEX
  5
AB5D
  8
0
 10
508.2082871826374912
 20
356.8482355625396849
 30
0.0
  0
VERTEX
  5
AB5E
  8
0
 10
507.9803244249579279
 20
356.9057915518484947
 30
0.0
  0
VERTEX
  5
AB5F
  8
0
 10
507.7514948864537132
 20
356.956942441081992
 30
0.0
  0
VERTEX
  5
AB60
  8
0
 10
507.6368417167324765
 20
356.9801140659827752
 30
0.0
  0
VERTEX
  5
AB61
  8
0
 10
507.5220763001699993
 20
357.0016839747224253
 30
0.0
  0
VERTEX
  5
AB62
  8
0
 10
507.2923519644189128
 20
357.0400265070333035
 30
0.0
  0
VERTEX
  5
AB63
  8
0
 10
507.0626128038182969
 20
357.0719953359459282
 30
0.0
  0
VERTEX
  5
AB64
  8
0
 10
506.9478301666820244
 20
357.085601887584005
 30
0.0
  0
VERTEX
  5
AB65
  8
0
 10
506.8331553320156218
 20
357.0976318365055135
 30
0.0
  0
VERTEX
  5
AB66
  8
0
 10
506.6042794371140872
 20
357.11699432850628
 30
0.0
  0
VERTEX
  5
AB67
  8
0
 10
506.3762861281475125
 20
357.130158651930401
 30
0.0
  0
VERTEX
  5
AB68
  8
0
 10
506.1494752401906112
 20
357.1372184534982921
 30
0.0
  0
VERTEX
  5
AB69
  8
0
 10
505.9239705416861739
 20
357.1382837311372214
 30
0.0
  0
VERTEX
  5
AB6A
  8
0
 10
505.697656012786581
 20
357.1333863835920965
 30
0.0
  0
VERTEX
  5
AB6B
  8
0
 10
505.5839966990125731
 20
357.1286694054779218
 30
0.0
  0
VERTEX
  5
AB6C
  8
0
 10
505.4700522948094772
 20
357.1224224347955101
 30
0.0
  0
VERTEX
  5
AB6D
  8
0
 10
505.2414582340801985
 20
357.1052918391785056
 30
0.0
  0
VERTEX
  5
AB6E
  8
0
 10
505.012174684950196
 20
357.0819123903891068
 30
0.0
  0
VERTEX
  5
AB6F
  8
0
 10
504.7825021986101888
 20
357.0522195381473125
 30
0.0
  0
VERTEX
  5
AB70
  8
0
 10
504.5527387552556888
 20
357.0161659165996184
 30
0.0
  0
VERTEX
  5
AB71
  8
0
 10
504.3231775355218929
 20
356.973720582010003
 30
0.0
  0
VERTEX
  5
AB72
  8
0
 10
504.2085625265920044
 20
356.9500955886247766
 30
0.0
  0
VERTEX
  5
AB73
  8
0
 10
504.0941047389725895
 20
356.9248679563074234
 30
0.0
  0
VERTEX
  5
AB74
  8
0
 10
503.8657992847362834
 20
356.8696069401490263
 30
0.0
  0
VERTEX
  5
AB75
  8
0
 10
503.6385389482002211
 20
356.8079518660896952
 30
0.0
  0
VERTEX
  5
AB76
  8
0
 10
503.4126020742140213
 20
356.7399332064492796
 30
0.0
  0
VERTEX
  5
AB77
  8
0
 10
503.1882654844282001
 20
356.6655973745783967
 30
0.0
  0
VERTEX
  5
AB78
  8
0
 10
502.9658023676835228
 20
356.5850062511747183
 30
0.0
  0
VERTEX
  5
AB79
  8
0
 10
502.8553572418106796
 20
356.5423883493738799
 30
0.0
  0
VERTEX
  5
AB7A
  8
0
 10
502.7454802638288243
 20
356.498236461190686
 30
0.0
  0
VERTEX
  5
AB7B
  8
0
 10
502.5275591395613901
 20
356.4053784015497968
 30
0.0
  0
VERTEX
  5
AB7C
  8
0
 10
502.3122858321069089
 20
356.3065332444381283
 30
0.0
  0
VERTEX
  5
AB7D
  8
0
 10
502.0998310217760263
 20
356.2017795377474272
 30
0.0
  0
VERTEX
  5
AB7E
  8
0
 10
501.8904073949931899
 20
356.0912253167933272
 30
0.0
  0
VERTEX
  5
AB7F
  8
0
 10
501.6842524032747974
 20
355.9750061830242771
 30
0.0
  0
VERTEX
  5
AB80
  8
0
 10
501.5824735974929922
 20
355.9148187533941154
 30
0.0
  0
VERTEX
  5
AB81
  8
0
 10
501.4815987130115218
 20
355.8532726783309954
 30
0.0
  0
VERTEX
  5
AB82
  8
0
 10
501.2826721633675788
 20
355.726189538751612
 30
0.0
  0
VERTEX
  5
AB83
  8
0
 10
501.0876898587358141
 20
355.5939347182904839
 30
0.0
  0
VERTEX
  5
AB84
  8
0
 10
500.8968583944181887
 20
355.4566981834548756
 30
0.0
  0
VERTEX
  5
AB85
  8
0
 10
500.7103722155785022
 20
355.3146804764604099
 30
0.0
  0
VERTEX
  5
AB86
  8
0
 10
500.5284130848808104
 20
355.1680918491841794
 30
0.0
  0
VERTEX
  5
AB87
  8
0
 10
500.4391856410604191
 20
355.0931526529893176
 30
0.0
  0
VERTEX
  5
AB88
  8
0
 10
500.3511546026160772
 20
355.0171557290830719
 30
0.0
  0
VERTEX
  5
AB89
  8
0
 10
500.1787639211402166
 20
354.8621109670846749
 30
0.0
  0
VERTEX
  5
AB8A
  8
0
 10
500.0113996328710755
 20
354.7032110836581751
 30
0.0
  0
VERTEX
  5
AB8B
  8
0
 10
499.929649084528819
 20
354.6223984368413085
 30
0.0
  0
VERTEX
  5
AB8C
  8
0
 10
499.8492096692947939
 20
354.5407231499514751
 30
0.0
  0
VERTEX
  5
AB8D
  8
0
 10
499.6923294010072141
 20
354.3749264536464239
 30
0.0
  0
VERTEX
  5
AB8E
  8
0
 10
499.540879934316024
 20
354.2061109506515209
 30
0.0
  0
VERTEX
  5
AB8F
  8
0
 10
499.4672253210184749
 20
354.1206642447316995
 30
0.0
  0
VERTEX
  5
AB90
  8
0
 10
499.3949147941714841
 20
354.0345129484812787
 30
0.0
  0
VERTEX
  5
AB91
  8
0
 10
499.253133365422002
 20
353.8586585544226182
 30
0.0
  0
VERTEX
  5
AB92
  8
0
 10
499.1151410654437086
 20
353.6779253789932227
 30
0.0
  0
VERTEX
  5
AB93
  8
0
 10
498.981205532652325
 20
353.4924760268631871
 30
0.0
  0
VERTEX
  5
AB94
  8
0
 10
498.8515822589487811
 20
353.3024861246246928
 30
0.0
  0
VERTEX
  5
AB95
  8
0
 10
498.7265132445530753
 20
353.1081424716163042
 30
0.0
  0
VERTEX
  5
AB96
  8
0
 10
498.6657582450574182
 20
353.0093989302685031
 30
0.0
  0
VERTEX
  5
AB97
  8
0
 10
498.6062258989271072
 20
352.9096410437875875
 30
0.0
  0
VERTEX
  5
AB98
  8
0
 10
498.490932185863187
 20
352.707184846112284
 30
0.0
  0
VERTEX
  5
AB99
  8
0
 10
498.3808280166501845
 20
352.5009816117963055
 30
0.0
  0
VERTEX
  5
AB9A
  8
0
 10
498.2760934754630853
 20
352.2912425423696163
 30
0.0
  0
VERTEX
  5
AB9B
  8
0
 10
498.1768958610834943
 20
352.0781871041933186
 30
0.0
  0
VERTEX
  5
AB9C
  8
0
 10
498.0833906790413153
 20
351.8620455232613153
 30
0.0
  0
VERTEX
  5
AB9D
  8
0
 10
498.0388178360209963
 20
351.752891928861402
 30
0.0
  0
VERTEX
  5
AB9E
  8
0
 10
497.9957204934744937
 20
351.643057180060282
 30
0.0
  0
VERTEX
  5
AB9F
  8
0
 10
497.9140139263765263
 20
351.4214687306413225
 30
0.0
  0
VERTEX
  5
ABA0
  8
0
 10
497.8383849035287767
 20
351.1975321422303864
 30
0.0
  0
VERTEX
  5
ABA1
  8
0
 10
497.7689321454353717
 20
350.9715026423569952
 30
0.0
  0
VERTEX
  5
ABA2
  8
0
 10
497.7057386172430142
 20
350.74363548542118
 30
0.0
  0
VERTEX
  5
ABA3
  8
0
 10
497.6488566432691982
 20
350.5141192698309283
 30
0.0
  0
VERTEX
  5
ABA4
  8
0
 10
497.6227984435237204
 20
350.3988084585465117
 30
0.0
  0
VERTEX
  5
ABA5
  8
0
 10
497.5983379482356099
 20
350.2831731011997931
 30
0.0
  0
VERTEX
  5
ABA6
  8
0
 10
497.5542324372952976
 20
350.0510631715573027
 30
0.0
  0
VERTEX
  5
ABA7
  8
0
 10
497.5165757668019069
 20
349.8180617646572159
 30
0.0
  0
VERTEX
  5
ABA8
  8
0
 10
497.4853885852343751
 20
349.5844452568720726
 30
0.0
  0
VERTEX
  5
ABA9
  8
0
 10
497.4606760310459208
 20
349.3504920748260929
 30
0.0
  0
VERTEX
  5
ABAA
  8
0
 10
497.4424274857204864
 20
349.1164806091235278
 30
0.0
  0
VERTEX
  5
ABAB
  8
0
 10
497.4357195865435983
 20
348.9995394833599107
 30
0.0
  0
VERTEX
  5
ABAC
  8
0
 10
497.4306165831558246
 20
348.8826870820070098
 30
0.0
  0
VERTEX
  5
ABAD
  8
0
 10
497.4252014868234824
 20
348.6493841223934282
 30
0.0
  0
VERTEX
  5
ABAE
  8
0
 10
497.4261252020169195
 20
348.4168455403112148
 30
0.0
  0
VERTEX
  5
ABAF
  8
0
 10
497.4333150703396882
 20
348.1853501410168974
 30
0.0
  0
VERTEX
  5
ABB0
  8
0
 10
497.4466819743340125
 20
347.9551798833884959
 30
0.0
  0
VERTEX
  5
ABB1
  8
0
 10
497.4661198081020075
 20
347.7266175954752043
 30
0.0
  0
VERTEX
  5
ABB2
  8
0
 10
497.4780774550496858
 20
347.6130275026546883
 30
0.0
  0
VERTEX
  5
ABB3
  8
0
 10
497.491505235933289
 20
347.4999447043513214
 30
0.0
  0
VERTEX
  5
ABB4
  8
0
 10
497.5226977350056927
 20
347.2754389779141206
 30
0.0
  0
VERTEX
  5
ABB5
  8
0
 10
497.559541557887087
 20
347.0533631564371717
 30
0.0
  0
VERTEX
  5
ABB6
  8
0
 10
497.5801570834411791
 20
346.9426570930203866
 30
0.0
  0
VERTEX
  5
ABB7
  8
0
 10
497.6023530871108278
 20
346.831612910551712
 30
0.0
  0
VERTEX
  5
ABB8
  8
0
 10
497.6515407649687859
 20
346.6087280896508105
 30
0.0
  0
VERTEX
  5
ABB9
  8
0
 10
497.7071950044172013
 20
346.3851440649996221
 30
0.0
  0
VERTEX
  5
ABBA
  8
0
 10
497.7374675142237948
 20
346.2732251075439081
 30
0.0
  0
VERTEX
  5
ABBB
  8
0
 10
497.769377678114779
 20
346.1612929279339141
 30
0.0
  0
VERTEX
  5
ABBC
  8
0
 10
497.8381229963218857
 20
345.9375998692208896
 30
0.0
  0
VERTEX
  5
ABBD
  8
0
 10
497.9134388944029865
 20
345.7144796371403004
 30
0.0
  0
VERTEX
  5
ABBE
  8
0
 10
497.9953088759972957
 20
345.4923332576848907
 30
0.0
  0
VERTEX
  5
ABBF
  8
0
 10
498.0836921121289151
 20
345.2715502548326754
 30
0.0
  0
VERTEX
  5
ABC0
  8
0
 10
498.178520965374787
 20
345.052515489756388
 30
0.0
  0
VERTEX
  5
ABC1
  8
0
 10
498.2283240423140001
 20
344.9437723275648864
 30
0.0
  0
VERTEX
  5
ABC2
  8
0
 10
498.2797011438998993
 20
344.8356074770483133
 30
0.0
  0
VERTEX
  5
ABC3
  8
0
 10
498.3871129461599025
 20
344.6211948729024925
 30
0.0
  0
VERTEX
  5
ABC4
  8
0
 10
498.5006129396940082
 20
344.4096331653133802
 30
0.0
  0
VERTEX
  5
ABC5
  8
0
 10
498.6200390786571006
 20
344.2012564937105026
 30
0.0
  0
VERTEX
  5
ABC6
  8
0
 10
498.7452443270166214
 20
343.9963270116857075
 30
0.0
  0
VERTEX
  5
ABC7
  8
0
 10
498.8760358507208821
 20
343.7951432064658093
 30
0.0
  0
VERTEX
  5
ABC8
  8
0
 10
498.9434560850268099
 20
343.6960523323367056
 30
0.0
  0
VERTEX
  5
ABC9
  8
0
 10
499.012185428572991
 20
343.5980119795721066
 30
0.0
  0
VERTEX
  5
ABCA
  8
0
 10
499.1534413701505741
 20
343.4052266343596784
 30
0.0
  0
VERTEX
  5
ABCB
  8
0
 10
499.2995305187679946
 20
343.2170637303452168
 30
0.0
  0
VERTEX
  5
ABCC
  8
0
 10
499.3742968978402246
 20
343.1247968265245163
 30
0.0
  0
SEQEND
  5
ABCD
  8
0
  0
LINE
  5
9E13
  8
0
 10
499.3742968978402246
 20
343.1247968265245163
 30
0.0
 11
501.1246746582983747
 21
340.995042817681508
 31
0.0
  0
LINE
  5
9E14
  8
0
 10
511.4385986366061161
 20
355.1890985652902941
 30
0.0
 11
513.5916643643621455
 21
353.4195616370716948
 31
0.0
  0
LINE
  5
9E55
  8
2
 10
64.649865850776095
 20
312.567159796273927
 30
0.0
 11
90.4498658507761775
 21
312.567159796273927
 31
0.0
  0
LINE
  5
9E56
  8
2
 10
64.649865850776095
 20
286.567159796273927
 30
0.0
 11
90.4498658507761775
 21
286.567159796273927
 31
0.0
  0
LINE
  5
9E5D
  8
0
 10
64.4498658507761775
 20
286.567159796273927
 30
0.0
 11
64.649865850776095
 21
286.567159796273927
 31
0.0
  0
LINE
  5
9F3F
  8
0
 10
103.9498658507761064
 20
315.067159796273927
 30
0.0
 11
103.9498658507761064
 21
284.067159796273927
 31
0.0
  0
LINE
  5
9F41
  8
2
 10
90.4498658507761775
 20
312.567159796273927
 30
0.0
 11
90.4498658507761633
 21
311.567159796273927
 31
0.0
  0
LINE
  5
9F43
  8
2
 10
90.4498658507761775
 20
311.567159796273927
 30
0.0
 11
91.4498658507761633
 21
311.567159796273927
 31
0.0
  0
LINE
  5
9F44
  8
2
 10
90.4498658507761775
 20
287.567159796273927
 30
0.0
 11
91.4498658507761633
 21
287.567159796273927
 31
0.0
  0
LINE
  5
9F45
  8
2
 10
90.4498658507761775
 20
287.567159796273927
 30
0.0
 11
90.4498658507761775
 21
286.567159796273927
 31
0.0
  0
LINE
  5
9F46
  8
2
 10
91.4498658507761633
 20
313.567159796273927
 30
0.0
 11
91.4498658507761633
 21
285.567159796273927
 31
0.0
  0
LINE
  5
9F47
  8
1
 10
51.327265290631658
 20
299.5671597962739838
 30
0.0
 11
117.0724664109206969
 21
299.5671597962738133
 31
0.0
  0
LINE
  5
9F4B
  8
2
 10
91.4498658507761633
 20
313.567159796273927
 30
0.0
 11
102.4498658507762059
 21
313.567159796273927
 31
0.0
  0
LINE
  5
9F4C
  8
2
 10
91.4498658507761633
 20
285.567159796273927
 30
0.0
 11
102.4498658507762059
 21
285.567159796273927
 31
0.0
  0
LINE
  5
9F4E
  8
2
 10
91.4498658507761633
 20
305.567159796273927
 30
0.0
 11
64.4498658507761775
 21
305.567159796273927
 31
0.0
  0
LINE
  5
9F4F
  8
2
 10
91.4498658507761633
 20
293.567159796273927
 30
0.0
 11
64.4498658507761775
 21
293.567159796273927
 31
0.0
  0
ARC
  5
A1F1
  8
0
 10
287.7871229727660989
 20
156.3169273140098028
 30
0.0
 40
9.0000000000000089
 50
0.0
 51
180.0
  0
LINE
  5
A1F2
  8
0
 10
296.7871229727660989
 20
123.9169273140097971
 30
0.0
 11
296.7871229727660989
 21
156.3169273140098028
 31
0.0
  0
LINE
  5
A1F3
  8
0
 10
278.7871229727662126
 20
156.3169273140098028
 30
0.0
 11
278.7871229727662126
 21
123.9169273140097971
 31
0.0
  0
ARC
  5
A1F4
  8
0
 10
282.3871229727661785
 20
123.9169273140097971
 30
0.0
 40
3.6000000000000081
 50
180.0
 51
240.0000000000005116
  0
ARC
  5
A1F5
  8
0
 10
293.1871229727660761
 20
123.9169273140097971
 30
0.0
 40
3.6000000000000081
 50
299.9999999999994884
 51
0.0
  0
LINE
  5
A1F7
  8
0
 10
294.9871229727662012
 20
110.3169273140098028
 30
0.0
 11
294.9871229727662012
 21
120.7992358603858065
 31
0.0
  0
LINE
  5
A1F8
  8
0
 10
280.5871229727662239
 20
120.7992358603858065
 30
0.0
 11
280.5871229727662239
 21
110.3169273140098028
 31
0.0
  0
LINE
  5
A1FE
  8
0
 10
278.7871229727662126
 20
156.3169273140098028
 30
0.0
 11
296.7871229727660989
 21
156.3169273140098028
 31
0.0
  0
LINE
  5
A1FF
  8
0
 10
278.7871229727662126
 20
123.9169273140097971
 30
0.0
 11
296.7871229727660989
 21
123.9169273140097971
 31
0.0
  0
LINE
  5
A200
  8
0
 10
280.5871229727662239
 20
120.7992358603858065
 30
0.0
 11
294.9871229727662012
 21
120.7992358603858065
 31
0.0
  0
LINE
  5
A206
  8
2
 10
303.2871229727660989
 20
108.8169273140098028
 30
0.0
 11
303.2871229727660989
 21
110.3169273140098028
 31
0.0
  0
LINE
  5
A207
  8
2
 10
272.2871229727662126
 20
110.3169273140098028
 30
0.0
 11
272.2871229727662126
 21
108.8169273140098028
 31
0.0
  0
LINE
  5
A208
  8
0
 10
348.254719633690911
 20
106.8812985555832995
 30
0.0
 11
303.2871229727660989
 21
110.3169273140098028
 31
0.0
  0
LINE
  5
A209
  8
0
 10
272.2871229727662126
 20
110.3169273140098028
 30
0.0
 11
227.3195263118427931
 21
106.8812985555832995
 31
0.0
  0
ARC
  5
A20A
  8
0
 10
227.4871229727660875
 20
104.6876916265170934
 30
0.0
 40
2.1999999999999851
 50
94.3690425770370496
 51
180.0
  0
ARC
  5
A20B
  8
0
 10
348.0871229727661103
 20
104.6876916265170934
 30
0.0
 40
2.1999999999999891
 50
0.0
 51
85.6309574229563992
  0
LINE
  5
A20C
  8
0
 10
350.2871229727662126
 20
83.1919273140098738
 30
0.0
 11
350.2871229727662126
 21
104.6876916265170934
 31
0.0
  0
LINE
  5
A20D
  8
0
 10
225.2871229727660989
 20
104.6876916265170934
 30
0.0
 11
225.2871229727660989
 21
83.1919273140097459
 31
0.0
  0
ARC
  5
A20E
  8
0
 10
226.6621229727660989
 20
83.1919273140097459
 30
0.0
 40
1.375000000000014
 50
180.0
 51
270.0
  0
ARC
  5
A20F
  8
0
 10
348.9121229727662126
 20
83.1919273140098738
 30
0.0
 40
1.375
 50
270.0
 51
0.0
  0
LINE
  5
A210
  8
0
 10
305.2871229727660989
 20
71.0169273140099051
 30
0.0
 11
305.2871229727660989
 21
81.8169273140097459
 31
0.0
  0
LINE
  5
A211
  8
0
 10
270.2871229727662126
 20
81.8169273140097459
 30
0.0
 11
270.2871229727662126
 21
71.0169273140097914
 31
0.0
  0
LINE
  5
A212
  8
0
 10
274.7871229727662126
 20
71.0169273140097914
 30
0.0
 11
274.7871229727662126
 21
70.8169273140098596
 31
0.0
  0
LINE
  5
A213
  8
2
 10
303.2871229727660989
 20
108.8169273140098028
 30
0.0
 11
272.2871229727662126
 21
108.8169273140098028
 31
0.0
  0
LINE
  5
A214
  8
0
 10
227.3195263118412868
 20
106.8812985555832995
 30
0.0
 11
348.254719633690911
 21
106.8812985555832995
 31
0.0
  0
LINE
  5
A215
  8
0
 10
226.6621229727660989
 20
81.8169273140097459
 30
0.0
 11
348.9121229727662126
 21
81.8169273140097459
 31
0.0
  0
LINE
  5
A216
  8
0
 10
270.2871229727662126
 20
71.0169273140097914
 30
0.0
 11
305.2871229727660989
 21
71.0169273140097914
 31
0.0
  0
LINE
  5
A217
  8
0
 10
274.7871229727662126
 20
70.8169273140098596
 30
0.0
 11
300.7871229727660989
 21
70.8169273140098596
 31
0.0
  0
LINE
  5
A218
  8
2
 10
274.7871229727662126
 20
71.0169273140097914
 30
0.0
 11
274.7871229727662126
 21
96.8169273140098454
 31
0.0
  0
LINE
  5
A219
  8
2
 10
300.7871229727660989
 20
71.0169273140097914
 30
0.0
 11
300.7871229727660989
 21
96.8169273140098454
 31
0.0
  0
LINE
  5
A21A
  8
0
 10
300.7871229727660989
 20
70.8169273140098596
 30
0.0
 11
300.7871229727660989
 21
71.0169273140097914
 31
0.0
  0
LINE
  5
A21B
  8
0
 10
272.2871229727662126
 20
110.3169273140098028
 30
0.0
 11
303.2871229727660989
 21
110.3169273140098028
 31
0.0
  0
LINE
  5
A21C
  8
2
 10
274.7871229727662126
 20
96.8169273140098454
 30
0.0
 11
275.7871229727660989
 21
96.8169273140098454
 31
0.0
  0
LINE
  5
A21D
  8
2
 10
273.7871229727662126
 20
97.8169273140098454
 30
0.0
 11
301.7871229727662126
 21
97.8169273140098454
 31
0.0
  0
LINE
  5
A21E
  8
2
 10
299.7871229727662126
 20
96.8169273140098454
 30
0.0
 11
300.7871229727660989
 21
96.8169273140098454
 31
0.0
  0
LINE
  5
A21F
  8
2
 10
275.7871229727660989
 20
96.8169273140098454
 30
0.0
 11
275.7871229727660989
 21
97.8169273140098454
 31
0.0
  0
LINE
  5
A220
  8
2
 10
299.7871229727662126
 20
96.8169273140098454
 30
0.0
 11
299.7871229727662126
 21
97.8169273140098454
 31
0.0
  0
LINE
  5
A221
  8
1
 10
287.7871229727660989
 20
57.6943267538653402
 30
0.0
 11
287.7871229727660989
 21
178.4395278741542938
 31
0.0
  0
LINE
  5
A222
  8
2
 10
273.7871229727662126
 20
97.8169273140098454
 30
0.0
 11
273.7871229727662126
 21
108.8169273140098028
 31
0.0
  0
LINE
  5
A223
  8
2
 10
301.7871229727662126
 20
97.8169273140098454
 30
0.0
 11
301.7871229727662126
 21
108.8169273140098028
 31
0.0
  0
LINE
  5
A224
  8
2
 10
281.7871229727662126
 20
97.8169273140098454
 30
0.0
 11
281.7871229727662126
 21
70.8169273140098596
 31
0.0
  0
LINE
  5
A225
  8
2
 10
293.7871229727662126
 20
97.8169273140098454
 30
0.0
 11
293.7871229727662126
 21
70.8169273140098596
 31
0.0
  0
LINE
  5
A4A9
  8
2
 10
691.3334927888464563
 20
284.067159796273927
 30
0.0
 11
689.8334927888464563
 21
284.067159796273927
 31
0.0
  0
LINE
  5
A4AA
  8
2
 10
689.8334927888464563
 20
315.067159796273927
 30
0.0
 11
691.3334927888464563
 21
315.067159796273927
 31
0.0
  0
LINE
  5
A4AB
  8
0
 10
693.2691215472731301
 20
239.0995631353492001
 30
0.0
 11
689.8334927888464563
 21
284.067159796273927
 31
0.0
  0
LINE
  5
A4AC
  8
0
 10
689.8334927888464563
 20
315.067159796273927
 30
0.0
 11
693.2691215472731301
 21
360.034756457197318
 31
0.0
  0
ARC
  5
A4AD
  8
0
 10
695.4627284763391799
 20
359.8671597962739952
 30
0.0
 40
2.1999999999999851
 50
90.0
 51
175.6309574229630073
  0
ARC
  5
A4AE
  8
0
 10
695.4627284763391799
 20
239.2671597962740009
 30
0.0
 40
2.1999999999999891
 50
184.3690425770433876
 51
270.0
  0
LINE
  5
A4AF
  8
0
 10
716.95849278884657
 20
237.0671597962738986
 30
0.0
 11
695.4627284763391799
 21
237.0671597962738986
 31
0.0
  0
LINE
  5
A4B0
  8
0
 10
695.4627284763391799
 20
362.0671597962739838
 30
0.0
 11
716.95849278884657
 21
362.0671597962739838
 31
0.0
  0
ARC
  5
A4B1
  8
0
 10
716.95849278884657
 20
360.6921597962739838
 30
0.0
 40
1.375000000000014
 50
0.000000000000007
 51
90.0
  0
ARC
  5
A4B2
  8
0
 10
716.95849278884657
 20
238.4421597962738986
 30
0.0
 40
1.375
 50
270.0
 51
0.000000000000007
  0
LINE
  5
A4B3
  8
0
 10
729.1334927888465245
 20
282.067159796273927
 30
0.0
 11
718.33349278884657
 21
282.067159796273927
 31
0.0
  0
LINE
  5
A4B4
  8
0
 10
718.33349278884657
 20
317.067159796273927
 30
0.0
 11
729.1334927888466382
 21
317.067159796273927
 31
0.0
  0
LINE
  5
A4B5
  8
0
 10
729.1334927888466382
 20
312.567159796273927
 30
0.0
 11
729.33349278884657
 21
312.567159796273927
 31
0.0
  0
LINE
  5
A4B6
  8
2
 10
691.3334927888464563
 20
284.067159796273927
 30
0.0
 11
691.3334927888464563
 21
315.067159796273927
 31
0.0
  0
LINE
  5
A4B7
  8
0
 10
693.2691215472731301
 20
360.0347564571987959
 30
0.0
 11
693.2691215472731301
 21
239.0995631353492001
 31
0.0
  0
LINE
  5
A4B8
  8
0
 10
718.33349278884657
 20
360.6921597962739838
 30
0.0
 11
718.33349278884657
 21
238.4421597962738986
 31
0.0
  0
LINE
  5
A4B9
  8
0
 10
729.1334927888466382
 20
317.067159796273927
 30
0.0
 11
729.1334927888466382
 21
282.067159796273927
 31
0.0
  0
LINE
  5
A4BA
  8
0
 10
729.33349278884657
 20
312.567159796273927
 30
0.0
 11
729.33349278884657
 21
286.567159796273927
 31
0.0
  0
LINE
  5
A4BB
  8
2
 10
729.1334927888466382
 20
312.567159796273927
 30
0.0
 11
703.3334927888464563
 21
312.567159796273927
 31
0.0
  0
LINE
  5
A4BC
  8
2
 10
729.1334927888466382
 20
286.567159796273927
 30
0.0
 11
703.3334927888464563
 21
286.567159796273927
 31
0.0
  0
LINE
  5
A4BD
  8
0
 10
729.33349278884657
 20
286.567159796273927
 30
0.0
 11
729.1334927888466382
 21
286.567159796273927
 31
0.0
  0
LINE
  5
A4BE
  8
0
 10
689.8334927888464563
 20
315.067159796273927
 30
0.0
 11
689.8334927888464563
 21
284.067159796273927
 31
0.0
  0
LINE
  5
A4BF
  8
2
 10
703.3334927888464563
 20
312.567159796273927
 30
0.0
 11
703.3334927888464563
 21
311.567159796273927
 31
0.0
  0
LINE
  5
A4C0
  8
2
 10
702.3334927888464563
 20
313.567159796273927
 30
0.0
 11
702.3334927888464563
 21
285.567159796273927
 31
0.0
  0
LINE
  5
A4C1
  8
2
 10
703.3334927888464563
 20
287.567159796273927
 30
0.0
 11
703.3334927888464563
 21
286.567159796273927
 31
0.0
  0
LINE
  5
A4C2
  8
2
 10
703.3334927888464563
 20
311.567159796273927
 30
0.0
 11
702.3334927888464563
 21
311.567159796273927
 31
0.0
  0
LINE
  5
A4C3
  8
2
 10
703.3334927888464563
 20
287.567159796273927
 30
0.0
 11
702.3334927888464563
 21
287.567159796273927
 31
0.0
  0
LINE
  5
A4C4
  8
1
 10
742.4560933489909758
 20
299.5671597962739838
 30
0.0
 11
676.7108922287020505
 21
299.5671597962738133
 31
0.0
  0
LINE
  5
A4C5
  8
2
 10
702.3334927888464563
 20
313.567159796273927
 30
0.0
 11
691.3334927888464563
 21
313.567159796273927
 31
0.0
  0
LINE
  5
A4C6
  8
2
 10
702.3334927888464563
 20
285.567159796273927
 30
0.0
 11
691.3334927888464563
 21
285.567159796273927
 31
0.0
  0
LINE
  5
A4C7
  8
2
 10
702.3334927888464563
 20
305.567159796273927
 30
0.0
 11
729.33349278884657
 21
305.567159796273927
 31
0.0
  0
LINE
  5
A4C8
  8
2
 10
702.3334927888464563
 20
293.567159796273927
 30
0.0
 11
729.33349278884657
 21
293.567159796273927
 31
0.0
  0
LINE
  5
A4DE
  8
2
 10
490.4962356668565917
 20
108.8169273140098028
 30
0.0
 11
490.4962356668565917
 21
110.3169273140098028
 31
0.0
  0
LINE
  5
A4DF
  8
2
 10
521.496235666856478
 20
110.3169273140098028
 30
0.0
 11
521.496235666856478
 21
108.8169273140098028
 31
0.0
  0
LINE
  5
A4E0
  8
0
 10
445.5286390059317796
 20
106.8812985555832995
 30
0.0
 11
490.4962356668565917
 21
110.3169273140098028
 31
0.0
  0
LINE
  5
A4E1
  8
0
 10
521.496235666856478
 20
110.3169273140098028
 30
0.0
 11
566.4638323277799827
 21
106.8812985555832995
 31
0.0
  0
ARC
  5
A4E2
  8
0
 10
566.2962356668565462
 20
104.6876916265170934
 30
0.0
 40
2.1999999999999851
 50
0.000000000000007
 51
85.6309574229628936
  0
ARC
  5
A4E3
  8
0
 10
445.6962356668565803
 20
104.6876916265170934
 30
0.0
 40
2.1999999999999891
 50
94.369042577043615
 51
180.0
  0
LINE
  5
A4E4
  8
0
 10
443.4962356668565917
 20
83.1919273140098738
 30
0.0
 11
443.4962356668565917
 21
104.6876916265170934
 31
0.0
  0
LINE
  5
A4E5
  8
0
 10
568.4962356668565917
 20
104.6876916265170934
 30
0.0
 11
568.4962356668565917
 21
83.1919273140097459
 31
0.0
  0
ARC
  5
A4E6
  8
0
 10
567.1212356668565917
 20
83.1919273140097459
 30
0.0
 40
1.375000000000014
 50
270.0
 51
0.000000000000007
  0
ARC
  5
A4E7
  8
0
 10
444.8712356668565917
 20
83.1919273140098738
 30
0.0
 40
1.375
 50
180.0
 51
270.0
  0
LINE
  5
A4E8
  8
0
 10
488.496235666856478
 20
71.0169273140099051
 30
0.0
 11
488.496235666856478
 21
81.8169273140097459
 31
0.0
  0
LINE
  5
A4E9
  8
0
 10
523.4962356668565917
 20
81.8169273140097459
 30
0.0
 11
523.4962356668565917
 21
71.0169273140097914
 31
0.0
  0
LINE
  5
A4EA
  8
0
 10
518.9962356668565917
 20
71.0169273140097914
 30
0.0
 11
518.9962356668565917
 21
70.8169273140098596
 31
0.0
  0
LINE
  5
A4EB
  8
2
 10
490.4962356668565917
 20
108.8169273140098028
 30
0.0
 11
521.496235666856478
 21
108.8169273140098028
 31
0.0
  0
LINE
  5
A4EC
  8
0
 10
566.463832327781347
 20
106.8812985555832995
 30
0.0
 11
445.5286390059317796
 21
106.8812985555832995
 31
0.0
  0
LINE
  5
A4ED
  8
0
 10
567.1212356668565917
 20
81.8169273140097459
 30
0.0
 11
444.8712356668565917
 21
81.8169273140097459
 31
0.0
  0
LINE
  5
A4EE
  8
0
 10
523.4962356668565917
 20
71.0169273140097914
 30
0.0
 11
488.496235666856478
 21
71.0169273140097914
 31
0.0
  0
LINE
  5
A4EF
  8
0
 10
518.9962356668565917
 20
70.8169273140098596
 30
0.0
 11
492.9962356668565917
 21
70.8169273140098596
 31
0.0
  0
LINE
  5
A4F0
  8
2
 10
518.9962356668565917
 20
71.0169273140097914
 30
0.0
 11
518.9962356668565917
 21
96.8169273140098454
 31
0.0
  0
LINE
  5
A4F1
  8
2
 10
492.9962356668565917
 20
71.0169273140097914
 30
0.0
 11
492.9962356668565917
 21
96.8169273140098454
 31
0.0
  0
LINE
  5
A4F2
  8
0
 10
492.9962356668565917
 20
70.8169273140098596
 30
0.0
 11
492.9962356668565917
 21
71.0169273140097914
 31
0.0
  0
LINE
  5
A4F3
  8
0
 10
521.496235666856478
 20
110.3169273140098028
 30
0.0
 11
490.4962356668565917
 21
110.3169273140098028
 31
0.0
  0
LINE
  5
A4F4
  8
2
 10
518.9962356668565917
 20
96.8169273140098454
 30
0.0
 11
517.9962356668565917
 21
96.8169273140098454
 31
0.0
  0
LINE
  5
A4F5
  8
2
 10
519.996235666856478
 20
97.8169273140098454
 30
0.0
 11
491.996235666856478
 21
97.8169273140098454
 31
0.0
  0
LINE
  5
A4F6
  8
2
 10
493.9962356668565917
 20
96.8169273140098454
 30
0.0
 11
492.9962356668565917
 21
96.8169273140098454
 31
0.0
  0
LINE
  5
A4F7
  8
2
 10
517.9962356668565917
 20
96.8169273140098454
 30
0.0
 11
517.9962356668565917
 21
97.8169273140098454
 31
0.0
  0
LINE
  5
A4F8
  8
2
 10
493.9962356668565917
 20
96.8169273140098454
 30
0.0
 11
493.9962356668565917
 21
97.8169273140098454
 31
0.0
  0
LINE
  5
A4F9
  8
1
 10
505.9962356668565917
 20
57.6943267538653402
 30
0.0
 11
505.9962356668565917
 21
123.4395278741542938
 31
0.0
  0
LINE
  5
A4FA
  8
2
 10
519.996235666856478
 20
97.8169273140098454
 30
0.0
 11
519.996235666856478
 21
108.8169273140098028
 31
0.0
  0
LINE
  5
A4FB
  8
2
 10
491.996235666856478
 20
97.8169273140098454
 30
0.0
 11
491.996235666856478
 21
108.8169273140098028
 31
0.0
  0
LINE
  5
A4FC
  8
2
 10
511.996235666856478
 20
97.8169273140098454
 30
0.0
 11
511.996235666856478
 21
70.8169273140098596
 31
0.0
  0
LINE
  5
A4FD
  8
2
 10
499.996235666856478
 20
97.8169273140098454
 30
0.0
 11
499.996235666856478
 21
70.8169273140098596
 31
0.0
  0
TEXT
  5
A76A
  8
0
 62
     3
 10
0.0
 20
0.0
 30
0.0
 40
10.0
  1
EDHN125F-M
  7
STANDARD1
  0
LINE
  5
A7FC
  8
1
 10
724.3334927888466837
 20
319.567159796273927
 30
0.0
 11
724.3334927888466837
 21
303.067159796273927
 31
0.0
  0
LINE
  5
A800
  8
2
 10
721.83349278884657
 20
305.567159796273927
 30
0.0
 11
721.83349278884657
 21
312.567159796273927
 31
0.0
  0
LINE
  5
A801
  8
2
 10
722.266492788846449
 20
305.567159796273927
 30
0.0
 11
722.266492788846449
 21
312.567159796273927
 31
0.0
  0
LINE
  5
A802
  8
2
 10
726.4004927888469183
 20
305.567159796273927
 30
0.0
 11
726.4004927888469183
 21
312.567159796273927
 31
0.0
  0
LINE
  5
A803
  8
2
 10
726.83349278884657
 20
305.567159796273927
 30
0.0
 11
726.8334927888464563
 21
312.567159796273927
 31
0.0
  0
LINE
  5
A804
  8
2
 10
721.3334927888466837
 20
316.067159796273927
 30
0.0
 11
721.3334927888466837
 21
312.567159796273927
 31
0.0
  0
LINE
  5
A805
  8
2
 10
727.33349278884657
 20
316.067159796273927
 30
0.0
 11
727.33349278884657
 21
312.567159796273927
 31
0.0
  0
LINE
  5
A808
  8
2
 10
721.3334927888466837
 20
316.067159796273927
 30
0.0
 11
720.3334927888466837
 21
317.067159796273927
 31
0.0
  0
LINE
  5
A809
  8
2
 10
727.33349278884657
 20
316.067159796273927
 30
0.0
 11
728.3334927888466837
 21
317.067159796273927
 31
0.0
  0
LINE
  5
A80A
  8
2
 10
721.3334927888466837
 20
316.067159796273927
 30
0.0
 11
727.33349278884657
 21
316.067159796273927
 31
0.0
  0
CIRCLE
  5
A81D
  8
2
 10
287.7871229727660989
 20
299.5671597962739838
 30
0.0
 40
13.0
  0
CIRCLE
  5
A81E
  8
2
 10
287.7871229727660989
 20
299.5671597962739838
 30
0.0
 40
6.0
  0
CIRCLE
  5
A81F
  8
2
 10
287.7871229727660989
 20
299.5671597962739838
 30
0.0
 40
17.5
  0
LINE
  5
A820
  8
2
 10
285.2871229727662126
 20
305.0215158535917794
 30
0.0
 11
285.2871229727662126
 21
312.3245106184469932
 31
0.0
  0
LINE
  5
A821
  8
2
 10
285.7201229727659779
 20
305.1998777015127757
 30
0.0
 11
285.7201229727659211
 21
312.4017813723079939
 31
0.0
  0
LINE
  5
A822
  8
2
 10
289.8541229727663904
 20
305.1998777015127757
 30
0.0
 11
289.8541229727663904
 21
312.4017813723079939
 31
0.0
  0
LINE
  5
A823
  8
2
 10
290.2871229727662126
 20
305.0215158535917794
 30
0.0
 11
290.2871229727660989
 21
312.3245106184469932
 31
0.0
  0
LINE
  5
A824
  8
2
 10
284.7871229727662126
 20
315.7342453403040281
 30
0.0
 11
284.7871229727662126
 21
312.216270436947525
 31
0.0
  0
LINE
  5
A825
  8
2
 10
290.7871229727660989
 20
315.7342453403040281
 30
0.0
 11
290.7871229727660989
 21
312.216270436947525
 31
0.0
  0
LINE
  5
A828
  8
2
 10
284.7871229727662126
 20
315.7342453403040281
 30
0.0
 11
283.8787986105936056
 21
316.6425697024766919
 31
0.0
  0
LINE
  5
A829
  8
2
 10
290.7871229727662126
 20
315.7342453403040281
 30
0.0
 11
291.6812690952093021
 21
316.628391462747004
 31
0.0
  0
LINE
  5
A82A
  8
2
 10
284.7871229727662126
 20
315.7342453403040281
 30
0.0
 11
290.7871229727662126
 21
315.7342453403040281
 31
0.0
  0
CIRCLE
  5
A82C
  8
2
 10
505.9962356668565917
 20
299.5671597962739838
 30
0.0
 40
13.0
  0
CIRCLE
  5
A82D
  8
2
 10
505.9962356668565917
 20
299.5671597962739838
 30
0.0
 40
6.0
  0
CIRCLE
  5
A82E
  8
2
 10
505.9962356668565917
 20
299.5671597962739838
 30
0.0
 40
17.5
  0
LINE
  5
A82F
  8
2
 10
503.4962356668565917
 20
305.0215158535917794
 30
0.0
 11
503.496235666856478
 21
312.3245106184469932
 31
0.0
  0
LINE
  5
A830
  8
2
 10
503.9292356668563002
 20
305.1998777015127757
 30
0.0
 11
503.9292356668564139
 21
312.4017813723079939
 31
0.0
  0
LINE
  5
A831
  8
2
 10
508.0632356668568264
 20
305.1998777015127757
 30
0.0
 11
508.0632356668568264
 21
312.4017813723079939
 31
0.0
  0
LINE
  5
A832
  8
2
 10
508.496235666856478
 20
305.0215158535917794
 30
0.0
 11
508.496235666856478
 21
312.3245106184469932
 31
0.0
  0
LINE
  5
A833
  8
2
 10
502.9962356668565917
 20
315.7342453403040281
 30
0.0
 11
502.9962356668565917
 21
312.216270436947525
 31
0.0
  0
LINE
  5
A834
  8
2
 10
508.996235666856478
 20
315.7342453403040281
 30
0.0
 11
508.996235666856478
 21
312.216270436947525
 31
0.0
  0
LINE
  5
A837
  8
2
 10
502.9962356668565917
 20
315.7342453403040281
 30
0.0
 11
502.0879113046839848
 21
316.6425697024766919
 31
0.0
  0
LINE
  5
A838
  8
2
 10
508.9962356668565917
 20
315.7342453403040281
 30
0.0
 11
509.8903817892995107
 21
316.628391462747004
 31
0.0
  0
LINE
  5
A839
  8
2
 10
502.9962356668565917
 20
315.7342453403040281
 30
0.0
 11
508.9962356668565917
 21
315.7342453403040281
 31
0.0
  0
LINE
  5
A849
  8
1
 10
69.4498658507760638
 20
319.567159796273927
 30
0.0
 11
69.4498658507760638
 21
303.067159796273927
 31
0.0
  0
LINE
  5
A84A
  8
2
 10
71.9498658507760638
 20
305.567159796273927
 30
0.0
 11
71.9498658507760638
 21
312.567159796273927
 31
0.0
  0
LINE
  5
A84B
  8
2
 10
71.5168658507762984
 20
305.567159796273927
 30
0.0
 11
71.5168658507762984
 21
312.567159796273927
 31
0.0
  0
LINE
  5
A84C
  8
2
 10
67.3828658507758291
 20
305.567159796273927
 30
0.0
 11
67.3828658507758433
 21
312.567159796273927
 31
0.0
  0
LINE
  5
A84D
  8
2
 10
66.9498658507760638
 20
305.567159796273927
 30
0.0
 11
66.9498658507760638
 21
312.567159796273927
 31
0.0
  0
LINE
  5
A84E
  8
2
 10
72.4498658507760638
 20
316.067159796273927
 30
0.0
 11
72.4498658507760638
 21
312.567159796273927
 31
0.0
  0
LINE
  5
A84F
  8
2
 10
66.4498658507760638
 20
316.067159796273927
 30
0.0
 11
66.4498658507760638
 21
312.567159796273927
 31
0.0
  0
LINE
  5
A852
  8
2
 10
72.4498658507760638
 20
316.067159796273927
 30
0.0
 11
73.4498658507760638
 21
317.067159796273927
 31
0.0
  0
LINE
  5
A853
  8
2
 10
66.4498658507760638
 20
316.067159796273927
 30
0.0
 11
65.4498658507760638
 21
317.067159796273927
 31
0.0
  0
LINE
  5
A854
  8
2
 10
72.4498658507760638
 20
316.067159796273927
 30
0.0
 11
66.4498658507760638
 21
316.067159796273927
 31
0.0
  0
ENDSEC
  0
EOF
