  0
SECTION
  2
HEADER
  9
$ACADVER
  1
AC1009
  9
$INSBASE
 10
0.0
 20
0.0
 30
0.0
  9
$EXTMIN
 10
0.0
 20
-2.960436562073669
 30
-0.0000000000000089
  9
$EXTMAX
 10
742.45609334899098
 20
375.18976035641839
 30
0.0
  9
$LIMMIN
 10
0.0
 20
0.0
  9
$LIMMAX
 10
750.0
 20
540.0
  9
$ORTHOMODE
 70
     1
  9
$REGENMODE
 70
     1
  9
$FILLMODE
 70
     1
  9
$QTEXTMODE
 70
     0
  9
$MIRRTEXT
 70
     0
  9
$DRAGMODE
 70
     2
  9
$LTSCALE
 40
20.0
  9
$OSMODE
 70
  3071
  9
$ATTMODE
 70
     1
  9
$TEXTSIZE
 40
0.2
  9
$TRACEWID
 40
0.05
  9
$TEXTSTYLE
  7
STANDARD
  9
$CLAYER
  8
0
  9
$CELTYPE
  6
BYLAYER
  9
$CECOLOR
 62
     6
  9
$DIMSCALE
 40
1.0
  9
$DIMASZ
 40
3.0
  9
$DIMEXO
 40
2.0
  9
$DIMDLI
 40
0.3799999999999999
  9
$DIMRND
 40
0.0
  9
$DIMDLE
 40
0.0
  9
$DIMEXE
 40
2.0
  9
$DIMTP
 40
0.0
  9
$DIMTM
 40
0.0
  9
$DIMTXT
 40
3.0
  9
$DIMCEN
 40
0.09
  9
$DIMTSZ
 40
0.0
  9
$DIMTOL
 70
     0
  9
$DIMLIM
 70
     0
  9
$DIMTIH
 70
     0
  9
$DIMTOH
 70
     0
  9
$DIMSE1
 70
     0
  9
$DIMSE2
 70
     0
  9
$DIMTAD
 70
     1
  9
$DIMZIN
 70
     8
  9
$DIMBLK
  1

  9
$DIMASO
 70
     1
  9
$DIMSHO
 70
     0
  9
$DIMPOST
  1

  9
$DIMAPOST
  1

  9
$DIMALT
 70
     0
  9
$DIMALTD
 70
     2
  9
$DIMALTF
 40
25.399999999999999
  9
$DIMLFAC
 40
1.0
  9
$DIMTOFL
 70
     0
  9
$DIMTVP
 40
1.6000000000000001
  9
$DIMTIX
 70
     1
  9
$DIMSOXD
 70
     0
  9
$DIMSAH
 70
     0
  9
$DIMBLK1
  1

  9
$DIMBLK2
  1

  9
$DIMSTYLE
  2
STANDARD
  9
$DIMCLRD
 70
     0
  9
$DIMCLRE
 70
     0
  9
$DIMCLRT
 70
     0
  9
$DIMTFAC
 40
1.0
  9
$DIMGAP
 40
1.5
  9
$LUNITS
 70
     2
  9
$LUPREC
 70
     4
  9
$SKETCHINC
 40
0.1
  9
$FILLETRAD
 40
0.2
  9
$AUNITS
 70
     0
  9
$AUPREC
 70
     0
  9
$MENU
  1
E:\r13\win\SUPPORT\ACAD
  9
$ELEVATION
 40
0.0
  9
$PELEVATION
 40
0.0
  9
$THICKNESS
 40
0.0
  9
$LIMCHECK
 70
     0
  9
$BLIPMODE
 70
     0
  9
$CHAMFERA
 40
0.0
  9
$CHAMFERB
 40
0.0
  9
$SKPOLY
 70
     0
  9
$TDCREATE
 40
2449839.7807291672
  9
$TDUPDATE
 40
2456598.6439473028
  9
$TDINDWG
 40
0.5851288773
  9
$TDUSRTIMER
 40
0.5851288773
  9
$USRTIMER
 70
     1
  9
$ANGBASE
 50
0.0
  9
$ANGDIR
 70
     0
  9
$PDMODE
 70
     0
  9
$PDSIZE
 40
0.0
  9
$PLINEWID
 40
0.0
  9
$COORDS
 70
     1
  9
$SPLFRAME
 70
     0
  9
$SPLINETYPE
 70
     6
  9
$SPLINESEGS
 70
     8
  9
$ATTDIA
 70
     0
  9
$ATTREQ
 70
     1
  9
$HANDLING
 70
     1
  9
$HANDSEED
  5
A9D4
  9
$SURFTAB1
 70
     6
  9
$SURFTAB2
 70
     6
  9
$SURFTYPE
 70
     6
  9
$SURFU
 70
     6
  9
$SURFV
 70
     6
  9
$UCSNAME
  2

  9
$UCSORG
 10
0.0
 20
0.0
 30
0.0
  9
$UCSXDIR
 10
1.0
 20
0.0
 30
0.0
  9
$UCSYDIR
 10
0.0
 20
1.0
 30
0.0
  9
$PUCSNAME
  2

  9
$PUCSORG
 10
0.0
 20
0.0
 30
0.0
  9
$PUCSXDIR
 10
1.0
 20
0.0
 30
0.0
  9
$PUCSYDIR
 10
0.0
 20
1.0
 30
0.0
  9
$USERI1
 70
     0
  9
$USERI2
 70
     1
  9
$USERI3
 70
     1
  9
$USERI4
 70
     0
  9
$USERI5
 70
     0
  9
$USERR1
 40
0.0
  9
$USERR2
 40
0.0
  9
$USERR3
 40
0.0
  9
$USERR4
 40
0.0
  9
$USERR5
 40
0.0
  9
$WORLDVIEW
 70
     1
  9
$SHADEDGE
 70
     3
  9
$SHADEDIF
 70
    70
  9
$TILEMODE
 70
     1
  9
$MAXACTVP
 70
    16
  9
$PLIMCHECK
 70
     0
  9
$PEXTMIN
 10
1.0000000000000000E+020
 20
1.0000000000000000E+020
 30
1.0000000000000000E+020
  9
$PEXTMAX
 10
-1.0000000000000000E+020
 20
-1.0000000000000000E+020
 30
-1.0000000000000000E+020
  9
$PLIMMIN
 10
0.0
 20
0.0
  9
$PLIMMAX
 10
12.0
 20
9.0
  9
$UNITMODE
 70
     0
  9
$VISRETAIN
 70
     0
  9
$PLINEGEN
 70
     0
  9
$PSLTSCALE
 70
     0
  0
ENDSEC
  0
SECTION
  2
TABLES
  0
TABLE
  2
VPORT
 70
     1
  0
VPORT
  2
*ACTIVE
 70
     0
 10
0.0
 20
0.0
 11
1.0
 21
1.0
 12
390.03402345615979
 22
268.50860658393782
 13
0.0
 23
0.0
 14
20.0
 24
20.0
 15
20.0
 25
20.0
 16
0.0
 26
0.0
 36
1.0
 17
0.0
 27
0.0
 37
0.0
 40
547.85258761088789
 41
1.831871345029239
 42
50.0
 43
0.0
 44
0.0
 50
0.0
 51
0.0
 71
     0
 72
   500
 73
     1
 74
     0
 75
     0
 76
     0
 77
     0
 78
     0
  0
ENDTAB
  0
TABLE
  2
LTYPE
 70
     5
  0
LTYPE
  2
CONTINUOUS
 70
     0
  3
Solid Line
 72
    65
 73
     0
 40
0.0
  0
LTYPE
  2
CENTER
 70
     0
  3
____ _ ____ _ ____ _ ____ _ ____ _ ____ _ ____
 72
    65
 73
     4
 40
2.0
 49
1.25
 49
-0.25
 49
0.25
 49
-0.25
  0
LTYPE
  2
HIDDEN
 70
     0
  3
Hidden __ __ __ __ __ __ __ __ __ __ __ __ __ _
 72
    65
 73
     2
 40
0.375
 49
0.25
 49
-0.125
  0
LTYPE
  2
CNS_DASHED
 70
     0
  3

 72
    65
 73
     2
 40
2.0
 49
1.0
 49
-1.0
  0
LTYPE
  2
PHANTOM2
 70
     0
  3
___ _ _ ___ _ _ ___ _ _ ___ _ _
 72
    65
 73
     6
 40
1.25
 49
0.625
 49
-0.125
 49
0.125
 49
-0.125
 49
0.125
 49
-0.125
  0
ENDTAB
  0
TABLE
  2
LAYER
 70
     5
  0
LAYER
  2
0
 70
     0
 62
     7
  6
CONTINUOUS
  0
LAYER
  2
1
 70
     0
 62
     1
  6
CENTER
  0
LAYER
  2
2
 70
     0
 62
     2
  6
HIDDEN
  0
LAYER
  2
DEFPOINTS
 70
     0
 62
     7
  6
CONTINUOUS
  0
LAYER
  2
HIDDEN
 70
     0
 62
     7
  6
CNS_DASHED
  0
ENDTAB
  0
TABLE
  2
STYLE
 70
     2
  0
STYLE
  2
STANDARD
 70
     0
 40
0.0
 41
1.0
 50
0.0
 71
     0
 42
0.2
  3
TXT
  4
BIGFONT
  0
STYLE
  2
STANDARD1
 70
     0
 40
0.0
 41
1.0
 50
0.0
 71
     0
 42
3.0
  3
txt
  4

  0
ENDTAB
  0
TABLE
  2
VIEW
 70
     1
  0
VIEW
  2
ALL
 70
     0
 40
540.0
 10
441.98319327731087
 20
270.0
 41
0.0
 11
0.0
 21
0.0
 31
1.0
 12
0.0
 22
0.0
 32
0.0
 42
0.0
 43
0.0
 44
0.0
 50
0.0
 71
     0
  0
ENDTAB
  0
TABLE
  2
UCS
 70
     0
  0
ENDTAB
  0
TABLE
  2
APPID
 70
    11
  0
APPID
  2
ACAD
 70
     0
  0
APPID
  2
ACAD_EXEMPT_FROM_CAD_STANDARDS
 70
     0
  0
APPID
  2
ACAD_DSTYLE_DIMJAG
 70
     0
  0
APPID
  2
ACAD_DSTYLE_DIMTALN
 70
     0
  0
APPID
  2
ACAD_MLEADERVER
 70
     0
  0
APPID
  2
GENIUS_GENODEF_13
 70
     0
  0
APPID
  2
GENIUS_GENOBJ-N-FIL_13
 70
     0
  0
APPID
  2
GENIUS_GENOREF_13
 70
     0
  0
APPID
  2
ACAD_PSEXT
 70
     0
  0
APPID
  2
ACAD_DSTYLE_DIMRADIAL_EXTENSION
 70
     0
  0
APPID
  2
ACAD_NAV_VCDISPLAY
 70
     0
  0
ENDTAB
  0
TABLE
  2
DIMSTYLE
 70
     1
  0
DIMSTYLE
  2
STANDARD
 70
     0
  3

  4

  5

  6

  7

 40
1.0
 41
0.18
 42
0.0625
 43
0.38
 44
0.18
 45
0.0
 46
0.0
 47
0.0
 48
0.0
140
0.18
141
0.09
142
0.0
143
25.399999999999999
144
1.0
145
0.0
146
1.0
147
0.09
 71
     0
 72
     0
 73
     1
 74
     1
 75
     0
 76
     0
 77
     0
 78
     0
170
     0
171
     2
172
     0
173
     0
174
     0
175
     0
176
     0
177
     0
178
     0
  0
ENDTAB
  0
ENDSEC
  0
SECTION
  2
BLOCKS
  0
BLOCK
  8
0
  2
$MODEL_SPACE
 70
     0
 10
0.0
 20
0.0
 30
0.0
  3
$MODEL_SPACE
  1

  0
ENDBLK
  5
13C
  8
0
  0
BLOCK
 67
     1
  8
0
  2
$PAPER_SPACE
 70
     0
 10
0.0
 20
0.0
 30
0.0
  3
$PAPER_SPACE
  1

  0
ENDBLK
  5
13A
 67
     1
  8
0
  0
ENDSEC
  0
SECTION
  2
ENTITIES
  0
ARC
  5
9A6C
  8
0
 10
149.94986585077621
 20
348.56715979627393
 30
0.0
 40
9.0000000000000089
 50
270.0
 51
90.0
  0
LINE
  5
9A6D
  8
0
 10
117.5498658507762
 20
339.56715979627393
 30
0.0
 11
149.94986585077621
 21
339.56715979627393
 31
0.0
  0
LINE
  5
9A6E
  8
0
 10
149.94986585077621
 20
357.56715979627393
 30
0.0
 11
117.5498658507762
 21
357.56715979627393
 31
0.0
  0
ARC
  5
9A6F
  8
0
 10
117.5498658507762
 20
353.9671597962739
 30
0.0
 40
3.6000000000000081
 50
90.0
 51
149.9999999999998
  0
ARC
  5
9A70
  8
0
 10
117.5498658507762
 20
343.16715979627389
 30
0.0
 40
3.6000000000000081
 50
210.0000000000002
 51
270.0
  0
LINE
  5
9A72
  8
0
 10
101.94048480628869
 20
341.36715979627388
 30
0.0
 11
114.4321743971521
 21
341.36715979627388
 31
0.0
  0
LINE
  5
9A73
  8
0
 10
114.4321743971521
 20
355.76715979627392
 30
0.0
 11
100.84029138269101
 21
355.76715979627397
 31
0.0
  0
LINE
  5
9A7D
  8
0
 10
149.94986585077621
 20
357.56715979627393
 30
0.0
 11
149.94986585077621
 21
339.56715979627393
 31
0.0
  0
LINE
  5
9A7E
  8
0
 10
117.5498658507762
 20
357.56715979627393
 30
0.0
 11
117.5498658507762
 21
339.56715979627393
 31
0.0
  0
LINE
  5
9A7F
  8
0
 10
114.4321743971521
 20
355.76715979627392
 30
0.0
 11
114.4321743971521
 21
341.36715979627388
 31
0.0
  0
LINE
  5
9A8F
  8
1
 10
85.334991119434562
 20
348.56715979627393
 30
0.0
 11
172.0724664109207
 21
348.56715979627393
 31
0.0
  0
LINE
  5
9ABD
  8
2
 10
102.44986585077621
 20
284.06715979627393
 30
0.0
 11
103.94986585077611
 21
284.06715979627393
 31
0.0
  0
LINE
  5
9ABE
  8
2
 10
103.94986585077611
 20
315.06715979627393
 30
0.0
 11
102.44986585077621
 21
315.06715979627393
 31
0.0
  0
LINE
  5
9ABF
  8
0
 10
100.5142370923496
 20
239.0995631353492
 30
0.0
 11
103.94986585077611
 21
284.06715979627393
 31
0.0
  0
LINE
  5
9AC0
  8
0
 10
103.94986585077611
 20
315.06715979627393
 30
0.0
 11
100.5142370923496
 21
360.03475645719732
 31
0.0
  0
ARC
  5
9AC3
  8
0
 10
98.320630163283454
 20
359.867159796274
 30
0.0
 40
2.1999999999999851
 50
4.3690425770371011
 51
90.0
  0
ARC
  5
9AC4
  8
0
 10
98.320630163283454
 20
239.267159796274
 30
0.0
 40
2.1999999999999891
 50
270.0
 51
355.63095742295639
  0
LINE
  5
9AC5
  8
0
 10
76.824865850776177
 20
237.0671597962739
 30
0.0
 11
98.320630163283454
 21
237.0671597962739
 31
0.0
  0
LINE
  5
9AC6
  8
0
 10
98.320630163283454
 20
362.06715979627398
 30
0.0
 11
76.824865850776064
 21
362.06715979627398
 31
0.0
  0
ARC
  5
9AC7
  8
0
 10
76.824865850776064
 20
360.69215979627398
 30
0.0
 40
1.375000000000014
 50
90.0
 51
180.0
  0
ARC
  5
9AC8
  8
0
 10
76.824865850776177
 20
238.4421597962739
 30
0.0
 40
1.375
 50
180.0
 51
270.0
  0
LINE
  5
9ACB
  8
0
 10
64.649865850776223
 20
282.06715979627393
 30
0.0
 11
75.449865850776064
 21
282.06715979627393
 31
0.0
  0
LINE
  5
9ACE
  8
0
 10
75.449865850776064
 20
317.06715979627393
 30
0.0
 11
64.649865850776095
 21
317.06715979627393
 31
0.0
  0
LINE
  5
9AD0
  8
0
 10
64.649865850776095
 20
312.56715979627393
 30
0.0
 11
64.449865850776177
 21
312.56715979627393
 31
0.0
  0
LINE
  5
9ADB
  8
2
 10
102.44986585077621
 20
284.06715979627393
 30
0.0
 11
102.44986585077621
 21
315.06715979627393
 31
0.0
  0
LINE
  5
9ADD
  8
0
 10
100.5142370923496
 20
360.0347564571988
 30
0.0
 11
100.5142370923496
 21
239.0995631353492
 31
0.0
  0
LINE
  5
9AE0
  8
0
 10
75.449865850776064
 20
360.69215979627398
 30
0.0
 11
75.449865850776064
 21
238.4421597962739
 31
0.0
  0
LINE
  5
9AE3
  8
0
 10
64.649865850776095
 20
317.06715979627393
 30
0.0
 11
64.649865850776095
 21
282.06715979627393
 31
0.0
  0
LINE
  5
9AE5
  8
0
 10
64.449865850776177
 20
312.56715979627393
 30
0.0
 11
64.449865850776177
 21
286.56715979627393
 31
0.0
  0
CIRCLE
  5
9CD2
  8
0
 10
287.7871229727661
 20
348.56715979627393
 30
0.0
 40
9.0000000000000089
  0
CIRCLE
  5
9D14
  8
0
 10
287.7871229727661
 20
299.56715979627398
 30
0.0
 40
15.500000000000011
  0
CIRCLE
  5
9D15
  8
0
 10
287.7871229727661
 20
299.56715979627398
 30
0.0
 40
60.467596660924791
  0
CIRCLE
  5
9D16
  8
0
 10
287.7871229727661
 20
299.56715979627398
 30
0.0
 40
62.5
  0
POLYLINE
  5
9D20
  8
0
 66
     1
 10
0.0
 20
0.0
 30
0.0
  0
VERTEX
  5
A7CC
  8
0
 10
282.915561964208
 20
340.99504281768151
 30
0.0
  0
VERTEX
  5
A7CD
  8
0
 10
287.81689155398823
 20
335.03140080947708
 30
0.0
  0
VERTEX
  5
A7CE
  8
0
 10
294.85679938273779
 20
326.46566588135528
 30
0.0
  0
VERTEX
  5
A7CF
  8
0
 10
300.03083310298501
 20
320.17021394719649
 30
0.0
  0
VERTEX
  5
A7D0
  8
0
 10
302.28447750530779
 20
317.42811546492538
 30
0.0
  0
SEQEND
  5
A7D1
  8
0
  0
POLYLINE
  5
9D22
  8
0
 66
     1
 10
0.0
 20
0.0
 30
0.0
  0
VERTEX
  5
A7D2
  8
0
 10
302.28447750530779
 20
317.42811546492538
 30
0.0
  0
VERTEX
  5
A7D3
  8
0
 10
302.7990033541783
 20
316.81241822046132
 30
0.0
  0
VERTEX
  5
A7D4
  8
0
 10
303.85088094280519
 20
315.61450234895727
 30
0.0
  0
VERTEX
  5
A7D5
  8
0
 10
304.9335803209608
 20
314.45927714077419
 30
0.0
  0
VERTEX
  5
A7D6
  8
0
 10
305.49166185671089
 20
313.89205816385203
 30
0.0
  0
SEQEND
  5
A7D7
  8
0
  0
POLYLINE
  5
9D24
  8
0
 66
     1
 10
0.0
 20
0.0
 30
0.0
  0
VERTEX
  5
A7D8
  8
0
 10
305.49166185671089
 20
313.89205816385203
 30
0.0
  0
VERTEX
  5
A7D9
  8
0
 10
306.62526492649738
 20
312.7584550940656
 30
0.0
  0
VERTEX
  5
A7DA
  8
0
 10
308.96459905706018
 20
310.41912096350279
 30
0.0
  0
VERTEX
  5
A7DB
  8
0
 10
311.46500165570438
 20
307.91871836485848
 30
0.0
  0
VERTEX
  5
A7DC
  8
0
 10
312.804023266218
 20
306.57969675434492
 30
0.0
  0
SEQEND
  5
A7DD
  8
0
  0
POLYLINE
  5
9D26
  8
0
 66
     1
 10
0.0
 20
0.0
 30
0.0
  0
VERTEX
  5
A7DE
  8
0
 10
312.80402326621783
 20
306.57969675434521
 30
0.0
  0
VERTEX
  5
A7DF
  8
0
 10
313.89218680830697
 20
305.52468287150663
 30
0.0
  0
VERTEX
  5
A7E0
  8
0
 10
316.17595861910053
 20
303.50799729019502
 30
0.0
  0
VERTEX
  5
A7E1
  8
0
 10
318.59270104546158
 20
301.62835688675187
 30
0.0
  0
VERTEX
  5
A7E2
  8
0
 10
319.84665996538729
 20
300.74421511280849
 30
0.0
  0
SEQEND
  5
A7E3
  8
0
  0
POLYLINE
  5
9D28
  8
0
 66
     1
 10
0.0
 20
0.0
 30
0.0
  0
VERTEX
  5
A7E4
  8
0
 10
318.92616730411459
 20
334.06980526373218
 30
0.0
  0
VERTEX
  5
A7E5
  8
0
 10
315.28791217502533
 20
337.05997259685557
 30
0.0
  0
VERTEX
  5
A7E6
  8
0
 10
307.86139134410098
 20
343.16359622947022
 30
0.0
  0
VERTEX
  5
A7E7
  8
0
 10
299.82083508474273
 20
349.7718762466256
 30
0.0
  0
VERTEX
  5
A7E8
  8
0
 10
295.38255167027171
 20
353.41956163707169
 30
0.0
  0
SEQEND
  5
A7E9
  8
0
  0
POLYLINE
  5
9D2B
  8
0
 66
     1
 10
0.0
 20
0.0
 30
0.0
  0
VERTEX
  5
A7EA
  8
0
 10
322.462224605188
 20
330.86262091232908
 30
0.0
  0
VERTEX
  5
A7EB
  8
0
 10
321.90188105329082
 20
331.4140454817661
 30
0.0
  0
VERTEX
  5
A7EC
  8
0
 10
320.74580533866458
 20
332.49793437833898
 30
0.0
  0
VERTEX
  5
A7ED
  8
0
 10
319.54383509310458
 20
333.55360498966752
 30
0.0
  0
VERTEX
  5
A7EE
  8
0
 10
318.92616730411459
 20
334.06980526373218
 30
0.0
  0
SEQEND
  5
A7EF
  8
0
  0
POLYLINE
  5
9D2D
  8
0
 66
     1
 10
0.0
 20
0.0
 30
0.0
  0
VERTEX
  5
A7F0
  8
0
 10
329.77458601469539
 20
323.5502595028218
 30
0.0
  0
VERTEX
  5
A7F1
  8
0
 10
328.5251690239507
 20
324.79967649356649
 30
0.0
  0
VERTEX
  5
A7F2
  8
0
 10
326.07076386538
 20
327.25408165213707
 30
0.0
  0
VERTEX
  5
A7F3
  8
0
 10
323.65858859973571
 20
329.66625691778142
 30
0.0
  0
VERTEX
  5
A7F4
  8
0
 10
322.462224605188
 20
330.86262091232908
 30
0.0
  0
SEQEND
  5
A7F5
  8
0
  0
POLYLINE
  5
9D2F
  8
0
 66
     1
 10
0.0
 20
0.0
 30
0.0
  0
VERTEX
  5
A7F6
  8
0
 10
335.61006765623159
 20
316.50762280365279
 30
0.0
  0
VERTEX
  5
A7F7
  8
0
 10
334.74114180019558
 20
317.74069166450562
 30
0.0
  0
VERTEX
  5
A7F8
  8
0
 10
332.87600409695091
 20
320.14244811921799
 30
0.0
  0
VERTEX
  5
A7F9
  8
0
 10
330.8474089561837
 20
322.44313951983611
 30
0.0
  0
VERTEX
  5
A7FA
  8
0
 10
329.77458601469499
 20
323.55025950282231
 30
0.0
  0
SEQEND
  5
A7FB
  8
0
  0
POLYLINE
  5
9D31
  8
0
 66
     1
 10
0.0
 20
0.0
 30
0.0
  0
VERTEX
  5
A7FC
  8
0
 10
343.86882220069799
 20
304.39612695294528
 30
0.0
  0
VERTEX
  5
A7FD
  8
0
 10
342.39268954337552
 20
306.56088127007592
 30
0.0
  0
VERTEX
  5
A7FE
  8
0
 10
339.5761493079126
 20
310.69134854471059
 30
0.0
  0
VERTEX
  5
A7FF
  8
0
 10
336.90408272645988
 20
314.60994464050589
 30
0.0
  0
VERTEX
  5
A800
  8
0
 10
335.61006765623159
 20
316.50762280365279
 30
0.0
  0
SEQEND
  5
A801
  8
0
  0
POLYLINE
  5
9D33
  8
0
 66
     1
 10
0.0
 20
0.0
 30
0.0
  0
VERTEX
  5
A802
  8
0
 10
331.9581558160948
 20
292.48546056834209
 30
0.0
  0
VERTEX
  5
A803
  8
0
 10
332.0516798577047
 20
292.42258379352057
 30
0.0
  0
VERTEX
  5
A804
  8
0
 10
332.24134675385989
 20
292.30043382629759
 30
0.0
  0
VERTEX
  5
A805
  8
0
 10
332.43429077171618
 20
292.18324216505653
 30
0.0
  0
VERTEX
  5
A806
  8
0
 10
332.53191024992492
 20
292.1265581782277
 30
0.0
  0
VERTEX
  5
A807
  8
0
 10
332.63026477301969
 20
292.07116635562159
 30
0.0
  0
VERTEX
  5
A808
  8
0
 10
332.82905317286549
 20
291.96432669181758
 30
0.0
  0
VERTEX
  5
A809
  8
0
 10
333.03037809092359
 20
291.86285868274967
 30
0.0
  0
VERTEX
  5
A80A
  8
0
 10
333.23394532279571
 20
291.76688311253679
 30
0.0
  0
VERTEX
  5
A80B
  8
0
 10
333.43945008889688
 20
291.6765024080895
 30
0.0
  0
VERTEX
  5
A80C
  8
0
 10
333.64657944228202
 20
291.5917993600155
 30
0.0
  0
VERTEX
  5
A80D
  8
0
 10
333.7506539335601
 20
291.55159721283383
 30
0.0
  0
VERTEX
  5
A80E
  8
0
 10
333.85501481527518
 20
291.51283614323648
 30
0.0
  0
VERTEX
  5
A80F
  8
0
 10
334.0644342946236
 20
291.43965377554321
 30
0.0
  0
VERTEX
  5
A810
  8
0
 10
334.27450937317622
 20
291.3722735460409
 30
0.0
  0
VERTEX
  5
A811
  8
0
 10
334.48490036593682
 20
291.31069815561301
 30
0.0
  0
VERTEX
  5
A812
  8
0
 10
334.69525813208389
 20
291.2549104470653
 30
0.0
  0
VERTEX
  5
A813
  8
0
 10
334.90522665160739
 20
291.204872191108
 30
0.0
  0
VERTEX
  5
A814
  8
0
 10
335.00995245040758
 20
291.18199118201449
 30
0.0
  0
VERTEX
  5
A815
  8
0
 10
335.11444564621962
 20
291.16052323244179
 30
0.0
  0
VERTEX
  5
A816
  8
0
 10
335.32260660855781
 20
291.12177173094102
 30
0.0
  0
VERTEX
  5
A817
  8
0
 10
335.53180725047281
 20
291.08815217789868
 30
0.0
  0
VERTEX
  5
A818
  8
0
 10
335.63721525903759
 20
291.0732148938738
 30
0.0
  0
VERTEX
  5
A819
  8
0
 10
335.74312429305439
 20
291.0595482329818
 30
0.0
  0
VERTEX
  5
A81A
  8
0
 10
335.95633116590142
 20
291.03608877741891
 30
0.0
  0
VERTEX
  5
A81B
  8
0
 10
336.1711968643736
 20
291.01788948915993
 30
0.0
  0
VERTEX
  5
A81C
  8
0
 10
336.27917877847869
 20
291.01079488758802
 30
0.0
  0
VERTEX
  5
A81D
  8
0
 10
336.38748760246591
 20
291.00505261837043
 30
0.0
  0
VERTEX
  5
A81E
  8
0
 10
336.60496846988582
 20
290.99766695876122
 30
0.0
  0
VERTEX
  5
A81F
  8
0
 10
336.82340509740118
 20
290.99580801475571
 30
0.0
  0
VERTEX
  5
A820
  8
0
 10
337.0425653321214
 20
290.99953836695352
 30
0.0
  0
VERTEX
  5
A821
  8
0
 10
337.26222083582689
 20
291.0089082356094
 30
0.0
  0
VERTEX
  5
A822
  8
0
 10
337.48214568285061
 20
291.02395599514819
 30
0.0
  0
VERTEX
  5
A823
  8
0
 10
337.59213784624887
 20
291.03361781134328
 30
0.0
  0
VERTEX
  5
A824
  8
0
 10
337.7021114789901
 20
291.04470804876718
 30
0.0
  0
VERTEX
  5
A825
  8
0
 10
337.92188750572501
 20
291.07117855748572
 30
0.0
  0
VERTEX
  5
A826
  8
0
 10
338.14124229363381
 20
291.1033693558179
 30
0.0
  0
VERTEX
  5
A827
  8
0
 10
338.3599451688292
 20
291.14127004535311
 30
0.0
  0
VERTEX
  5
A828
  8
0
 10
338.57776776850329
 20
291.18485826443907
 30
0.0
  0
VERTEX
  5
A829
  8
0
 10
338.79448552657431
 20
291.2341001341407
 30
0.0
  0
VERTEX
  5
A82A
  8
0
 10
338.90236131013802
 20
291.26082760142322
 30
0.0
  0
VERTEX
  5
A82B
  8
0
 10
339.00987932281561
 20
291.28895093424239
 30
0.0
  0
VERTEX
  5
A82C
  8
0
 10
339.22378883058769
 20
291.34937133146002
 30
0.0
  0
VERTEX
  5
A82D
  8
0
 10
339.43604337814901
 20
291.41531286192537
 30
0.0
  0
VERTEX
  5
A82E
  8
0
 10
339.6464300482088
 20
291.48670493262762
 30
0.0
  0
VERTEX
  5
A82F
  8
0
 10
339.85473694090751
 20
291.56346488095102
 30
0.0
  0
VERTEX
  5
A830
  8
0
 10
340.06075473961369
 20
291.64549817700561
 30
0.0
  0
VERTEX
  5
A831
  8
0
 10
340.16284089532672
 20
291.68845963302329
 30
0.0
  0
VERTEX
  5
A832
  8
0
 10
340.26427821634888
 20
291.73269879585229
 30
0.0
  0
VERTEX
  5
A833
  8
0
 10
340.46510767753131
 20
291.82494975865438
 30
0.0
  0
VERTEX
  5
A834
  8
0
 10
340.66305035072799
 20
291.9221238437184
 30
0.0
  0
VERTEX
  5
A835
  8
0
 10
340.85792169409831
 20
292.02408446021218
 30
0.0
  0
VERTEX
  5
A836
  8
0
 10
341.04954488244852
 20
292.13068568423921
 30
0.0
  0
VERTEX
  5
A837
  8
0
 10
341.23774638924777
 20
292.24176977527378
 30
0.0
  0
VERTEX
  5
A838
  8
0
 10
341.33051055196051
 20
292.29894013391328
 30
0.0
  0
VERTEX
  5
A839
  8
0
 10
341.42235566460192
 20
292.3571663394365
 30
0.0
  0
VERTEX
  5
A83A
  8
0
 10
341.60320684077942
 20
292.47669267968962
 30
0.0
  0
VERTEX
  5
A83B
  8
0
 10
341.78014036317973
 20
292.6001543352362
 30
0.0
  0
VERTEX
  5
A83C
  8
0
 10
341.9530045155937
 20
292.7273457899887
 30
0.0
  0
VERTEX
  5
A83D
  8
0
 10
342.12165684217598
 20
292.85805134945173
 30
0.0
  0
VERTEX
  5
A83E
  8
0
 10
342.2859654693284
 20
292.9920461886544
 30
0.0
  0
VERTEX
  5
A83F
  8
0
 10
342.36669124658698
 20
293.06040902243348
 30
0.0
  0
VERTEX
  5
A840
  8
0
 10
342.44683764102592
 20
293.1300006690667
 30
0.0
  0
VERTEX
  5
A841
  8
0
 10
342.60527208101718
 20
293.27283467683043
 30
0.0
  0
VERTEX
  5
A842
  8
0
 10
342.76102300566538
 20
293.4204609951264
 30
0.0
  0
VERTEX
  5
A843
  8
0
 10
342.83781665879332
 20
293.49604015711577
 30
0.0
  0
VERTEX
  5
A844
  8
0
 10
342.91384984066133
 20
293.57277862376628
 30
0.0
  0
VERTEX
  5
A845
  8
0
 10
343.06352034605681
 20
293.7296754264745
 30
0.0
  0
VERTEX
  5
A846
  8
0
 10
343.20981175677468
 20
293.8910293768003
 30
0.0
  0
VERTEX
  5
A847
  8
0
 10
343.28162352568108
 20
293.97333728181309
 30
0.0
  0
VERTEX
  5
A848
  8
0
 10
343.35251177543552
 20
294.0567099394213
 30
0.0
  0
VERTEX
  5
A849
  8
0
 10
343.4914194170961
 20
294.2265795898125
 30
0.0
  0
VERTEX
  5
A84A
  8
0
 10
343.62634568927263
 20
294.40049545754198
 30
0.0
  0
VERTEX
  5
A84B
  8
0
 10
343.75711291809188
 20
294.57830943600459
 30
0.0
  0
VERTEX
  5
A84C
  8
0
 10
343.88355145919098
 20
294.75986424761459
 30
0.0
  0
VERTEX
  5
A84D
  8
0
 10
344.00549942712769
 20
294.94499265106811
 30
0.0
  0
VERTEX
  5
A84E
  8
0
 10
344.06474125409147
 20
295.03884223823729
 30
0.0
  0
VERTEX
  5
A84F
  8
0
 10
344.1228038041553
 20
295.13351857318281
 30
0.0
  0
VERTEX
  5
A850
  8
0
 10
344.2353214108017
 20
295.32525836145157
 30
0.0
  0
VERTEX
  5
A851
  8
0
 10
344.34291971768442
 20
295.52002212817001
 30
0.0
  0
VERTEX
  5
A852
  8
0
 10
344.44547749933542
 20
295.71761518678051
 30
0.0
  0
VERTEX
  5
A853
  8
0
 10
344.54288532886432
 20
295.91783958137978
 30
0.0
  0
VERTEX
  5
A854
  8
0
 10
344.63506151080469
 20
296.12053123226059
 30
0.0
  0
VERTEX
  5
A855
  8
0
 10
344.67916815586841
 20
296.22275991244209
 30
0.0
  0
VERTEX
  5
A856
  8
0
 10
344.72193921288471
 20
296.32554307145068
 30
0.0
  0
VERTEX
  5
A857
  8
0
 10
344.80343391132573
 20
296.53266697350529
 30
0.0
  0
VERTEX
  5
A858
  8
0
 10
344.87947064266928
 20
296.74168692531669
 30
0.0
  0
VERTEX
  5
A859
  8
0
 10
344.9499851829388
 20
296.95238097334533
 30
0.0
  0
VERTEX
  5
A85A
  8
0
 10
345.01492476994332
 20
297.16452263234942
 30
0.0
  0
VERTEX
  5
A85B
  8
0
 10
345.07424865368142
 20
297.37788235752419
 30
0.0
  0
VERTEX
  5
A85C
  8
0
 10
345.101795353738
 20
297.48494680231619
 30
0.0
  0
VERTEX
  5
A85D
  8
0
 10
345.12792847489612
 20
297.59222908084598
 30
0.0
  0
VERTEX
  5
A85E
  8
0
 10
345.17594846945582
 20
297.80733181002319
 30
0.0
  0
VERTEX
  5
A85F
  8
0
 10
345.21830525428408
 20
298.02295997406219
 30
0.0
  0
VERTEX
  5
A860
  8
0
 10
345.25500682375957
 20
298.23887863583161
 30
0.0
  0
VERTEX
  5
A861
  8
0
 10
345.28607276011292
 20
298.45484677052019
 30
0.0
  0
VERTEX
  5
A862
  8
0
 10
345.31153508782569
 20
298.67061874995932
 30
0.0
  0
VERTEX
  5
A863
  8
0
 10
345.32217847815269
 20
298.77835356209891
 30
0.0
  0
VERTEX
  5
A864
  8
0
 10
345.3314389470396
 20
298.8859459628286
 30
0.0
  0
VERTEX
  5
A865
  8
0
 10
345.34584306477348
 20
299.10057846170122
 30
0.0
  0
VERTEX
  5
A866
  8
0
 10
345.35482002655419
 20
299.31426663777978
 30
0.0
  0
VERTEX
  5
A867
  8
0
 10
345.35845634908839
 20
299.52676292701511
 30
0.0
  0
VERTEX
  5
A868
  8
0
 10
345.35683297640691
 20
299.73879373406879
 30
0.0
  0
VERTEX
  5
A869
  8
0
 10
345.34990538492849
 20
299.95205603821779
 30
0.0
  0
VERTEX
  5
A86A
  8
0
 10
345.34442336928532
 20
300.05909239209859
 30
0.0
  0
VERTEX
  5
A86B
  8
0
 10
345.3375820176816
 20
300.16635749013199
 30
0.0
  0
VERTEX
  5
A86C
  8
0
 10
345.31978496964268
 20
300.38144905824549
 30
0.0
  0
VERTEX
  5
A86D
  8
0
 10
345.29645024554958
 20
300.59708072516389
 30
0.0
  0
VERTEX
  5
A86E
  8
0
 10
345.28269001582078
 20
300.70502111122642
 30
0.0
  0
VERTEX
  5
A86F
  8
0
 10
345.26752756416278
 20
300.81300317379748
 30
0.0
  0
VERTEX
  5
A870
  8
0
 10
345.2329799634349
 20
301.02896944471451
 30
0.0
  0
VERTEX
  5
A871
  8
0
 10
345.19278320468641
 20
301.2447365666826
 30
0.0
  0
VERTEX
  5
A872
  8
0
 10
345.17056210280992
 20
301.35247100386579
 30
0.0
  0
VERTEX
  5
A873
  8
0
 10
345.14692497314508
 20
301.46006715522248
 30
0.0
  0
VERTEX
  5
A874
  8
0
 10
345.095404212066
 20
301.67472962994481
 30
0.0
  0
VERTEX
  5
A875
  8
0
 10
345.0382318801303
 20
301.88849336858073
 30
0.0
  0
VERTEX
  5
A876
  8
0
 10
344.97543154371942
 20
302.10112714056942
 30
0.0
  0
VERTEX
  5
A877
  8
0
 10
344.90703925885248
 20
302.31240063489838
 30
0.0
  0
VERTEX
  5
A878
  8
0
 10
344.83310325855189
 20
302.52208602138501
 30
0.0
  0
VERTEX
  5
A879
  8
0
 10
344.79407465177241
 20
302.62626302518947
 30
0.0
  0
VERTEX
  5
A87A
  8
0
 10
344.75368346795022
 20
302.72995944716479
 30
0.0
  0
VERTEX
  5
A87B
  8
0
 10
344.66885084769962
 20
302.93580246960698
 30
0.0
  0
VERTEX
  5
A87C
  8
0
 10
344.57868656471447
 20
303.13940342566531
 30
0.0
  0
VERTEX
  5
A87D
  8
0
 10
344.48326868457798
 20
303.34058382991532
 30
0.0
  0
VERTEX
  5
A87E
  8
0
 10
344.38266265746228
 20
303.53920771306798
 30
0.0
  0
VERTEX
  5
A87F
  8
0
 10
344.27697310782509
 20
303.73507686712128
 30
0.0
  0
VERTEX
  5
A880
  8
0
 10
344.2222583533939
 20
303.83191648650131
 30
0.0
  0
VERTEX
  5
A881
  8
0
 10
344.16631771599708
 20
303.92799374135529
 30
0.0
  0
VERTEX
  5
A882
  8
0
 10
344.05082505980141
 20
304.11776632133228
 30
0.0
  0
VERTEX
  5
A883
  8
0
 10
343.93063385736377
 20
304.30420951067822
 30
0.0
  0
VERTEX
  5
A884
  8
0
 10
343.86882220069799
 20
304.39612695294528
 30
0.0
  0
SEQEND
  5
A885
  8
0
  0
POLYLINE
  5
9D35
  8
0
 66
     1
 10
0.0
 20
0.0
 30
0.0
  0
VERTEX
  5
A886
  8
0
 10
319.84665996538729
 20
300.74421511280849
 30
0.0
  0
VERTEX
  5
A887
  8
0
 10
321.44570069952459
 20
299.6538390690377
 30
0.0
  0
VERTEX
  5
A888
  8
0
 10
325.06909064030071
 20
297.18307174940782
 30
0.0
  0
VERTEX
  5
A889
  8
0
 10
329.42358133071627
 20
294.21377132429097
 30
0.0
  0
VERTEX
  5
A88A
  8
0
 10
331.9581558160952
 20
292.48546056834169
 30
0.0
  0
SEQEND
  5
A88B
  8
0
  0
LINE
  5
9D3D
  8
1
 10
212.16452241262161
 20
299.56715979627398
 30
0.0
 11
363.40972353291068
 21
299.56715979627398
 31
0.0
  0
LINE
  5
9D3E
  8
1
 10
287.7871229727661
 20
375.18976035641839
 30
0.0
 11
287.7871229727661
 21
223.94455923612941
 31
0.0
  0
LINE
  5
9D40
  8
1
 10
271.78773420532281
 20
348.56715979627393
 30
0.0
 11
303.78651174020951
 21
348.56715979627393
 31
0.0
  0
CIRCLE
  5
9DE6
  8
0
 10
505.99623566685659
 20
299.56715979627398
 30
0.0
 40
15.500000000000011
  0
CIRCLE
  5
9DE7
  8
0
 10
505.99623566685659
 20
299.56715979627398
 30
0.0
 40
60.467596660924791
  0
CIRCLE
  5
9DE8
  8
0
 10
505.99623566685659
 20
299.56715979627398
 30
0.0
 40
62.5
  0
POLYLINE
  5
9DE9
  8
0
 66
     1
 10
0.0
 20
0.0
 30
0.0
  0
VERTEX
  5
A88C
  8
0
 10
501.12467465829837
 20
340.99504281768151
 30
0.0
  0
VERTEX
  5
A88D
  8
0
 10
506.02600424807861
 20
335.03140080947708
 30
0.0
  0
VERTEX
  5
A88E
  8
0
 10
513.06591207682823
 20
326.46566588135528
 30
0.0
  0
VERTEX
  5
A88F
  8
0
 10
518.23994579707528
 20
320.17021394719649
 30
0.0
  0
VERTEX
  5
A890
  8
0
 10
520.49359019939823
 20
317.42811546492538
 30
0.0
  0
SEQEND
  5
A891
  8
0
  0
POLYLINE
  5
9DEA
  8
0
 66
     1
 10
0.0
 20
0.0
 30
0.0
  0
VERTEX
  5
A892
  8
0
 10
520.49359019939823
 20
317.42811546492538
 30
0.0
  0
VERTEX
  5
A893
  8
0
 10
521.00811604826879
 20
316.81241822046132
 30
0.0
  0
VERTEX
  5
A894
  8
0
 10
522.05999363689557
 20
315.61450234895727
 30
0.0
  0
VERTEX
  5
A895
  8
0
 10
523.14269301505124
 20
314.45927714077419
 30
0.0
  0
VERTEX
  5
A896
  8
0
 10
523.70077455080127
 20
313.89205816385203
 30
0.0
  0
SEQEND
  5
A897
  8
0
  0
POLYLINE
  5
9DEB
  8
0
 66
     1
 10
0.0
 20
0.0
 30
0.0
  0
VERTEX
  5
A898
  8
0
 10
523.70077455080127
 20
313.89205816385203
 30
0.0
  0
VERTEX
  5
A899
  8
0
 10
524.83437762058782
 20
312.7584550940656
 30
0.0
  0
VERTEX
  5
A89A
  8
0
 10
527.17371175115068
 20
310.41912096350279
 30
0.0
  0
VERTEX
  5
A89B
  8
0
 10
529.67411434979476
 20
307.91871836485848
 30
0.0
  0
VERTEX
  5
A89C
  8
0
 10
531.01313596030843
 20
306.57969675434492
 30
0.0
  0
SEQEND
  5
A89D
  8
0
  0
POLYLINE
  5
9DEC
  8
0
 66
     1
 10
0.0
 20
0.0
 30
0.0
  0
VERTEX
  5
A89E
  8
0
 10
531.0131359603082
 20
306.57969675434521
 30
0.0
  0
VERTEX
  5
A89F
  8
0
 10
532.1012995023973
 20
305.52468287150663
 30
0.0
  0
VERTEX
  5
A8A0
  8
0
 10
534.38507131319079
 20
303.50799729019502
 30
0.0
  0
VERTEX
  5
A8A1
  8
0
 10
536.80181373955202
 20
301.62835688675187
 30
0.0
  0
VERTEX
  5
A8A2
  8
0
 10
538.05577265947773
 20
300.74421511280849
 30
0.0
  0
SEQEND
  5
A8A3
  8
0
  0
POLYLINE
  5
9DED
  8
0
 66
     1
 10
0.0
 20
0.0
 30
0.0
  0
VERTEX
  5
A8A4
  8
0
 10
537.13527999820508
 20
334.06980526373218
 30
0.0
  0
VERTEX
  5
A8A5
  8
0
 10
533.49702486911565
 20
337.05997259685557
 30
0.0
  0
VERTEX
  5
A8A6
  8
0
 10
526.07050403819142
 20
343.16359622947022
 30
0.0
  0
VERTEX
  5
A8A7
  8
0
 10
518.02994777883305
 20
349.7718762466256
 30
0.0
  0
VERTEX
  5
A8A8
  8
0
 10
513.59166436436215
 20
353.41956163707169
 30
0.0
  0
SEQEND
  5
A8A9
  8
0
  0
POLYLINE
  5
9DEE
  8
0
 66
     1
 10
0.0
 20
0.0
 30
0.0
  0
VERTEX
  5
A8AA
  8
0
 10
540.67133729927843
 20
330.86262091232908
 30
0.0
  0
VERTEX
  5
A8AB
  8
0
 10
540.11099374738114
 20
331.4140454817661
 30
0.0
  0
VERTEX
  5
A8AC
  8
0
 10
538.9549180327549
 20
332.49793437833898
 30
0.0
  0
VERTEX
  5
A8AD
  8
0
 10
537.75294778719501
 20
333.55360498966752
 30
0.0
  0
VERTEX
  5
A8AE
  8
0
 10
537.13527999820508
 20
334.06980526373218
 30
0.0
  0
SEQEND
  5
A8AF
  8
0
  0
POLYLINE
  5
9DEF
  8
0
 66
     1
 10
0.0
 20
0.0
 30
0.0
  0
VERTEX
  5
A8B0
  8
0
 10
547.98369870878582
 20
323.5502595028218
 30
0.0
  0
VERTEX
  5
A8B1
  8
0
 10
546.73428171804096
 20
324.79967649356649
 30
0.0
  0
VERTEX
  5
A8B2
  8
0
 10
544.27987655947038
 20
327.25408165213707
 30
0.0
  0
VERTEX
  5
A8B3
  8
0
 10
541.86770129382614
 20
329.66625691778142
 30
0.0
  0
VERTEX
  5
A8B4
  8
0
 10
540.67133729927843
 20
330.86262091232908
 30
0.0
  0
SEQEND
  5
A8B5
  8
0
  0
POLYLINE
  5
9DF0
  8
0
 66
     1
 10
0.0
 20
0.0
 30
0.0
  0
VERTEX
  5
A8B6
  8
0
 10
553.81918035032186
 20
316.50762280365279
 30
0.0
  0
VERTEX
  5
A8B7
  8
0
 10
552.95025449428601
 20
317.74069166450562
 30
0.0
  0
VERTEX
  5
A8B8
  8
0
 10
551.0851167910414
 20
320.14244811921799
 30
0.0
  0
VERTEX
  5
A8B9
  8
0
 10
549.05652165027414
 20
322.44313951983611
 30
0.0
  0
VERTEX
  5
A8BA
  8
0
 10
547.98369870878525
 20
323.55025950282231
 30
0.0
  0
SEQEND
  5
A8BB
  8
0
  0
POLYLINE
  5
9DF1
  8
0
 66
     1
 10
0.0
 20
0.0
 30
0.0
  0
VERTEX
  5
A8BC
  8
0
 10
562.07793489478843
 20
304.39612695294528
 30
0.0
  0
VERTEX
  5
A8BD
  8
0
 10
560.6018022374659
 20
306.56088127007592
 30
0.0
  0
VERTEX
  5
A8BE
  8
0
 10
557.78526200200304
 20
310.69134854471059
 30
0.0
  0
VERTEX
  5
A8BF
  8
0
 10
555.11319542055026
 20
314.60994464050589
 30
0.0
  0
VERTEX
  5
A8C0
  8
0
 10
553.81918035032186
 20
316.50762280365279
 30
0.0
  0
SEQEND
  5
A8C1
  8
0
  0
POLYLINE
  5
9DF2
  8
0
 66
     1
 10
0.0
 20
0.0
 30
0.0
  0
VERTEX
  5
A8C2
  8
0
 10
550.16726851018507
 20
292.48546056834209
 30
0.0
  0
VERTEX
  5
A8C3
  8
0
 10
550.26079255179513
 20
292.42258379352057
 30
0.0
  0
VERTEX
  5
A8C4
  8
0
 10
550.45045944795015
 20
292.30043382629759
 30
0.0
  0
VERTEX
  5
A8C5
  8
0
 10
550.64340346580661
 20
292.18324216505653
 30
0.0
  0
VERTEX
  5
A8C6
  8
0
 10
550.7410229440153
 20
292.1265581782277
 30
0.0
  0
VERTEX
  5
A8C7
  8
0
 10
550.83937746711013
 20
292.07116635562159
 30
0.0
  0
VERTEX
  5
A8C8
  8
0
 10
551.03816586695586
 20
291.96432669181758
 30
0.0
  0
VERTEX
  5
A8C9
  8
0
 10
551.23949078501403
 20
291.86285868274967
 30
0.0
  0
VERTEX
  5
A8CA
  8
0
 10
551.44305801688608
 20
291.76688311253679
 30
0.0
  0
VERTEX
  5
A8CB
  8
0
 10
551.64856278298726
 20
291.6765024080895
 30
0.0
  0
VERTEX
  5
A8CC
  8
0
 10
551.85569213637245
 20
291.5917993600155
 30
0.0
  0
VERTEX
  5
A8CD
  8
0
 10
551.95976662765054
 20
291.55159721283383
 30
0.0
  0
VERTEX
  5
A8CE
  8
0
 10
552.06412750936556
 20
291.51283614323648
 30
0.0
  0
VERTEX
  5
A8CF
  8
0
 10
552.27354698871386
 20
291.43965377554321
 30
0.0
  0
VERTEX
  5
A8D0
  8
0
 10
552.48362206726665
 20
291.3722735460409
 30
0.0
  0
VERTEX
  5
A8D1
  8
0
 10
552.69401306002715
 20
291.31069815561301
 30
0.0
  0
VERTEX
  5
A8D2
  8
0
 10
552.90437082617439
 20
291.2549104470653
 30
0.0
  0
VERTEX
  5
A8D3
  8
0
 10
553.11433934569789
 20
291.204872191108
 30
0.0
  0
VERTEX
  5
A8D4
  8
0
 10
553.21906514449802
 20
291.18199118201449
 30
0.0
  0
VERTEX
  5
A8D5
  8
0
 10
553.32355834031
 20
291.16052323244179
 30
0.0
  0
VERTEX
  5
A8D6
  8
0
 10
553.53171930264807
 20
291.12177173094102
 30
0.0
  0
VERTEX
  5
A8D7
  8
0
 10
553.74091994456307
 20
291.08815217789868
 30
0.0
  0
VERTEX
  5
A8D8
  8
0
 10
553.84632795312803
 20
291.0732148938738
 30
0.0
  0
VERTEX
  5
A8D9
  8
0
 10
553.95223698714472
 20
291.0595482329818
 30
0.0
  0
VERTEX
  5
A8DA
  8
0
 10
554.1654438599918
 20
291.03608877741891
 30
0.0
  0
VERTEX
  5
A8DB
  8
0
 10
554.38030955846409
 20
291.01788948915993
 30
0.0
  0
VERTEX
  5
A8DC
  8
0
 10
554.48829147256913
 20
291.01079488758802
 30
0.0
  0
VERTEX
  5
A8DD
  8
0
 10
554.59660029655618
 20
291.00505261837043
 30
0.0
  0
VERTEX
  5
A8DE
  8
0
 10
554.81408116397608
 20
290.99766695876122
 30
0.0
  0
VERTEX
  5
A8DF
  8
0
 10
555.03251779149161
 20
290.99580801475571
 30
0.0
  0
VERTEX
  5
A8E0
  8
0
 10
555.25167802621183
 20
290.99953836695352
 30
0.0
  0
VERTEX
  5
A8E1
  8
0
 10
555.47133352991727
 20
291.0089082356094
 30
0.0
  0
VERTEX
  5
A8E2
  8
0
 10
555.69125837694105
 20
291.02395599514819
 30
0.0
  0
VERTEX
  5
A8E3
  8
0
 10
555.80125054033931
 20
291.03361781134328
 30
0.0
  0
VERTEX
  5
A8E4
  8
0
 10
555.91122417308054
 20
291.04470804876718
 30
0.0
  0
VERTEX
  5
A8E5
  8
0
 10
556.13100019981539
 20
291.07117855748572
 30
0.0
  0
VERTEX
  5
A8E6
  8
0
 10
556.35035498772424
 20
291.1033693558179
 30
0.0
  0
VERTEX
  5
A8E7
  8
0
 10
556.56905786291964
 20
291.14127004535311
 30
0.0
  0
VERTEX
  5
A8E8
  8
0
 10
556.78688046259379
 20
291.18485826443907
 30
0.0
  0
VERTEX
  5
A8E9
  8
0
 10
557.00359822066457
 20
291.2341001341407
 30
0.0
  0
VERTEX
  5
A8EA
  8
0
 10
557.1114740042284
 20
291.26082760142322
 30
0.0
  0
VERTEX
  5
A8EB
  8
0
 10
557.21899201690599
 20
291.28895093424239
 30
0.0
  0
VERTEX
  5
A8EC
  8
0
 10
557.43290152467819
 20
291.34937133146002
 30
0.0
  0
VERTEX
  5
A8ED
  8
0
 10
557.6451560722395
 20
291.41531286192537
 30
0.0
  0
VERTEX
  5
A8EE
  8
0
 10
557.85554274229924
 20
291.48670493262762
 30
0.0
  0
VERTEX
  5
A8EF
  8
0
 10
558.06384963499795
 20
291.56346488095102
 30
0.0
  0
VERTEX
  5
A8F0
  8
0
 10
558.26986743370412
 20
291.64549817700561
 30
0.0
  0
VERTEX
  5
A8F1
  8
0
 10
558.3719535894171
 20
291.68845963302329
 30
0.0
  0
VERTEX
  5
A8F2
  8
0
 10
558.47339091043932
 20
291.73269879585229
 30
0.0
  0
VERTEX
  5
A8F3
  8
0
 10
558.6742203716218
 20
291.82494975865438
 30
0.0
  0
VERTEX
  5
A8F4
  8
0
 10
558.87216304481831
 20
291.9221238437184
 30
0.0
  0
VERTEX
  5
A8F5
  8
0
 10
559.06703438818874
 20
292.02408446021218
 30
0.0
  0
VERTEX
  5
A8F6
  8
0
 10
559.25865757653878
 20
292.13068568423921
 30
0.0
  0
VERTEX
  5
A8F7
  8
0
 10
559.44685908333827
 20
292.24176977527378
 30
0.0
  0
VERTEX
  5
A8F8
  8
0
 10
559.53962324605095
 20
292.29894013391328
 30
0.0
  0
VERTEX
  5
A8F9
  8
0
 10
559.63146835869225
 20
292.3571663394365
 30
0.0
  0
VERTEX
  5
A8FA
  8
0
 10
559.81231953486974
 20
292.47669267968962
 30
0.0
  0
VERTEX
  5
A8FB
  8
0
 10
559.98925305727005
 20
292.6001543352362
 30
0.0
  0
VERTEX
  5
A8FC
  8
0
 10
560.16211720968397
 20
292.7273457899887
 30
0.0
  0
VERTEX
  5
A8FD
  8
0
 10
560.33076953626642
 20
292.85805134945173
 30
0.0
  0
VERTEX
  5
A8FE
  8
0
 10
560.49507816341884
 20
292.9920461886544
 30
0.0
  0
VERTEX
  5
A8FF
  8
0
 10
560.57580394067736
 20
293.06040902243348
 30
0.0
  0
VERTEX
  5
A900
  8
0
 10
560.65595033511624
 20
293.1300006690667
 30
0.0
  0
VERTEX
  5
A901
  8
0
 10
560.81438477510756
 20
293.27283467683043
 30
0.0
  0
VERTEX
  5
A902
  8
0
 10
560.97013569975582
 20
293.4204609951264
 30
0.0
  0
VERTEX
  5
A903
  8
0
 10
561.04692935288358
 20
293.49604015711577
 30
0.0
  0
VERTEX
  5
A904
  8
0
 10
561.12296253475165
 20
293.57277862376628
 30
0.0
  0
VERTEX
  5
A905
  8
0
 10
561.27263304014707
 20
293.7296754264745
 30
0.0
  0
VERTEX
  5
A906
  8
0
 10
561.41892445086512
 20
293.8910293768003
 30
0.0
  0
VERTEX
  5
A907
  8
0
 10
561.49073621977152
 20
293.97333728181309
 30
0.0
  0
VERTEX
  5
A908
  8
0
 10
561.56162446952578
 20
294.0567099394213
 30
0.0
  0
VERTEX
  5
A909
  8
0
 10
561.70053211118636
 20
294.2265795898125
 30
0.0
  0
VERTEX
  5
A90A
  8
0
 10
561.83545838336295
 20
294.40049545754198
 30
0.0
  0
VERTEX
  5
A90B
  8
0
 10
561.96622561218237
 20
294.57830943600459
 30
0.0
  0
VERTEX
  5
A90C
  8
0
 10
562.09266415328148
 20
294.75986424761459
 30
0.0
  0
VERTEX
  5
A90D
  8
0
 10
562.21461212121812
 20
294.94499265106811
 30
0.0
  0
VERTEX
  5
A90E
  8
0
 10
562.27385394818191
 20
295.03884223823729
 30
0.0
  0
VERTEX
  5
A90F
  8
0
 10
562.33191649824573
 20
295.13351857318281
 30
0.0
  0
VERTEX
  5
A910
  8
0
 10
562.44443410489214
 20
295.32525836145157
 30
0.0
  0
VERTEX
  5
A911
  8
0
 10
562.5520324117748
 20
295.52002212817001
 30
0.0
  0
VERTEX
  5
A912
  8
0
 10
562.65459019342575
 20
295.71761518678051
 30
0.0
  0
VERTEX
  5
A913
  8
0
 10
562.75199802295458
 20
295.91783958137978
 30
0.0
  0
VERTEX
  5
A914
  8
0
 10
562.84417420489513
 20
296.12053123226059
 30
0.0
  0
VERTEX
  5
A915
  8
0
 10
562.88828084995885
 20
296.22275991244209
 30
0.0
  0
VERTEX
  5
A916
  8
0
 10
562.93105190697497
 20
296.32554307145068
 30
0.0
  0
VERTEX
  5
A917
  8
0
 10
563.01254660541611
 20
296.53266697350529
 30
0.0
  0
VERTEX
  5
A918
  8
0
 10
563.08858333675971
 20
296.74168692531669
 30
0.0
  0
VERTEX
  5
A919
  8
0
 10
563.15909787702924
 20
296.95238097334533
 30
0.0
  0
VERTEX
  5
A91A
  8
0
 10
563.22403746403359
 20
297.16452263234942
 30
0.0
  0
VERTEX
  5
A91B
  8
0
 10
563.2833613477718
 20
297.37788235752419
 30
0.0
  0
VERTEX
  5
A91C
  8
0
 10
563.31090804782843
 20
297.48494680231619
 30
0.0
  0
VERTEX
  5
A91D
  8
0
 10
563.3370411689865
 20
297.59222908084598
 30
0.0
  0
VERTEX
  5
A91E
  8
0
 10
563.3850611635462
 20
297.80733181002319
 30
0.0
  0
VERTEX
  5
A91F
  8
0
 10
563.42741794837445
 20
298.02295997406219
 30
0.0
  0
VERTEX
  5
A920
  8
0
 10
563.46411951785001
 20
298.23887863583161
 30
0.0
  0
VERTEX
  5
A921
  8
0
 10
563.49518545420335
 20
298.45484677052019
 30
0.0
  0
VERTEX
  5
A922
  8
0
 10
563.52064778191618
 20
298.67061874995932
 30
0.0
  0
VERTEX
  5
A923
  8
0
 10
563.53129117224307
 20
298.77835356209891
 30
0.0
  0
VERTEX
  5
A924
  8
0
 10
563.54055164113004
 20
298.8859459628286
 30
0.0
  0
VERTEX
  5
A925
  8
0
 10
563.55495575886391
 20
299.10057846170122
 30
0.0
  0
VERTEX
  5
A926
  8
0
 10
563.56393272064463
 20
299.31426663777978
 30
0.0
  0
VERTEX
  5
A927
  8
0
 10
563.56756904317888
 20
299.52676292701511
 30
0.0
  0
VERTEX
  5
A928
  8
0
 10
563.56594567049717
 20
299.73879373406879
 30
0.0
  0
VERTEX
  5
A929
  8
0
 10
563.55901807901887
 20
299.95205603821779
 30
0.0
  0
VERTEX
  5
A92A
  8
0
 10
563.55353606337565
 20
300.05909239209859
 30
0.0
  0
VERTEX
  5
A92B
  8
0
 10
563.54669471177203
 20
300.16635749013199
 30
0.0
  0
VERTEX
  5
A92C
  8
0
 10
563.52889766373312
 20
300.38144905824549
 30
0.0
  0
VERTEX
  5
A92D
  8
0
 10
563.50556293964007
 20
300.59708072516389
 30
0.0
  0
VERTEX
  5
A92E
  8
0
 10
563.49180270991121
 20
300.70502111122642
 30
0.0
  0
VERTEX
  5
A92F
  8
0
 10
563.47664025825316
 20
300.81300317379748
 30
0.0
  0
VERTEX
  5
A930
  8
0
 10
563.44209265752534
 20
301.02896944471451
 30
0.0
  0
VERTEX
  5
A931
  8
0
 10
563.40189589877684
 20
301.2447365666826
 30
0.0
  0
VERTEX
  5
A932
  8
0
 10
563.3796747969003
 20
301.35247100386579
 30
0.0
  0
VERTEX
  5
A933
  8
0
 10
563.35603766723546
 20
301.46006715522248
 30
0.0
  0
VERTEX
  5
A934
  8
0
 10
563.30451690615644
 20
301.67472962994481
 30
0.0
  0
VERTEX
  5
A935
  8
0
 10
563.24734457422073
 20
301.88849336858073
 30
0.0
  0
VERTEX
  5
A936
  8
0
 10
563.18454423780975
 20
302.10112714056942
 30
0.0
  0
VERTEX
  5
A937
  8
0
 10
563.1161519529428
 20
302.31240063489838
 30
0.0
  0
VERTEX
  5
A938
  8
0
 10
563.04221595264232
 20
302.52208602138501
 30
0.0
  0
VERTEX
  5
A939
  8
0
 10
563.00318734586267
 20
302.62626302518947
 30
0.0
  0
VERTEX
  5
A93A
  8
0
 10
562.9627961620406
 20
302.72995944716479
 30
0.0
  0
VERTEX
  5
A93B
  8
0
 10
562.87796354179
 20
302.93580246960698
 30
0.0
  0
VERTEX
  5
A93C
  8
0
 10
562.78779925880485
 20
303.13940342566531
 30
0.0
  0
VERTEX
  5
A93D
  8
0
 10
562.6923813786683
 20
303.34058382991532
 30
0.0
  0
VERTEX
  5
A93E
  8
0
 10
562.59177535155266
 20
303.53920771306798
 30
0.0
  0
VERTEX
  5
A93F
  8
0
 10
562.48608580191535
 20
303.73507686712128
 30
0.0
  0
VERTEX
  5
A940
  8
0
 10
562.43137104748439
 20
303.83191648650131
 30
0.0
  0
VERTEX
  5
A941
  8
0
 10
562.37543041008746
 20
303.92799374135529
 30
0.0
  0
VERTEX
  5
A942
  8
0
 10
562.25993775389168
 20
304.11776632133228
 30
0.0
  0
VERTEX
  5
A943
  8
0
 10
562.13974655145421
 20
304.30420951067822
 30
0.0
  0
VERTEX
  5
A944
  8
0
 10
562.07793489478843
 20
304.39612695294528
 30
0.0
  0
SEQEND
  5
A945
  8
0
  0
POLYLINE
  5
9DF3
  8
0
 66
     1
 10
0.0
 20
0.0
 30
0.0
  0
VERTEX
  5
A946
  8
0
 10
538.05577265947773
 20
300.74421511280849
 30
0.0
  0
VERTEX
  5
A947
  8
0
 10
539.65481339361486
 20
299.6538390690377
 30
0.0
  0
VERTEX
  5
A948
  8
0
 10
543.27820333439115
 20
297.18307174940782
 30
0.0
  0
VERTEX
  5
A949
  8
0
 10
547.63269402480671
 20
294.21377132429097
 30
0.0
  0
VERTEX
  5
A94A
  8
0
 10
550.16726851018564
 20
292.48546056834169
 30
0.0
  0
SEQEND
  5
A94B
  8
0
  0
LINE
  5
9DF4
  8
1
 10
430.37363510671202
 20
299.56715979627398
 30
0.0
 11
581.618836227001
 21
299.56715979627398
 31
0.0
  0
LINE
  5
9DF5
  8
1
 10
505.99623566685659
 20
375.18976035641839
 30
0.0
 11
505.99623566685659
 21
223.94455923612941
 31
0.0
  0
LINE
  5
9DF6
  8
1
 10
489.99684689941319
 20
348.56715979627393
 30
0.0
 11
521.99562443429977
 21
348.56715979627393
 31
0.0
  0
LINE
  5
9DF7
  8
1
 10
572.09919257679269
 20
282.4642028863376
 30
0.0
 11
492.2191805647247
 21
362.34421489840582
 31
0.0
  0
ARC
  5
9DF8
  8
0
 10
505.99623566685659
 20
348.56715979627398
 30
0.0
 40
7.3000000000000762
 50
331.48297013801402
 51
298.51702986197807
  0
ARC
  5
9DF9
  8
0
 10
505.99623566685659
 20
348.56715979627398
 30
0.0
 40
4.75
 50
344.65239890649548
 51
285.34760109350299
  0
ARC
  5
9DFA
  8
0
 10
505.99623566685659
 20
348.56715979627398
 30
0.0
 40
5.1716225041071731
 50
342.02651906658798
 51
287.97348093340929
  0
ARC
  5
9DFB
  8
0
 10
502.92032116869518
 20
349.73388598523178
 30
0.0
 40
1.0
 50
135.0000000000004
 51
224.9999999999996
  0
LINE
  5
9DFC
  8
0
 10
509.28428219937388
 20
341.95571139217969
 30
0.0
 11
502.21321438750851
 21
349.02677920404528
 31
0.0
  0
ARC
  5
9DFD
  8
0
 10
504.82950947789868
 20
351.64307429443551
 30
0.0
 40
1.000000000000004
 50
44.999999999999581
 51
135.0000000000004
  0
LINE
  5
9DFE
  8
0
 10
502.21321438750851
 20
350.44099276641828
 30
0.0
 11
504.12240269671219
 21
352.350181075622
 31
0.0
  0
LINE
  5
9DFF
  8
0
 10
505.53661625908529
 20
352.35018107562212
 30
0.0
 11
512.60768407095065
 21
345.27911326375653
 31
0.0
  0
ARC
  5
9E00
  8
0
 10
505.99623566685659
 20
348.56715979627393
 30
0.0
 40
7.9999999999999583
 50
343.95502437186082
 51
286.04497562813748
  0
POINT
  5
9E01
  8
0
 10
555.49371034991475
 20
299.0696851132156
 30
-0.0000000000000089
210
0.7071067811865474
220
-0.7071067811865478
230
0.0
 50
180.0
  0
ARC
  5
9E02
  8
0
 10
549.129749319236
 20
305.43364614389452
 30
0.0
 40
9.0000000000000089
 50
224.9999999999996
 51
44.999999999999581
  0
LINE
  5
9E03
  8
0
 10
521.95563571823686
 20
319.8798376835357
 30
0.0
 11
542.76578828855691
 21
299.0696851132156
 31
0.0
  0
LINE
  5
9E04
  8
0
 10
555.49371034991486
 20
311.79760717457339
 30
0.0
 11
534.68355777959482
 21
332.60775974489349
 31
0.0
  0
ARC
  5
9E05
  8
0
 10
532.86629335194539
 20
330.79049531724411
 30
0.0
 40
2.5700000000000092
 50
44.999999999999581
 51
116.2523408187302
  0
ARC
  5
9E06
  8
0
 10
523.7729001458863
 20
321.69710211118507
 30
0.0
 40
2.5700000000000078
 50
153.74765918126721
 51
225.0000008537742
  0
LINE
  5
9E07
  8
0
 10
508.07795803066978
 20
336.22390382388159
 30
0.0
 11
521.46798364120457
 21
322.83387821334668
 31
0.0
  0
LINE
  5
9E08
  8
0
 10
531.72951724978384
 20
333.09541182192589
 30
0.0
 11
518.33949163924888
 21
346.48543743246069
 31
0.0
  0
ARC
  5
9E09
  8
0
 10
518.19807028301159
 20
346.3440160762234
 30
0.0
 40
0.2000000000000055
 50
44.999999999999581
 51
135.0000000000004
  0
ARC
  5
9E0A
  8
0
 10
508.21937938690712
 20
336.36532518011887
 30
0.0
 40
0.2000000000000028
 50
135.0000000000004
 51
224.9999999999996
  0
LINE
  5
9E0B
  8
0
 10
507.58722592452631
 20
340.25865511733201
 30
0.0
 11
509.41041413633093
 21
337.83920264201731
 31
0.0
  0
LINE
  5
9E0C
  8
0
 10
516.72419282111321
 20
345.15298132679959
 30
0.0
 11
514.30474034579845
 21
346.97616953860421
 31
0.0
  0
LINE
  5
9E0D
  8
0
 10
555.49371034991486
 20
311.79760717457339
 30
0.0
 11
542.76578828855691
 21
299.0696851132156
 31
0.0
  0
LINE
  5
9E0E
  8
0
 10
534.68355777959482
 20
332.60775974489349
 30
0.0
 11
521.95563571823686
 21
319.8798376835357
 31
0.0
  0
LINE
  5
9E0F
  8
0
 10
531.72951724978384
 20
333.09541182192589
 30
0.0
 11
521.46798364120457
 21
322.83387821334668
 31
0.0
  0
LINE
  5
9E10
  8
0
 10
514.30474034579845
 20
346.97616953860421
 30
0.0
 11
507.58722592452631
 21
340.25865511733201
 31
0.0
  0
LINE
  5
9E11
  8
0
 10
508.07795803066978
 20
336.50674653635622
 30
0.0
 11
518.0566489267743
 21
346.48543743246069
 31
0.0
  0
POLYLINE
  5
9E12
  8
HIDDEN
 66
     1
 10
0.0
 20
0.0
 30
0.0
  0
VERTEX
  5
A94C
  8
HIDDEN
 10
511.43859863660612
 20
355.18909856529029
 30
0.0
  0
VERTEX
  5
A94D
  8
HIDDEN
 10
511.34786745885032
 20
355.26263774172531
 30
0.0
  0
VERTEX
  5
A94E
  8
HIDDEN
 10
511.16298388684851
 20
355.40631914419919
 30
0.0
  0
VERTEX
  5
A94F
  8
HIDDEN
 10
510.97368867334819
 20
355.54529345243662
 30
0.0
  0
VERTEX
  5
A950
  8
HIDDEN
 10
510.87744543238932
 20
355.61295137564753
 30
0.0
  0
VERTEX
  5
A951
  8
HIDDEN
 10
510.78017142597417
 20
355.67935681321171
 30
0.0
  0
VERTEX
  5
A952
  8
HIDDEN
 10
510.58263456544478
 20
355.8083152909536
 30
0.0
  0
VERTEX
  5
A953
  8
HIDDEN
 10
510.38129162541748
 20
355.93198647416608
 30
0.0
  0
VERTEX
  5
A954
  8
HIDDEN
 10
510.17636552574203
 20
356.0502007635518
 30
0.0
  0
VERTEX
  5
A955
  8
HIDDEN
 10
509.96808671280928
 20
356.16280243030212
 30
0.0
  0
VERTEX
  5
A956
  8
HIDDEN
 10
509.7566911658638
 20
356.26965044508933
 30
0.0
  0
VERTEX
  5
A957
  8
HIDDEN
 10
509.649899352364
 20
356.3208769324807
 30
0.0
  0
VERTEX
  5
A958
  8
HIDDEN
 10
509.54241118908948
 20
356.37062229189843
 30
0.0
  0
VERTEX
  5
A959
  8
HIDDEN
 10
509.32541246238583
 20
356.4656387396663
 30
0.0
  0
VERTEX
  5
A95A
  8
HIDDEN
 10
509.10592174723729
 20
356.55460245563552
 30
0.0
  0
VERTEX
  5
A95B
  8
HIDDEN
 10
508.88419584418602
 20
356.63741838997839
 30
0.0
  0
VERTEX
  5
A95C
  8
HIDDEN
 10
508.66049979432898
 20
356.7140048552011
 30
0.0
  0
VERTEX
  5
A95D
  8
HIDDEN
 10
508.43510498819847
 20
356.78429458819011
 30
0.0
  0
VERTEX
  5
A95E
  8
HIDDEN
 10
508.3218566111035
 20
356.81706130955172
 30
0.0
  0
VERTEX
  5
A95F
  8
HIDDEN
 10
508.20828718263749
 20
356.84823556253968
 30
0.0
  0
VERTEX
  5
A960
  8
HIDDEN
 10
507.98032442495793
 20
356.90579155184849
 30
0.0
  0
VERTEX
  5
A961
  8
HIDDEN
 10
507.75149488645371
 20
356.95694244108199
 30
0.0
  0
VERTEX
  5
A962
  8
HIDDEN
 10
507.63684171673248
 20
356.98011406598278
 30
0.0
  0
VERTEX
  5
A963
  8
HIDDEN
 10
507.52207630017
 20
357.00168397472243
 30
0.0
  0
VERTEX
  5
A964
  8
HIDDEN
 10
507.29235196441891
 20
357.0400265070333
 30
0.0
  0
VERTEX
  5
A965
  8
HIDDEN
 10
507.0626128038183
 20
357.07199533594593
 30
0.0
  0
VERTEX
  5
A966
  8
HIDDEN
 10
506.94783016668202
 20
357.085601887584
 30
0.0
  0
VERTEX
  5
A967
  8
HIDDEN
 10
506.83315533201562
 20
357.09763183650551
 30
0.0
  0
VERTEX
  5
A968
  8
HIDDEN
 10
506.60427943711409
 20
357.11699432850628
 30
0.0
  0
VERTEX
  5
A969
  8
HIDDEN
 10
506.37628612814751
 20
357.1301586519304
 30
0.0
  0
VERTEX
  5
A96A
  8
HIDDEN
 10
506.14947524019061
 20
357.13721845349829
 30
0.0
  0
VERTEX
  5
A96B
  8
HIDDEN
 10
505.92397054168617
 20
357.13828373113722
 30
0.0
  0
VERTEX
  5
A96C
  8
HIDDEN
 10
505.69765601278658
 20
357.1333863835921
 30
0.0
  0
VERTEX
  5
A96D
  8
HIDDEN
 10
505.58399669901257
 20
357.12866940547792
 30
0.0
  0
VERTEX
  5
A96E
  8
HIDDEN
 10
505.47005229480948
 20
357.12242243479551
 30
0.0
  0
VERTEX
  5
A96F
  8
HIDDEN
 10
505.2414582340802
 20
357.10529183917851
 30
0.0
  0
VERTEX
  5
A970
  8
HIDDEN
 10
505.0121746849502
 20
357.08191239038911
 30
0.0
  0
VERTEX
  5
A971
  8
HIDDEN
 10
504.78250219861019
 20
357.05221953814731
 30
0.0
  0
VERTEX
  5
A972
  8
HIDDEN
 10
504.55273875525569
 20
357.01616591659962
 30
0.0
  0
VERTEX
  5
A973
  8
HIDDEN
 10
504.32317753552189
 20
356.97372058201
 30
0.0
  0
VERTEX
  5
A974
  8
HIDDEN
 10
504.208562526592
 20
356.95009558862478
 30
0.0
  0
VERTEX
  5
A975
  8
HIDDEN
 10
504.09410473897259
 20
356.92486795630742
 30
0.0
  0
VERTEX
  5
A976
  8
HIDDEN
 10
503.86579928473628
 20
356.86960694014903
 30
0.0
  0
VERTEX
  5
A977
  8
HIDDEN
 10
503.63853894820022
 20
356.8079518660897
 30
0.0
  0
VERTEX
  5
A978
  8
HIDDEN
 10
503.41260207421402
 20
356.73993320644928
 30
0.0
  0
VERTEX
  5
A979
  8
HIDDEN
 10
503.1882654844282
 20
356.6655973745784
 30
0.0
  0
VERTEX
  5
A97A
  8
HIDDEN
 10
502.96580236768352
 20
356.58500625117472
 30
0.0
  0
VERTEX
  5
A97B
  8
HIDDEN
 10
502.85535724181068
 20
356.54238834937388
 30
0.0
  0
VERTEX
  5
A97C
  8
HIDDEN
 10
502.74548026382882
 20
356.49823646119069
 30
0.0
  0
VERTEX
  5
A97D
  8
HIDDEN
 10
502.52755913956139
 20
356.4053784015498
 30
0.0
  0
VERTEX
  5
A97E
  8
HIDDEN
 10
502.31228583210691
 20
356.30653324443813
 30
0.0
  0
VERTEX
  5
A97F
  8
HIDDEN
 10
502.09983102177603
 20
356.20177953774743
 30
0.0
  0
VERTEX
  5
A980
  8
HIDDEN
 10
501.89040739499319
 20
356.09122531679333
 30
0.0
  0
VERTEX
  5
A981
  8
HIDDEN
 10
501.6842524032748
 20
355.97500618302428
 30
0.0
  0
VERTEX
  5
A982
  8
HIDDEN
 10
501.58247359749299
 20
355.91481875339412
 30
0.0
  0
VERTEX
  5
A983
  8
HIDDEN
 10
501.48159871301152
 20
355.853272678331
 30
0.0
  0
VERTEX
  5
A984
  8
HIDDEN
 10
501.28267216336758
 20
355.72618953875161
 30
0.0
  0
VERTEX
  5
A985
  8
HIDDEN
 10
501.08768985873581
 20
355.59393471829048
 30
0.0
  0
VERTEX
  5
A986
  8
HIDDEN
 10
500.89685839441819
 20
355.45669818345488
 30
0.0
  0
VERTEX
  5
A987
  8
HIDDEN
 10
500.7103722155785
 20
355.31468047646041
 30
0.0
  0
VERTEX
  5
A988
  8
HIDDEN
 10
500.52841308488081
 20
355.16809184918418
 30
0.0
  0
VERTEX
  5
A989
  8
HIDDEN
 10
500.43918564106042
 20
355.09315265298932
 30
0.0
  0
VERTEX
  5
A98A
  8
HIDDEN
 10
500.35115460261608
 20
355.01715572908307
 30
0.0
  0
VERTEX
  5
A98B
  8
HIDDEN
 10
500.17876392114022
 20
354.86211096708467
 30
0.0
  0
VERTEX
  5
A98C
  8
HIDDEN
 10
500.01139963287108
 20
354.70321108365818
 30
0.0
  0
VERTEX
  5
A98D
  8
HIDDEN
 10
499.92964908452882
 20
354.62239843684131
 30
0.0
  0
VERTEX
  5
A98E
  8
HIDDEN
 10
499.84920966929479
 20
354.54072314995148
 30
0.0
  0
VERTEX
  5
A98F
  8
HIDDEN
 10
499.69232940100721
 20
354.37492645364642
 30
0.0
  0
VERTEX
  5
A990
  8
HIDDEN
 10
499.54087993431602
 20
354.20611095065152
 30
0.0
  0
VERTEX
  5
A991
  8
HIDDEN
 10
499.46722532101847
 20
354.1206642447317
 30
0.0
  0
VERTEX
  5
A992
  8
HIDDEN
 10
499.39491479417148
 20
354.03451294848128
 30
0.0
  0
VERTEX
  5
A993
  8
HIDDEN
 10
499.253133365422
 20
353.85865855442262
 30
0.0
  0
VERTEX
  5
A994
  8
HIDDEN
 10
499.11514106544371
 20
353.67792537899322
 30
0.0
  0
VERTEX
  5
A995
  8
HIDDEN
 10
498.98120553265233
 20
353.49247602686319
 30
0.0
  0
VERTEX
  5
A996
  8
HIDDEN
 10
498.85158225894878
 20
353.30248612462469
 30
0.0
  0
VERTEX
  5
A997
  8
HIDDEN
 10
498.72651324455308
 20
353.1081424716163
 30
0.0
  0
VERTEX
  5
A998
  8
HIDDEN
 10
498.66575824505742
 20
353.0093989302685
 30
0.0
  0
VERTEX
  5
A999
  8
HIDDEN
 10
498.60622589892711
 20
352.90964104378759
 30
0.0
  0
VERTEX
  5
A99A
  8
HIDDEN
 10
498.49093218586319
 20
352.70718484611228
 30
0.0
  0
VERTEX
  5
A99B
  8
HIDDEN
 10
498.38082801665018
 20
352.50098161179631
 30
0.0
  0
VERTEX
  5
A99C
  8
HIDDEN
 10
498.27609347546309
 20
352.29124254236962
 30
0.0
  0
VERTEX
  5
A99D
  8
HIDDEN
 10
498.17689586108349
 20
352.07818710419332
 30
0.0
  0
VERTEX
  5
A99E
  8
HIDDEN
 10
498.08339067904132
 20
351.86204552326132
 30
0.0
  0
VERTEX
  5
A99F
  8
HIDDEN
 10
498.038817836021
 20
351.7528919288614
 30
0.0
  0
VERTEX
  5
A9A0
  8
HIDDEN
 10
497.99572049347449
 20
351.64305718006028
 30
0.0
  0
VERTEX
  5
A9A1
  8
HIDDEN
 10
497.91401392637653
 20
351.42146873064132
 30
0.0
  0
VERTEX
  5
A9A2
  8
HIDDEN
 10
497.83838490352878
 20
351.19753214223039
 30
0.0
  0
VERTEX
  5
A9A3
  8
HIDDEN
 10
497.76893214543537
 20
350.971502642357
 30
0.0
  0
VERTEX
  5
A9A4
  8
HIDDEN
 10
497.70573861724301
 20
350.74363548542118
 30
0.0
  0
VERTEX
  5
A9A5
  8
HIDDEN
 10
497.6488566432692
 20
350.51411926983093
 30
0.0
  0
VERTEX
  5
A9A6
  8
HIDDEN
 10
497.62279844352372
 20
350.39880845854651
 30
0.0
  0
VERTEX
  5
A9A7
  8
HIDDEN
 10
497.59833794823561
 20
350.28317310119979
 30
0.0
  0
VERTEX
  5
A9A8
  8
HIDDEN
 10
497.5542324372953
 20
350.0510631715573
 30
0.0
  0
VERTEX
  5
A9A9
  8
HIDDEN
 10
497.51657576680191
 20
349.81806176465722
 30
0.0
  0
VERTEX
  5
A9AA
  8
HIDDEN
 10
497.48538858523438
 20
349.58444525687207
 30
0.0
  0
VERTEX
  5
A9AB
  8
HIDDEN
 10
497.46067603104592
 20
349.35049207482609
 30
0.0
  0
VERTEX
  5
A9AC
  8
HIDDEN
 10
497.44242748572049
 20
349.11648060912353
 30
0.0
  0
VERTEX
  5
A9AD
  8
HIDDEN
 10
497.4357195865436
 20
348.99953948335991
 30
0.0
  0
VERTEX
  5
A9AE
  8
HIDDEN
 10
497.43061658315582
 20
348.88268708200701
 30
0.0
  0
VERTEX
  5
A9AF
  8
HIDDEN
 10
497.42520148682348
 20
348.64938412239343
 30
0.0
  0
VERTEX
  5
A9B0
  8
HIDDEN
 10
497.42612520201692
 20
348.41684554031121
 30
0.0
  0
VERTEX
  5
A9B1
  8
HIDDEN
 10
497.43331507033969
 20
348.1853501410169
 30
0.0
  0
VERTEX
  5
A9B2
  8
HIDDEN
 10
497.44668197433401
 20
347.9551798833885
 30
0.0
  0
VERTEX
  5
A9B3
  8
HIDDEN
 10
497.46611980810201
 20
347.7266175954752
 30
0.0
  0
VERTEX
  5
A9B4
  8
HIDDEN
 10
497.47807745504969
 20
347.61302750265469
 30
0.0
  0
VERTEX
  5
A9B5
  8
HIDDEN
 10
497.49150523593329
 20
347.49994470435132
 30
0.0
  0
VERTEX
  5
A9B6
  8
HIDDEN
 10
497.52269773500569
 20
347.27543897791412
 30
0.0
  0
VERTEX
  5
A9B7
  8
HIDDEN
 10
497.55954155788709
 20
347.05336315643717
 30
0.0
  0
VERTEX
  5
A9B8
  8
HIDDEN
 10
497.58015708344118
 20
346.94265709302039
 30
0.0
  0
VERTEX
  5
A9B9
  8
HIDDEN
 10
497.60235308711083
 20
346.83161291055171
 30
0.0
  0
VERTEX
  5
A9BA
  8
HIDDEN
 10
497.65154076496879
 20
346.60872808965081
 30
0.0
  0
VERTEX
  5
A9BB
  8
HIDDEN
 10
497.7071950044172
 20
346.38514406499962
 30
0.0
  0
VERTEX
  5
A9BC
  8
HIDDEN
 10
497.73746751422379
 20
346.27322510754391
 30
0.0
  0
VERTEX
  5
A9BD
  8
HIDDEN
 10
497.76937767811478
 20
346.16129292793391
 30
0.0
  0
VERTEX
  5
A9BE
  8
HIDDEN
 10
497.83812299632189
 20
345.93759986922089
 30
0.0
  0
VERTEX
  5
A9BF
  8
HIDDEN
 10
497.91343889440299
 20
345.7144796371403
 30
0.0
  0
VERTEX
  5
A9C0
  8
HIDDEN
 10
497.9953088759973
 20
345.49233325768489
 30
0.0
  0
VERTEX
  5
A9C1
  8
HIDDEN
 10
498.08369211212892
 20
345.27155025483268
 30
0.0
  0
VERTEX
  5
A9C2
  8
HIDDEN
 10
498.17852096537479
 20
345.05251548975639
 30
0.0
  0
VERTEX
  5
A9C3
  8
HIDDEN
 10
498.228324042314
 20
344.94377232756489
 30
0.0
  0
VERTEX
  5
A9C4
  8
HIDDEN
 10
498.2797011438999
 20
344.83560747704831
 30
0.0
  0
VERTEX
  5
A9C5
  8
HIDDEN
 10
498.3871129461599
 20
344.62119487290249
 30
0.0
  0
VERTEX
  5
A9C6
  8
HIDDEN
 10
498.50061293969401
 20
344.40963316531338
 30
0.0
  0
VERTEX
  5
A9C7
  8
HIDDEN
 10
498.6200390786571
 20
344.2012564937105
 30
0.0
  0
VERTEX
  5
A9C8
  8
HIDDEN
 10
498.74524432701662
 20
343.99632701168571
 30
0.0
  0
VERTEX
  5
A9C9
  8
HIDDEN
 10
498.87603585072088
 20
343.79514320646581
 30
0.0
  0
VERTEX
  5
A9CA
  8
HIDDEN
 10
498.94345608502681
 20
343.69605233233671
 30
0.0
  0
VERTEX
  5
A9CB
  8
HIDDEN
 10
499.01218542857299
 20
343.59801197957211
 30
0.0
  0
VERTEX
  5
A9CC
  8
HIDDEN
 10
499.15344137015057
 20
343.40522663435968
 30
0.0
  0
VERTEX
  5
A9CD
  8
HIDDEN
 10
499.29953051876799
 20
343.21706373034522
 30
0.0
  0
VERTEX
  5
A9CE
  8
HIDDEN
 10
499.37429689784022
 20
343.12479682652452
 30
0.0
  0
SEQEND
  5
A9CF
  8
HIDDEN
  0
LINE
  5
9E13
  8
0
 10
499.37429689784022
 20
343.12479682652452
 30
0.0
 11
501.12467465829837
 21
340.99504281768151
 31
0.0
  0
LINE
  5
9E14
  8
0
 10
511.43859863660612
 20
355.18909856529029
 30
0.0
 11
513.59166436436215
 21
353.41956163707169
 31
0.0
  0
LINE
  5
9E55
  8
2
 10
64.649865850776095
 20
312.56715979627393
 30
0.0
 11
90.449865850776177
 21
312.56715979627393
 31
0.0
  0
LINE
  5
9E56
  8
2
 10
64.649865850776095
 20
286.56715979627393
 30
0.0
 11
90.449865850776177
 21
286.56715979627393
 31
0.0
  0
LINE
  5
9E5D
  8
0
 10
64.449865850776177
 20
286.56715979627393
 30
0.0
 11
64.649865850776095
 21
286.56715979627393
 31
0.0
  0
LINE
  5
9F3F
  8
0
 10
103.94986585077611
 20
315.06715979627393
 30
0.0
 11
103.94986585077611
 21
284.06715979627393
 31
0.0
  0
LINE
  5
9F41
  8
2
 10
90.449865850776177
 20
312.56715979627393
 30
0.0
 11
90.449865850776163
 21
311.56715979627393
 31
0.0
  0
LINE
  5
9F43
  8
2
 10
90.449865850776177
 20
311.56715979627393
 30
0.0
 11
91.449865850776163
 21
311.56715979627393
 31
0.0
  0
LINE
  5
9F44
  8
2
 10
90.449865850776177
 20
287.56715979627393
 30
0.0
 11
91.449865850776163
 21
287.56715979627393
 31
0.0
  0
LINE
  5
9F45
  8
2
 10
90.449865850776177
 20
287.56715979627393
 30
0.0
 11
90.449865850776177
 21
286.56715979627393
 31
0.0
  0
LINE
  5
9F46
  8
2
 10
91.449865850776163
 20
313.56715979627393
 30
0.0
 11
91.449865850776163
 21
285.56715979627393
 31
0.0
  0
LINE
  5
9F47
  8
1
 10
51.327265290631658
 20
299.56715979627398
 30
0.0
 11
117.0724664109207
 21
299.56715979627381
 31
0.0
  0
LINE
  5
9F4B
  8
2
 10
91.449865850776163
 20
313.56715979627393
 30
0.0
 11
102.44986585077621
 21
313.56715979627393
 31
0.0
  0
LINE
  5
9F4C
  8
2
 10
91.449865850776163
 20
285.56715979627393
 30
0.0
 11
102.44986585077621
 21
285.56715979627393
 31
0.0
  0
LINE
  5
9F4E
  8
2
 10
91.449865850776163
 20
305.56715979627393
 30
0.0
 11
64.449865850776177
 21
305.56715979627393
 31
0.0
  0
LINE
  5
9F4F
  8
2
 10
91.449865850776163
 20
293.56715979627393
 30
0.0
 11
64.449865850776177
 21
293.56715979627393
 31
0.0
  0
ARC
  5
A1F1
  8
0
 10
287.7871229727661
 20
156.3169273140098
 30
0.0
 40
9.0000000000000089
 50
0.0
 51
180.0
  0
LINE
  5
A1F2
  8
0
 10
296.7871229727661
 20
123.9169273140098
 30
0.0
 11
296.7871229727661
 21
156.3169273140098
 31
0.0
  0
LINE
  5
A1F3
  8
0
 10
278.78712297276621
 20
156.3169273140098
 30
0.0
 11
278.78712297276621
 21
123.9169273140098
 31
0.0
  0
ARC
  5
A1F4
  8
0
 10
282.38712297276618
 20
123.9169273140098
 30
0.0
 40
3.6000000000000081
 50
180.0
 51
240.00000000000051
  0
ARC
  5
A1F5
  8
0
 10
293.18712297276608
 20
123.9169273140098
 30
0.0
 40
3.6000000000000081
 50
299.99999999999949
 51
0.0
  0
LINE
  5
A1F7
  8
0
 10
294.9871229727662
 20
110.3169273140098
 30
0.0
 11
294.9871229727662
 21
120.79923586038581
 31
0.0
  0
LINE
  5
A1F8
  8
0
 10
280.58712297276622
 20
120.79923586038581
 30
0.0
 11
280.58712297276622
 21
110.3169273140098
 31
0.0
  0
LINE
  5
A1FE
  8
0
 10
278.78712297276621
 20
156.3169273140098
 30
0.0
 11
296.7871229727661
 21
156.3169273140098
 31
0.0
  0
LINE
  5
A1FF
  8
0
 10
278.78712297276621
 20
123.9169273140098
 30
0.0
 11
296.7871229727661
 21
123.9169273140098
 31
0.0
  0
LINE
  5
A200
  8
0
 10
280.58712297276622
 20
120.79923586038581
 30
0.0
 11
294.9871229727662
 21
120.79923586038581
 31
0.0
  0
LINE
  5
A206
  8
2
 10
303.2871229727661
 20
108.8169273140098
 30
0.0
 11
303.2871229727661
 21
110.3169273140098
 31
0.0
  0
LINE
  5
A207
  8
2
 10
272.28712297276621
 20
110.3169273140098
 30
0.0
 11
272.28712297276621
 21
108.8169273140098
 31
0.0
  0
LINE
  5
A208
  8
0
 10
348.25471963369091
 20
106.8812985555833
 30
0.0
 11
303.2871229727661
 21
110.3169273140098
 31
0.0
  0
LINE
  5
A209
  8
0
 10
272.28712297276621
 20
110.3169273140098
 30
0.0
 11
227.31952631184279
 21
106.8812985555833
 31
0.0
  0
ARC
  5
A20A
  8
0
 10
227.48712297276609
 20
104.68769162651709
 30
0.0
 40
2.1999999999999851
 50
94.36904257703705
 51
180.0
  0
ARC
  5
A20B
  8
0
 10
348.08712297276611
 20
104.68769162651709
 30
0.0
 40
2.1999999999999891
 50
0.0
 51
85.630957422956399
  0
LINE
  5
A20C
  8
0
 10
350.28712297276621
 20
83.191927314009874
 30
0.0
 11
350.28712297276621
 21
104.68769162651709
 31
0.0
  0
LINE
  5
A20D
  8
0
 10
225.2871229727661
 20
104.68769162651709
 30
0.0
 11
225.2871229727661
 21
83.191927314009746
 31
0.0
  0
ARC
  5
A20E
  8
0
 10
226.6621229727661
 20
83.191927314009746
 30
0.0
 40
1.375000000000014
 50
180.0
 51
270.0
  0
ARC
  5
A20F
  8
0
 10
348.91212297276621
 20
83.191927314009874
 30
0.0
 40
1.375
 50
270.0
 51
0.0
  0
LINE
  5
A210
  8
0
 10
305.2871229727661
 20
71.016927314009905
 30
0.0
 11
305.2871229727661
 21
81.816927314009746
 31
0.0
  0
LINE
  5
A211
  8
0
 10
270.28712297276621
 20
81.816927314009746
 30
0.0
 11
270.28712297276621
 21
71.016927314009791
 31
0.0
  0
LINE
  5
A212
  8
0
 10
274.78712297276621
 20
71.016927314009791
 30
0.0
 11
274.78712297276621
 21
70.81692731400986
 31
0.0
  0
LINE
  5
A213
  8
2
 10
303.2871229727661
 20
108.8169273140098
 30
0.0
 11
272.28712297276621
 21
108.8169273140098
 31
0.0
  0
LINE
  5
A214
  8
0
 10
227.31952631184129
 20
106.8812985555833
 30
0.0
 11
348.25471963369091
 21
106.8812985555833
 31
0.0
  0
LINE
  5
A215
  8
0
 10
226.6621229727661
 20
81.816927314009746
 30
0.0
 11
348.91212297276621
 21
81.816927314009746
 31
0.0
  0
LINE
  5
A216
  8
0
 10
270.28712297276621
 20
71.016927314009791
 30
0.0
 11
305.2871229727661
 21
71.016927314009791
 31
0.0
  0
LINE
  5
A217
  8
0
 10
274.78712297276621
 20
70.81692731400986
 30
0.0
 11
300.7871229727661
 21
70.81692731400986
 31
0.0
  0
LINE
  5
A218
  8
2
 10
274.78712297276621
 20
71.016927314009791
 30
0.0
 11
274.78712297276621
 21
96.816927314009845
 31
0.0
  0
LINE
  5
A219
  8
2
 10
300.7871229727661
 20
71.016927314009791
 30
0.0
 11
300.7871229727661
 21
96.816927314009845
 31
0.0
  0
LINE
  5
A21A
  8
0
 10
300.7871229727661
 20
70.81692731400986
 30
0.0
 11
300.7871229727661
 21
71.016927314009791
 31
0.0
  0
LINE
  5
A21B
  8
0
 10
272.28712297276621
 20
110.3169273140098
 30
0.0
 11
303.2871229727661
 21
110.3169273140098
 31
0.0
  0
LINE
  5
A21C
  8
2
 10
274.78712297276621
 20
96.816927314009845
 30
0.0
 11
275.7871229727661
 21
96.816927314009845
 31
0.0
  0
LINE
  5
A21D
  8
2
 10
273.78712297276621
 20
97.816927314009845
 30
0.0
 11
301.78712297276621
 21
97.816927314009845
 31
0.0
  0
LINE
  5
A21E
  8
2
 10
299.78712297276621
 20
96.816927314009845
 30
0.0
 11
300.7871229727661
 21
96.816927314009845
 31
0.0
  0
LINE
  5
A21F
  8
2
 10
275.7871229727661
 20
96.816927314009845
 30
0.0
 11
275.7871229727661
 21
97.816927314009845
 31
0.0
  0
LINE
  5
A220
  8
2
 10
299.78712297276621
 20
96.816927314009845
 30
0.0
 11
299.78712297276621
 21
97.816927314009845
 31
0.0
  0
LINE
  5
A221
  8
1
 10
287.7871229727661
 20
57.69432675386534
 30
0.0
 11
287.7871229727661
 21
178.43952787415429
 31
0.0
  0
LINE
  5
A222
  8
2
 10
273.78712297276621
 20
97.816927314009845
 30
0.0
 11
273.78712297276621
 21
108.8169273140098
 31
0.0
  0
LINE
  5
A223
  8
2
 10
301.78712297276621
 20
97.816927314009845
 30
0.0
 11
301.78712297276621
 21
108.8169273140098
 31
0.0
  0
LINE
  5
A224
  8
2
 10
281.78712297276621
 20
97.816927314009845
 30
0.0
 11
281.78712297276621
 21
70.81692731400986
 31
0.0
  0
LINE
  5
A225
  8
2
 10
293.78712297276621
 20
97.816927314009845
 30
0.0
 11
293.78712297276621
 21
70.81692731400986
 31
0.0
  0
LINE
  5
A4A9
  8
2
 10
691.33349278884646
 20
284.06715979627393
 30
0.0
 11
689.83349278884646
 21
284.06715979627393
 31
0.0
  0
LINE
  5
A4AA
  8
2
 10
689.83349278884646
 20
315.06715979627393
 30
0.0
 11
691.33349278884646
 21
315.06715979627393
 31
0.0
  0
LINE
  5
A4AB
  8
0
 10
693.26912154727313
 20
239.0995631353492
 30
0.0
 11
689.83349278884646
 21
284.06715979627393
 31
0.0
  0
LINE
  5
A4AC
  8
0
 10
689.83349278884646
 20
315.06715979627393
 30
0.0
 11
693.26912154727313
 21
360.03475645719732
 31
0.0
  0
ARC
  5
A4AD
  8
0
 10
695.46272847633918
 20
359.867159796274
 30
0.0
 40
2.1999999999999851
 50
90.0
 51
175.63095742296301
  0
ARC
  5
A4AE
  8
0
 10
695.46272847633918
 20
239.267159796274
 30
0.0
 40
2.1999999999999891
 50
184.36904257704339
 51
270.0
  0
LINE
  5
A4AF
  8
0
 10
716.95849278884657
 20
237.0671597962739
 30
0.0
 11
695.46272847633918
 21
237.0671597962739
 31
0.0
  0
LINE
  5
A4B0
  8
0
 10
695.46272847633918
 20
362.06715979627398
 30
0.0
 11
716.95849278884657
 21
362.06715979627398
 31
0.0
  0
ARC
  5
A4B1
  8
0
 10
716.95849278884657
 20
360.69215979627398
 30
0.0
 40
1.375000000000014
 50
0.000000000000007
 51
90.0
  0
ARC
  5
A4B2
  8
0
 10
716.95849278884657
 20
238.4421597962739
 30
0.0
 40
1.375
 50
270.0
 51
0.000000000000007
  0
LINE
  5
A4B3
  8
0
 10
729.13349278884652
 20
282.06715979627393
 30
0.0
 11
718.33349278884657
 21
282.06715979627393
 31
0.0
  0
LINE
  5
A4B4
  8
0
 10
718.33349278884657
 20
317.06715979627393
 30
0.0
 11
729.13349278884664
 21
317.06715979627393
 31
0.0
  0
LINE
  5
A4B5
  8
0
 10
729.13349278884664
 20
312.56715979627393
 30
0.0
 11
729.33349278884657
 21
312.56715979627393
 31
0.0
  0
LINE
  5
A4B6
  8
2
 10
691.33349278884646
 20
284.06715979627393
 30
0.0
 11
691.33349278884646
 21
315.06715979627393
 31
0.0
  0
LINE
  5
A4B7
  8
0
 10
693.26912154727313
 20
360.0347564571988
 30
0.0
 11
693.26912154727313
 21
239.0995631353492
 31
0.0
  0
LINE
  5
A4B8
  8
0
 10
718.33349278884657
 20
360.69215979627398
 30
0.0
 11
718.33349278884657
 21
238.4421597962739
 31
0.0
  0
LINE
  5
A4B9
  8
0
 10
729.13349278884664
 20
317.06715979627393
 30
0.0
 11
729.13349278884664
 21
282.06715979627393
 31
0.0
  0
LINE
  5
A4BA
  8
0
 10
729.33349278884657
 20
312.56715979627393
 30
0.0
 11
729.33349278884657
 21
286.56715979627393
 31
0.0
  0
LINE
  5
A4BB
  8
2
 10
729.13349278884664
 20
312.56715979627393
 30
0.0
 11
703.33349278884646
 21
312.56715979627393
 31
0.0
  0
LINE
  5
A4BC
  8
2
 10
729.13349278884664
 20
286.56715979627393
 30
0.0
 11
703.33349278884646
 21
286.56715979627393
 31
0.0
  0
LINE
  5
A4BD
  8
0
 10
729.33349278884657
 20
286.56715979627393
 30
0.0
 11
729.13349278884664
 21
286.56715979627393
 31
0.0
  0
LINE
  5
A4BE
  8
0
 10
689.83349278884646
 20
315.06715979627393
 30
0.0
 11
689.83349278884646
 21
284.06715979627393
 31
0.0
  0
LINE
  5
A4BF
  8
2
 10
703.33349278884646
 20
312.56715979627393
 30
0.0
 11
703.33349278884646
 21
311.56715979627393
 31
0.0
  0
LINE
  5
A4C0
  8
2
 10
702.33349278884646
 20
313.56715979627393
 30
0.0
 11
702.33349278884646
 21
285.56715979627393
 31
0.0
  0
LINE
  5
A4C1
  8
2
 10
703.33349278884646
 20
287.56715979627393
 30
0.0
 11
703.33349278884646
 21
286.56715979627393
 31
0.0
  0
LINE
  5
A4C2
  8
2
 10
703.33349278884646
 20
311.56715979627393
 30
0.0
 11
702.33349278884646
 21
311.56715979627393
 31
0.0
  0
LINE
  5
A4C3
  8
2
 10
703.33349278884646
 20
287.56715979627393
 30
0.0
 11
702.33349278884646
 21
287.56715979627393
 31
0.0
  0
LINE
  5
A4C4
  8
1
 10
742.45609334899098
 20
299.56715979627398
 30
0.0
 11
676.71089222870205
 21
299.56715979627381
 31
0.0
  0
LINE
  5
A4C5
  8
2
 10
702.33349278884646
 20
313.56715979627393
 30
0.0
 11
691.33349278884646
 21
313.56715979627393
 31
0.0
  0
LINE
  5
A4C6
  8
2
 10
702.33349278884646
 20
285.56715979627393
 30
0.0
 11
691.33349278884646
 21
285.56715979627393
 31
0.0
  0
LINE
  5
A4C7
  8
2
 10
702.33349278884646
 20
305.56715979627393
 30
0.0
 11
729.33349278884657
 21
305.56715979627393
 31
0.0
  0
LINE
  5
A4C8
  8
2
 10
702.33349278884646
 20
293.56715979627393
 30
0.0
 11
729.33349278884657
 21
293.56715979627393
 31
0.0
  0
LINE
  5
A4DE
  8
2
 10
490.49623566685659
 20
108.8169273140098
 30
0.0
 11
490.49623566685659
 21
110.3169273140098
 31
0.0
  0
LINE
  5
A4DF
  8
2
 10
521.49623566685648
 20
110.3169273140098
 30
0.0
 11
521.49623566685648
 21
108.8169273140098
 31
0.0
  0
LINE
  5
A4E0
  8
0
 10
445.52863900593178
 20
106.8812985555833
 30
0.0
 11
490.49623566685659
 21
110.3169273140098
 31
0.0
  0
LINE
  5
A4E1
  8
0
 10
521.49623566685648
 20
110.3169273140098
 30
0.0
 11
566.46383232777998
 21
106.8812985555833
 31
0.0
  0
ARC
  5
A4E2
  8
0
 10
566.29623566685655
 20
104.68769162651709
 30
0.0
 40
2.1999999999999851
 50
0.000000000000007
 51
85.630957422962894
  0
ARC
  5
A4E3
  8
0
 10
445.69623566685658
 20
104.68769162651709
 30
0.0
 40
2.1999999999999891
 50
94.369042577043615
 51
180.0
  0
LINE
  5
A4E4
  8
0
 10
443.49623566685659
 20
83.191927314009874
 30
0.0
 11
443.49623566685659
 21
104.68769162651709
 31
0.0
  0
LINE
  5
A4E5
  8
0
 10
568.49623566685659
 20
104.68769162651709
 30
0.0
 11
568.49623566685659
 21
83.191927314009746
 31
0.0
  0
ARC
  5
A4E6
  8
0
 10
567.12123566685659
 20
83.191927314009746
 30
0.0
 40
1.375000000000014
 50
270.0
 51
0.000000000000007
  0
ARC
  5
A4E7
  8
0
 10
444.87123566685659
 20
83.191927314009874
 30
0.0
 40
1.375
 50
180.0
 51
270.0
  0
LINE
  5
A4E8
  8
0
 10
488.49623566685648
 20
71.016927314009905
 30
0.0
 11
488.49623566685648
 21
81.816927314009746
 31
0.0
  0
LINE
  5
A4E9
  8
0
 10
523.49623566685659
 20
81.816927314009746
 30
0.0
 11
523.49623566685659
 21
71.016927314009791
 31
0.0
  0
LINE
  5
A4EA
  8
0
 10
518.99623566685659
 20
71.016927314009791
 30
0.0
 11
518.99623566685659
 21
70.81692731400986
 31
0.0
  0
LINE
  5
A4EB
  8
2
 10
490.49623566685659
 20
108.8169273140098
 30
0.0
 11
521.49623566685648
 21
108.8169273140098
 31
0.0
  0
LINE
  5
A4EC
  8
0
 10
566.46383232778135
 20
106.8812985555833
 30
0.0
 11
445.52863900593178
 21
106.8812985555833
 31
0.0
  0
LINE
  5
A4ED
  8
0
 10
567.12123566685659
 20
81.816927314009746
 30
0.0
 11
444.87123566685659
 21
81.816927314009746
 31
0.0
  0
LINE
  5
A4EE
  8
0
 10
523.49623566685659
 20
71.016927314009791
 30
0.0
 11
488.49623566685648
 21
71.016927314009791
 31
0.0
  0
LINE
  5
A4EF
  8
0
 10
518.99623566685659
 20
70.81692731400986
 30
0.0
 11
492.99623566685659
 21
70.81692731400986
 31
0.0
  0
LINE
  5
A4F0
  8
2
 10
518.99623566685659
 20
71.016927314009791
 30
0.0
 11
518.99623566685659
 21
96.816927314009845
 31
0.0
  0
LINE
  5
A4F1
  8
2
 10
492.99623566685659
 20
71.016927314009791
 30
0.0
 11
492.99623566685659
 21
96.816927314009845
 31
0.0
  0
LINE
  5
A4F2
  8
0
 10
492.99623566685659
 20
70.81692731400986
 30
0.0
 11
492.99623566685659
 21
71.016927314009791
 31
0.0
  0
LINE
  5
A4F3
  8
0
 10
521.49623566685648
 20
110.3169273140098
 30
0.0
 11
490.49623566685659
 21
110.3169273140098
 31
0.0
  0
LINE
  5
A4F4
  8
2
 10
518.99623566685659
 20
96.816927314009845
 30
0.0
 11
517.99623566685659
 21
96.816927314009845
 31
0.0
  0
LINE
  5
A4F5
  8
2
 10
519.99623566685648
 20
97.816927314009845
 30
0.0
 11
491.99623566685648
 21
97.816927314009845
 31
0.0
  0
LINE
  5
A4F6
  8
2
 10
493.99623566685659
 20
96.816927314009845
 30
0.0
 11
492.99623566685659
 21
96.816927314009845
 31
0.0
  0
LINE
  5
A4F7
  8
2
 10
517.99623566685659
 20
96.816927314009845
 30
0.0
 11
517.99623566685659
 21
97.816927314009845
 31
0.0
  0
LINE
  5
A4F8
  8
2
 10
493.99623566685659
 20
96.816927314009845
 30
0.0
 11
493.99623566685659
 21
97.816927314009845
 31
0.0
  0
LINE
  5
A4F9
  8
1
 10
505.99623566685659
 20
57.69432675386534
 30
0.0
 11
505.99623566685659
 21
123.43952787415429
 31
0.0
  0
LINE
  5
A4FA
  8
2
 10
519.99623566685648
 20
97.816927314009845
 30
0.0
 11
519.99623566685648
 21
108.8169273140098
 31
0.0
  0
LINE
  5
A4FB
  8
2
 10
491.99623566685648
 20
97.816927314009845
 30
0.0
 11
491.99623566685648
 21
108.8169273140098
 31
0.0
  0
LINE
  5
A4FC
  8
2
 10
511.99623566685648
 20
97.816927314009845
 30
0.0
 11
511.99623566685648
 21
70.81692731400986
 31
0.0
  0
LINE
  5
A4FD
  8
2
 10
499.99623566685648
 20
97.816927314009845
 30
0.0
 11
499.99623566685648
 21
70.81692731400986
 31
0.0
  0
TEXT
  5
A76A
  8
0
 62
     3
 10
0.0
 20
0.0
 30
0.0
 40
10.0
  1
EDHN125F-GR
  7
STANDARD1
  0
ENDSEC
  0
EOF
