  0
SECTION
  2
HEADER
  9
$ACADVER
  1
AC1009
  9
$INSBASE
 10
0.0
 20
0.0
 30
0.0
  9
$EXTMIN
 10
0.0
 20
-2.960436562073669
 30
-0.0000000000000089
  9
$EXTMAX
 10
352.583741603937483
 20
325.9369209265666996
 30
0.0
  9
$LIMMIN
 10
0.0
 20
0.0
  9
$LIMMAX
 10
750.0
 20
540.0
  9
$ORTHOMODE
 70
     1
  9
$REGENMODE
 70
     1
  9
$FILLMODE
 70
     1
  9
$QTEXTMODE
 70
     0
  9
$MIRRTEXT
 70
     0
  9
$DRAGMODE
 70
     2
  9
$LTSCALE
 40
20.0
  9
$OSMODE
 70
    37
  9
$ATTMODE
 70
     1
  9
$TEXTSIZE
 40
0.2
  9
$TRACEWID
 40
0.05
  9
$TEXTSTYLE
  7
STANDARD
  9
$CLAYER
  8
0
  9
$CELTYPE
  6
BYLAYER
  9
$CECOLOR
 62
   256
  9
$DIMSCALE
 40
1.0
  9
$DIMASZ
 40
3.0
  9
$DIMEXO
 40
2.0
  9
$DIMDLI
 40
0.3799999999999999
  9
$DIMRND
 40
0.0
  9
$DIMDLE
 40
0.0
  9
$DIMEXE
 40
2.0
  9
$DIMTP
 40
0.0
  9
$DIMTM
 40
0.0
  9
$DIMTXT
 40
3.0
  9
$DIMCEN
 40
0.09
  9
$DIMTSZ
 40
0.0
  9
$DIMTOL
 70
     0
  9
$DIMLIM
 70
     0
  9
$DIMTIH
 70
     0
  9
$DIMTOH
 70
     0
  9
$DIMSE1
 70
     0
  9
$DIMSE2
 70
     0
  9
$DIMTAD
 70
     1
  9
$DIMZIN
 70
     8
  9
$DIMBLK
  1

  9
$DIMASO
 70
     1
  9
$DIMSHO
 70
     0
  9
$DIMPOST
  1

  9
$DIMAPOST
  1

  9
$DIMALT
 70
     0
  9
$DIMALTD
 70
     2
  9
$DIMALTF
 40
25.3999999999999986
  9
$DIMLFAC
 40
1.0
  9
$DIMTOFL
 70
     0
  9
$DIMTVP
 40
1.6000000000000001
  9
$DIMTIX
 70
     1
  9
$DIMSOXD
 70
     0
  9
$DIMSAH
 70
     0
  9
$DIMBLK1
  1

  9
$DIMBLK2
  1

  9
$DIMSTYLE
  2
STANDARD
  9
$DIMCLRD
 70
     0
  9
$DIMCLRE
 70
     0
  9
$DIMCLRT
 70
     0
  9
$DIMTFAC
 40
1.0
  9
$DIMGAP
 40
1.5
  9
$LUNITS
 70
     2
  9
$LUPREC
 70
     1
  9
$SKETCHINC
 40
0.1
  9
$FILLETRAD
 40
0.2
  9
$AUNITS
 70
     0
  9
$AUPREC
 70
     0
  9
$MENU
  1
E:\r13\win\SUPPORT\ACAD
  9
$ELEVATION
 40
0.0
  9
$PELEVATION
 40
0.0
  9
$THICKNESS
 40
0.0
  9
$LIMCHECK
 70
     0
  9
$BLIPMODE
 70
     0
  9
$CHAMFERA
 40
0.0
  9
$CHAMFERB
 40
0.0
  9
$SKPOLY
 70
     0
  9
$TDCREATE
 40
2449839.780729167163372
  9
$TDUPDATE
 40
2460263.6914699068292975
  9
$TDINDWG
 40
0.5214466898
  9
$TDUSRTIMER
 40
0.5214466898
  9
$USRTIMER
 70
     1
  9
$ANGBASE
 50
0.0
  9
$ANGDIR
 70
     0
  9
$PDMODE
 70
     0
  9
$PDSIZE
 40
0.0
  9
$PLINEWID
 40
0.0
  9
$COORDS
 70
     1
  9
$SPLFRAME
 70
     0
  9
$SPLINETYPE
 70
     6
  9
$SPLINESEGS
 70
     8
  9
$ATTDIA
 70
     1
  9
$ATTREQ
 70
     1
  9
$HANDLING
 70
     1
  9
$HANDSEED
  5
902C
  9
$SURFTAB1
 70
     6
  9
$SURFTAB2
 70
     6
  9
$SURFTYPE
 70
     6
  9
$SURFU
 70
     6
  9
$SURFV
 70
     6
  9
$UCSNAME
  2

  9
$UCSORG
 10
0.0
 20
0.0
 30
0.0
  9
$UCSXDIR
 10
1.0
 20
0.0
 30
0.0
  9
$UCSYDIR
 10
0.0
 20
1.0
 30
0.0
  9
$PUCSNAME
  2

  9
$PUCSORG
 10
0.0
 20
0.0
 30
0.0
  9
$PUCSXDIR
 10
1.0
 20
0.0
 30
0.0
  9
$PUCSYDIR
 10
0.0
 20
1.0
 30
0.0
  9
$USERI1
 70
     0
  9
$USERI2
 70
     1
  9
$USERI3
 70
     1
  9
$USERI4
 70
     0
  9
$USERI5
 70
     0
  9
$USERR1
 40
0.0
  9
$USERR2
 40
0.0
  9
$USERR3
 40
0.0
  9
$USERR4
 40
0.0
  9
$USERR5
 40
0.0
  9
$WORLDVIEW
 70
     1
  9
$SHADEDGE
 70
     3
  9
$SHADEDIF
 70
    70
  9
$TILEMODE
 70
     1
  9
$MAXACTVP
 70
    16
  9
$PLIMCHECK
 70
     0
  9
$PEXTMIN
 10
1.0000000000000000E+20
 20
1.0000000000000000E+20
 30
1.0000000000000000E+20
  9
$PEXTMAX
 10
-1.0000000000000000E+20
 20
-1.0000000000000000E+20
 30
-1.0000000000000000E+20
  9
$PLIMMIN
 10
0.0
 20
0.0
  9
$PLIMMAX
 10
12.0
 20
9.0
  9
$UNITMODE
 70
     0
  9
$VISRETAIN
 70
     0
  9
$PLINEGEN
 70
     0
  9
$PSLTSCALE
 70
     0
  0
ENDSEC
  0
SECTION
  2
TABLES
  0
TABLE
  2
VPORT
 70
     1
  0
VPORT
  2
*ACTIVE
 70
     0
 10
0.0
 20
0.0
 11
1.0
 21
1.0
 12
587.130541871921082
 22
250.0
 13
0.0
 23
0.0
 14
20.0
 24
20.0
 15
20.0
 25
20.0
 16
0.0
 26
0.0
 36
1.0
 17
0.0
 27
0.0
 37
0.0
 40
500.0
 41
2.3485221674876842
 42
50.0
 43
0.0
 44
0.0
 50
0.0
 51
0.0
 71
     0
 72
   500
 73
     1
 74
     0
 75
     0
 76
     0
 77
     0
 78
     0
  0
ENDTAB
  0
TABLE
  2
LTYPE
 70
     4
  0
LTYPE
  2
CONTINUOUS
 70
     0
  3
Solid Line
 72
    65
 73
     0
 40
0.0
  0
LTYPE
  2
CENTER
 70
     0
  3
____ _ ____ _ ____ _ ____ _ ____ _ ____ _ ____
 72
    65
 73
     4
 40
2.0
 49
1.25
 49
-0.25
 49
0.25
 49
-0.25
  0
LTYPE
  2
HIDDEN
 70
     0
  3
Hidden __ __ __ __ __ __ __ __ __ __ __ __ __ _
 72
    65
 73
     2
 40
0.375
 49
0.25
 49
-0.125
  0
LTYPE
  2
PHANTOM2
 70
     0
  3
___ _ _ ___ _ _ ___ _ _ ___ _ _
 72
    65
 73
     6
 40
1.25
 49
0.625
 49
-0.125
 49
0.125
 49
-0.125
 49
0.125
 49
-0.125
  0
ENDTAB
  0
TABLE
  2
LAYER
 70
     4
  0
LAYER
  2
0
 70
     0
 62
     7
  6
CONTINUOUS
  0
LAYER
  2
1
 70
     0
 62
     1
  6
CENTER
  0
LAYER
  2
2
 70
     0
 62
     2
  6
HIDDEN
  0
LAYER
  2
DEFPOINTS
 70
     0
 62
     7
  6
CONTINUOUS
  0
ENDTAB
  0
TABLE
  2
STYLE
 70
     2
  0
STYLE
  2
STANDARD
 70
     0
 40
0.0
 41
1.0
 50
0.0
 71
     0
 42
0.2
  3
TXT
  4
BIGFONT
  0
STYLE
  2
STANDARD1
 70
     0
 40
0.0
 41
1.0
 50
0.0
 71
     0
 42
3.0
  3
txt
  4

  0
ENDTAB
  0
TABLE
  2
VIEW
 70
     1
  0
VIEW
  2
ALL
 70
     0
 40
540.0
 10
441.9831932773108747
 20
270.0
 41
0.0
 11
0.0
 21
0.0
 31
1.0
 12
0.0
 22
0.0
 32
0.0
 42
0.0
 43
0.0
 44
0.0
 50
0.0
 71
     0
  0
ENDTAB
  0
TABLE
  2
UCS
 70
     0
  0
ENDTAB
  0
TABLE
  2
APPID
 70
    11
  0
APPID
  2
ACAD
 70
     0
  0
APPID
  2
ACAD_EXEMPT_FROM_CAD_STANDARDS
 70
     0
  0
APPID
  2
ACAD_DSTYLE_DIMJAG
 70
     0
  0
APPID
  2
ACAD_DSTYLE_DIMTALN
 70
     0
  0
APPID
  2
ACAD_MLEADERVER
 70
     0
  0
APPID
  2
GENIUS_GENODEF_13
 70
     0
  0
APPID
  2
GENIUS_GENOBJ-N-FIL_13
 70
     0
  0
APPID
  2
GENIUS_GENOREF_13
 70
     0
  0
APPID
  2
ACAD_PSEXT
 70
     0
  0
APPID
  2
ACAD_DSTYLE_DIMRADIAL_EXTENSION
 70
     0
  0
APPID
  2
ACAD_NAV_VCDISPLAY
 70
     0
  0
ENDTAB
  0
TABLE
  2
DIMSTYLE
 70
     1
  0
DIMSTYLE
  2
STANDARD
 70
     0
  3

  4

  5

  6

  7

 40
1.0
 41
0.18
 42
0.0625
 43
0.38
 44
0.18
 45
0.0
 46
0.0
 47
0.0
 48
0.0
140
0.18
141
0.09
142
0.0
143
25.3999999999999986
144
1.0
145
0.0
146
1.0
147
0.09
 71
     0
 72
     0
 73
     1
 74
     1
 75
     0
 76
     0
 77
     0
 78
     0
170
     0
171
     2
172
     0
173
     0
174
     0
175
     0
176
     0
177
     0
178
     0
  0
ENDTAB
  0
ENDSEC
  0
SECTION
  2
BLOCKS
  0
BLOCK
  8
0
  2
$MODEL_SPACE
 70
     0
 10
0.0
 20
0.0
 30
0.0
  3
$MODEL_SPACE
  1

  0
ENDBLK
  5
13C
  8
0
  0
BLOCK
 67
     1
  8
0
  2
$PAPER_SPACE
 70
     0
 10
0.0
 20
0.0
 30
0.0
  3
$PAPER_SPACE
  1

  0
ENDBLK
  5
13A
 67
     1
  8
0
  0
ENDSEC
  0
SECTION
  2
ENTITIES
  0
CIRCLE
  5
55E
  8
0
 10
119.9324832062926021
 20
305.6562129481886814
 30
0.0
 40
9.0
  0
LINE
  5
567
  8
1
 10
102.6517752279145981
 20
305.6562129481886814
 30
0.0
 11
137.2131911846707055
 21
305.6562129481886814
 31
0.0
  0
CIRCLE
  5
569
  8
0
 10
119.9324832062926021
 20
266.6562129481886814
 30
0.0
 40
13.5000000000000497
  0
CIRCLE
  5
56A
  8
0
 10
119.9324832062926021
 20
266.6562129481886814
 30
0.0
 40
49.2263279445727591
  0
CIRCLE
  5
56B
  8
0
 10
119.9324832062926021
 20
266.6562129481886814
 30
0.0
 40
50.9999999999999929
  0
LINE
  5
57D
  8
1
 10
119.9324832062926021
 20
325.9369209265666996
 30
0.0
 11
119.9324832062926021
 21
207.3755049698106916
 31
0.0
  0
LINE
  5
57E
  8
1
 10
60.6517752279146407
 20
266.6562129481886814
 30
0.0
 11
179.2131911846705918
 21
266.6562129481886814
 31
0.0
  0
LINE
  5
3920
  8
1
 10
119.9324832062925026
 20
41.6709335254553181
 30
0.0
 11
119.9324832062925026
 21
152.2323494822113901
 31
0.0
  0
ARC
  5
8AD0
  8
0
 10
315.2358764876101986
 20
217.6562129481887098
 30
0.0
 40
2.0000000000000191
 50
184.7119099616444089
 51
270.0
  0
ARC
  5
8AD1
  8
0
 10
315.2358764876101986
 20
315.6562129481886814
 30
0.0
 40
2.0000000000000209
 50
90.0
 51
175.2880900383555058
  0
LINE
  5
8AD2
  8
0
 10
333.0530336255595216
 20
317.6562129481886814
 30
0.0
 11
315.2358764876101986
 21
317.6562129481886814
 31
0.0
  0
LINE
  5
8AD3
  8
0
 10
315.2358764876101986
 20
215.6562129481887098
 30
0.0
 11
333.0530336255595216
 21
215.6562129481887098
 31
0.0
  0
ARC
  5
8AD4
  8
0
 10
333.0530336255595216
 20
216.9062129481887098
 30
0.0
 40
1.25
 50
270.0
 51
0.0
  0
ARC
  5
8AD5
  8
0
 10
333.0530336255595216
 20
316.4062129481886814
 30
0.0
 40
1.2500000000000011
 50
0.0
 51
90.0
  0
LINE
  5
8AD6
  8
0
 10
344.1030336255594761
 20
281.6562129481886814
 30
0.0
 11
334.3030336255595216
 21
281.6562129481886814
 31
0.0
  0
LINE
  5
8AD7
  8
0
 10
334.3030336255595216
 20
251.6562129481887098
 30
0.0
 11
344.1030336255594761
 21
251.6562129481887098
 31
0.0
  0
LINE
  5
8AD8
  8
0
 10
344.3030336255595216
 20
277.6562129481886814
 30
0.0
 11
344.1030336255594761
 21
277.6562129481886814
 31
0.0
  0
LINE
  5
8AD9
  8
0
 10
344.1030336255594761
 20
255.6562129481887098
 30
0.0
 11
344.3030336255595216
 21
255.6562129481887098
 31
0.0
  0
LINE
  5
8ADA
  8
0
 10
313.2426358218328915
 20
315.8205043000345995
 30
0.0
 11
310.3030336255595216
 21
280.1562129481886814
 31
0.0
  0
LINE
  5
8ADB
  8
0
 10
334.3030336255595216
 20
216.9062129481887098
 30
0.0
 11
334.3030336255595216
 21
316.4062129481886814
 31
0.0
  0
LINE
  5
8ADC
  8
0
 10
344.1030336255594761
 20
251.6562129481887098
 30
0.0
 11
344.1030336255594761
 21
281.6562129481886814
 31
0.0
  0
LINE
  5
8ADD
  8
0
 10
344.3030336255595216
 20
255.6562129481887098
 30
0.0
 11
344.3030336255595216
 21
277.6562129481886814
 31
0.0
  0
LINE
  5
8ADE
  8
0
 10
310.3030336255595216
 20
253.1562129481887098
 30
0.0
 11
310.3030336255595216
 21
280.1562129481886814
 31
0.0
  0
LINE
  5
8ADF
  8
0
 10
313.2426358218328915
 20
217.4919215963427916
 30
0.0
 11
313.2426358218328915
 21
315.8205043000345995
 31
0.0
  0
LINE
  5
8AE0
  8
0
 10
313.2426358218328915
 20
217.4919215963427916
 30
0.0
 11
310.3030336255595216
 21
253.1562129481887098
 31
0.0
  0
LINE
  5
8AE1
  8
2
 10
322.3030336255594079
 20
254.1562129481887098
 30
0.0
 11
322.3030336255594079
 21
279.1562129481886814
 31
0.0
  0
LINE
  5
8AE2
  8
2
 10
313.3030336255595216
 20
253.1562129481885961
 30
0.0
 11
313.3030336255595216
 21
280.156212948190614
 31
0.0
  0
LINE
  5
8AE3
  8
2
 10
344.1030336255594193
 20
277.6562129481886814
 30
0.0
 11
323.3030336255595216
 21
277.6562129481886814
 31
0.0
  0
LINE
  5
8AE4
  8
2
 10
344.3030336255595216
 20
261.6562129481886814
 30
0.0
 11
322.3030336255594079
 21
261.6562129481886245
 31
0.0
  0
LINE
  5
8AE5
  8
2
 10
322.3030336255594079
 20
271.6562129481886245
 30
0.0
 11
344.3030336255595216
 21
271.6562129481886245
 31
0.0
  0
LINE
  5
8AE6
  8
2
 10
323.3030336255595216
 20
276.6562129481886814
 30
0.0
 11
323.3030336255595216
 21
277.6562129481886814
 31
0.0
  0
LINE
  5
8AE7
  8
2
 10
322.3030336255594079
 20
276.6562129481886814
 30
0.0
 11
323.3030336255595216
 21
276.6562129481886814
 31
0.0
  0
LINE
  5
8AE8
  8
2
 10
344.1030336255594193
 20
255.6562129481887098
 30
0.0
 11
323.3030336255595216
 21
255.6562129481887098
 31
0.0
  0
LINE
  5
8AE9
  8
2
 10
323.3030336255595216
 20
256.6562129481886814
 30
0.0
 11
323.3030336255595216
 21
255.6562129481887098
 31
0.0
  0
LINE
  5
8AEA
  8
2
 10
322.3030336255594079
 20
256.6562129481886814
 30
0.0
 11
323.3030336255595216
 21
256.6562129481886814
 31
0.0
  0
LINE
  5
8AEB
  8
2
 10
310.3030336255595216
 20
253.1562129481885961
 30
0.0
 11
313.3030336255595216
 21
253.1562129481885961
 31
0.0
  0
LINE
  5
8AEC
  8
2
 10
310.3030336255595216
 20
280.156212948190614
 30
0.0
 11
313.3030336255595785
 21
280.156212948190614
 31
0.0
  0
LINE
  5
8AED
  8
2
 10
313.3030336255595216
 20
279.1562129481886814
 30
0.0
 11
322.3030336255594079
 21
279.1562129481886814
 31
0.0
  0
LINE
  5
8AEE
  8
2
 10
313.3030336255595216
 20
254.1562129481887098
 30
0.0
 11
322.3030336255594079
 21
254.1562129481887098
 31
0.0
  0
LINE
  5
8AEF
  8
2
 10
311.3030336255583848
 20
280.156212948190614
 30
0.0
 11
311.3030336255583848
 21
253.1562129481885961
 31
0.0
  0
LINE
  5
8AF0
  8
1
 10
352.583741603937483
 20
266.6562129481886814
 30
0.0
 11
302.0223256471813897
 21
266.6562129481886814
 31
0.0
  0
ARC
  5
8AFE
  8
0
 10
70.9324832062925452
 20
79.0187986417826096
 30
0.0
 40
2.0000000000000191
 50
94.7119099616444799
 51
180.0
  0
ARC
  5
8AFF
  8
0
 10
168.9324832062924884
 20
79.0187986417825954
 30
0.0
 40
2.0000000000000209
 50
0.0
 51
85.2880900383555058
  0
LINE
  5
8B00
  8
0
 10
170.9324832062924884
 20
61.2016415038333292
 30
0.0
 11
170.9324832062924884
 21
79.0187986417825954
 31
0.0
  0
LINE
  5
8B01
  8
0
 10
68.9324832062925452
 20
79.0187986417826096
 30
0.0
 11
68.9324832062925452
 21
61.2016415038333506
 31
0.0
  0
ARC
  5
8B02
  8
0
 10
70.1824832062925452
 20
61.2016415038333506
 30
0.0
 40
1.25
 50
180.0
 51
270.0
  0
ARC
  5
8B03
  8
0
 10
169.6824832062924884
 20
61.2016415038333292
 30
0.0
 40
1.2500000000000011
 50
270.0
 51
0.0
  0
LINE
  5
8B04
  8
0
 10
134.9324832062924884
 20
50.151641503833261
 30
0.0
 11
134.9324832062924884
 21
59.9516415038333292
 31
0.0
  0
LINE
  5
8B05
  8
0
 10
104.9324832062925026
 20
59.9516415038333292
 30
0.0
 11
104.9324832062925026
 21
50.151641503833261
 31
0.0
  0
LINE
  5
8B06
  8
0
 10
130.9324832062924884
 20
49.9516415038333292
 30
0.0
 11
130.9324832062924884
 21
50.151641503833261
 31
0.0
  0
LINE
  5
8B07
  8
0
 10
108.9324832062925026
 20
50.151641503833261
 30
0.0
 11
108.9324832062925026
 21
49.9516415038333292
 31
0.0
  0
LINE
  5
8B08
  8
0
 10
169.0967745581384065
 20
81.0120393075599168
 30
0.0
 11
133.4324832062924884
 21
83.9516415038333292
 31
0.0
  0
LINE
  5
8B09
  8
0
 10
70.1824832062925452
 20
59.9516415038333506
 30
0.0
 11
169.6824832062924884
 21
59.9516415038333292
 31
0.0
  0
LINE
  5
8B0A
  8
0
 10
104.9324832062925026
 20
50.151641503833261
 30
0.0
 11
134.9324832062924884
 21
50.151641503833261
 31
0.0
  0
LINE
  5
8B0B
  8
0
 10
108.9324832062925026
 20
49.9516415038333292
 30
0.0
 11
130.9324832062924884
 21
49.9516415038333292
 31
0.0
  0
LINE
  5
8B0C
  8
0
 10
106.4324832062925026
 20
83.9516415038333434
 30
0.0
 11
133.4324832062924884
 21
83.9516415038333292
 31
0.0
  0
LINE
  5
8B0D
  8
0
 10
70.7681918544466271
 20
81.0120393075599168
 30
0.0
 11
169.0967745581384065
 21
81.0120393075599168
 31
0.0
  0
LINE
  5
8B0E
  8
0
 10
70.7681918544466271
 20
81.0120393075599168
 30
0.0
 11
106.4324832062925026
 21
83.9516415038333434
 31
0.0
  0
LINE
  5
8B0F
  8
2
 10
107.4324832062925026
 20
71.9516415038333434
 30
0.0
 11
132.4324832062924884
 21
71.9516415038333292
 31
0.0
  0
LINE
  5
8B10
  8
2
 10
106.4324832062924031
 20
80.9516415038333434
 30
0.0
 11
133.4324832062945063
 21
80.951641503833315
 31
0.0
  0
LINE
  5
8B11
  8
2
 10
130.9324832062924884
 20
50.1516415038333818
 30
0.0
 11
130.9324832062924884
 21
70.951641503833315
 31
0.0
  0
LINE
  5
8B12
  8
2
 10
114.9324832062925026
 20
49.9516415038333292
 30
0.0
 11
114.9324832062924031
 21
71.9516415038333434
 31
0.0
  0
LINE
  5
8B13
  8
2
 10
124.9324832062924031
 20
71.9516415038333292
 30
0.0
 11
124.9324832062924031
 21
49.9516415038333292
 31
0.0
  0
LINE
  5
8B14
  8
2
 10
129.9324832062924884
 20
70.951641503833315
 30
0.0
 11
130.9324832062924884
 21
70.951641503833315
 31
0.0
  0
LINE
  5
8B15
  8
2
 10
129.9324832062924884
 20
71.9516415038333292
 30
0.0
 11
129.9324832062924884
 21
70.951641503833315
 31
0.0
  0
LINE
  5
8B16
  8
2
 10
108.9324832062925026
 20
50.1516415038333818
 30
0.0
 11
108.9324832062925026
 21
70.951641503833315
 31
0.0
  0
LINE
  5
8B17
  8
2
 10
109.9324832062925026
 20
70.951641503833315
 30
0.0
 11
108.9324832062925026
 21
70.951641503833315
 31
0.0
  0
LINE
  5
8B18
  8
2
 10
109.9324832062925026
 20
71.9516415038333434
 30
0.0
 11
109.9324832062925026
 21
70.951641503833315
 31
0.0
  0
LINE
  5
8B19
  8
2
 10
106.4324832062924031
 20
83.9516415038333434
 30
0.0
 11
106.4324832062924031
 21
80.9516415038333434
 31
0.0
  0
LINE
  5
8B1A
  8
2
 10
133.4324832062945063
 20
83.9516415038333292
 30
0.0
 11
133.4324832062945063
 21
80.9516415038332156
 31
0.0
  0
LINE
  5
8B1B
  8
2
 10
132.4324832062924884
 20
80.951641503833315
 30
0.0
 11
132.4324832062924884
 21
71.9516415038333292
 31
0.0
  0
LINE
  5
8B1C
  8
2
 10
107.4324832062925026
 20
80.9516415038333434
 30
0.0
 11
107.4324832062925026
 21
71.9516415038333434
 31
0.0
  0
LINE
  5
8B1D
  8
2
 10
133.4324832062945063
 20
82.9516415038344661
 30
0.0
 11
106.4324832062924031
 21
82.9516415038344661
 31
0.0
  0
LINE
  5
8B22
  8
0
 10
112.6824832062925026
 20
102.9516415038333008
 30
0.0
 11
112.6824832062925026
 21
84.2516415038332838
 31
0.0
  0
LINE
  5
8B23
  8
0
 10
127.1824832062925026
 20
84.2516415038332838
 30
0.0
 11
127.1824832062925026
 21
102.9516415038333008
 31
0.0
  0
ARC
  5
8B24
  8
0
 10
127.1824832062925026
 20
104.7016415038333008
 30
0.0
 40
1.7499999999999849
 50
270.0
 51
0.0
  0
ARC
  5
8B25
  8
0
 10
112.6824832062925026
 20
104.7016415038333008
 30
0.0
 40
1.74999999999999
 50
180.0
 51
270.0
  0
LINE
  5
8B26
  8
0
 10
110.9324832062925026
 20
134.9516415038332866
 30
0.0
 11
110.9324832062925026
 21
104.7016415038333008
 31
0.0
  0
LINE
  5
8B27
  8
0
 10
128.9324832062924884
 20
104.7016415038333008
 30
0.0
 11
128.9324832062924884
 21
134.9516415038332866
 31
0.0
  0
ARC
  5
8B28
  8
0
 10
119.9324832062925026
 20
134.9516415038332866
 30
0.0
 40
9.0000000000000178
 50
0.0
 51
180.0
  0
LINE
  5
8B29
  8
0
 10
127.1824832062925026
 20
102.9516415038333008
 30
0.0
 11
112.6824832062925026
 21
102.9516415038333008
 31
0.0
  0
LINE
  5
8B2A
  8
0
 10
128.9324832062924884
 20
104.7016415038333008
 30
0.0
 11
110.9324832062925026
 21
104.7016415038333008
 31
0.0
  0
LINE
  5
8B2B
  8
0
 10
128.9324832062924884
 20
134.9516415038332866
 30
0.0
 11
110.9324832062925026
 21
134.9516415038332866
 31
0.0
  0
LINE
  5
8B2C
  8
1
 10
119.9324832062925026
 20
41.6709335254553181
 30
0.0
 11
119.9324832062925026
 21
152.2323494822113901
 31
0.0
  0
LINE
  5
8B30
  8
0
 10
310.0030336255595103
 20
311.0937129481886245
 30
0.0
 11
310.3030336255596922
 21
311.0937129481886245
 31
0.0
  0
LINE
  5
8B31
  8
0
 10
310.3030336255596922
 20
300.2187129481886245
 30
0.0
 11
310.0030336255595103
 21
300.2187129481886245
 31
0.0
  0
LINE
  5
8B32
  8
0
 10
291.3030336255596922
 20
312.9062129481886245
 30
0.0
 11
310.0030336255595103
 21
312.9062129481886245
 31
0.0
  0
LINE
  5
8B33
  8
0
 10
310.0030336255595103
 20
298.4062129481886245
 30
0.0
 11
291.3030336255596922
 21
298.4062129481886245
 31
0.0
  0
ARC
  5
8B34
  8
0
 10
289.5530336255596922
 20
298.4062129481886245
 30
0.0
 40
1.7499999999999849
 50
270.0
 51
0.0
  0
ARC
  5
8B35
  8
0
 10
289.5530336255596922
 20
312.9062129481886245
 30
0.0
 40
1.7499999999999849
 50
0.0
 51
90.0
  0
LINE
  5
8B36
  8
0
 10
259.3030336255596922
 20
314.6562129481886245
 30
0.0
 11
289.5530336255596922
 21
314.6562129481886245
 31
0.0
  0
LINE
  5
8B37
  8
0
 10
289.5530336255596922
 20
296.6562129481886245
 30
0.0
 11
259.3030336255596922
 21
296.6562129481886245
 31
0.0
  0
ARC
  5
8B38
  8
0
 10
259.3030336255596922
 20
305.6562129481886245
 30
0.0
 40
9.0000000000000142
 50
90.0
 51
270.0
  0
LINE
  5
8B39
  8
0
 10
310.0030336255595103
 20
298.4062129481886245
 30
0.0
 11
310.0030336255595103
 21
312.9062129481886245
 31
0.0
  0
LINE
  5
8B3A
  8
0
 10
289.5530336255596922
 20
296.6562129481886245
 30
0.0
 11
289.5530336255596922
 21
314.6562129481886245
 31
0.0
  0
LINE
  5
8B3B
  8
0
 10
259.3030336255596922
 20
296.6562129481886245
 30
0.0
 11
259.3030336255596922
 21
314.6562129481886245
 31
0.0
  0
LINE
  5
8B3C
  8
1
 10
321.5233438002109096
 20
305.6562129481886245
 30
0.0
 11
242.0223256471817024
 21
305.6562129481886245
 31
0.0
  0
LINE
  5
8B3D
  8
0
 10
311.9103063528323219
 20
299.6562129481885108
 30
0.0
 11
310.3030336255596922
 21
299.6562129481885108
 31
0.0
  0
LINE
  5
8B3E
  8
0
 10
310.3030336255596922
 20
311.6562129481886245
 30
0.0
 11
312.899397261923184
 21
311.6562129481886245
 31
0.0
  0
LINE
  5
8B3F
  8
0
 10
310.3030336255596922
 20
299.6562129481885108
 30
0.0
 11
310.3030336255596922
 21
311.6562129481886245
 31
0.0
  0
POINT
  5
8B40
  8
0
 10
250.3030336255596922
 20
305.6562129481886245
 30
-0.0000000000000089
210
-1.0
220
0.0000000000000001
230
0.0
 50
180.0
  0
LINE
  5
8B41
  8
0
 10
291.3030336255596922
 20
298.4062129481886245
 30
0.0
 11
291.3030336255596922
 21
312.9062129481886245
 31
0.0
  0
TEXT
  5
8C9B
  8
0
 62
     3
 10
0.0
 20
0.0
 30
0.0
 40
10.0
  1
EDHN100R-M
  7
STANDARD1
  0
LINE
  5
8D04
  8
1
 10
339.3030336255595216
 20
269.6562129481886814
 30
0.0
 11
339.3030336255595216
 21
283.6562129481886814
 31
0.0
  0
CIRCLE
  5
8D05
  8
2
 10
119.9324832062926021
 20
266.6562129481886814
 30
0.0
 40
11.0
  0
CIRCLE
  5
8D06
  8
2
 10
119.9324832062926021
 20
266.6562129481886814
 30
0.0
 40
5.0
  0
CIRCLE
  5
8D07
  8
2
 10
119.9324832062926021
 20
266.6562129481886814
 30
0.0
 40
15.0
  0
LINE
  5
8D08
  8
2
 10
336.8030336255595216
 20
271.6562129481886245
 30
0.0
 11
336.8030336255595216
 21
277.6562129481886814
 31
0.0
  0
LINE
  5
8D09
  8
2
 10
337.2360336255591733
 20
271.6562129481886245
 30
0.0
 11
337.236033625559287
 21
277.6562129481887951
 31
0.0
  0
LINE
  5
8D0A
  8
2
 10
341.3700336255596994
 20
271.6562129481886245
 30
0.0
 11
341.3700336255596994
 21
277.6562129481887951
 31
0.0
  0
LINE
  5
8D0B
  8
2
 10
341.8030336255595216
 20
271.6562129481886245
 30
0.0
 11
341.8030336255595216
 21
277.6562129481886814
 31
0.0
  0
LINE
  5
8D0C
  8
2
 10
336.3030336255595216
 20
280.6562129481886814
 30
0.0
 11
336.3030336255595216
 21
277.6562129481886814
 31
0.0
  0
LINE
  5
8D0D
  8
2
 10
342.3030336255595216
 20
280.6562129481886814
 30
0.0
 11
342.3030336255595216
 21
277.6562129481886814
 31
0.0
  0
LINE
  5
8D10
  8
2
 10
336.3030336255595216
 20
280.6562129481886814
 30
0.0
 11
335.3030336255595216
 21
281.6562129481886814
 31
0.0
  0
LINE
  5
8D11
  8
2
 10
342.3030336255595216
 20
280.6562129481886245
 30
0.0
 11
343.3030336255595216
 21
281.6562129481886245
 31
0.0
  0
LINE
  5
8D12
  8
2
 10
336.3030336255595216
 20
280.6562129481886814
 30
0.0
 11
342.3030336255595216
 21
280.6562129481886245
 31
0.0
  0
LINE
  5
8D14
  8
2
 10
117.4324832062926021
 20
270.9863399671108937
 30
0.0
 11
117.4324832062926021
 21
277.3683555910030236
 31
0.0
  0
LINE
  5
8D15
  8
2
 10
117.8654832062923958
 20
271.2089605801136827
 30
0.0
 11
117.8654832062923958
 21
277.4602636237453908
 31
0.0
  0
LINE
  5
8D16
  8
2
 10
121.9994832062927941
 20
271.2089605801136827
 30
0.0
 11
121.9994832062928936
 21
277.4602636237453908
 31
0.0
  0
LINE
  5
8D17
  8
2
 10
122.4324832062926021
 20
270.9863399671108937
 30
0.0
 11
122.4324832062926021
 21
277.3683555910030236
 31
0.0
  0
LINE
  5
8D18
  8
2
 10
116.9324832062926021
 20
280.2686149818036938
 30
0.0
 11
116.9324832062926021
 21
277.2392181924470265
 31
0.0
  0
LINE
  5
8D19
  8
2
 10
122.9324832062926021
 20
280.2686149818036938
 30
0.0
 11
122.9324832062926021
 21
277.2392181924470265
 31
0.0
  0
LINE
  5
8D1C
  8
2
 10
116.9324832062926021
 20
280.2686149818036938
 30
0.0
 11
116.0326596597617055
 21
281.1684385283347183
 31
0.0
  0
LINE
  5
8D1D
  8
2
 10
122.9324832062927015
 20
280.2686149818036938
 30
0.0
 11
123.8101937074187049
 21
281.1463254829296261
 31
0.0
  0
LINE
  5
8D1E
  8
2
 10
116.9324832062926021
 20
280.2686149818036938
 30
0.0
 11
122.9324832062927015
 21
280.2686149818036938
 31
0.0
  0
LINE
  5
8ED4
  8
0
 10
125.3699832062925026
 20
84.2516415038335253
 30
0.0
 11
125.3699832062925026
 21
83.9516415038333434
 31
0.0
  0
LINE
  5
8ED5
  8
0
 10
114.4949832062925026
 20
83.9516415038333434
 30
0.0
 11
114.4949832062925026
 21
84.2516415038335253
 31
0.0
  0
LINE
  5
8ED6
  8
0
 10
112.6824832062925026
 20
84.2516415038332838
 30
0.0
 11
127.1824832062925026
 21
84.2516415038332838
 31
0.0
  0
ENDSEC
  0
EOF
