  0
SECTION
  2
HEADER
  9
$ACADVER
  1
AC1009
  9
$INSBASE
 10
0.0
 20
0.0
 30
0.0
  9
$EXTMIN
 10
0.0
 20
-2.960436562073669
 30
0.0
  9
$EXTMAX
 10
595.75574545727295
 20
333.63618801214687
 30
0.0
  9
$LIMMIN
 10
0.0
 20
0.0
  9
$LIMMAX
 10
750.0
 20
540.0
  9
$ORTHOMODE
 70
     0
  9
$REGENMODE
 70
     1
  9
$FILLMODE
 70
     1
  9
$QTEXTMODE
 70
     0
  9
$MIRRTEXT
 70
     0
  9
$DRAGMODE
 70
     2
  9
$LTSCALE
 40
20.0
  9
$OSMODE
 70
  3071
  9
$ATTMODE
 70
     1
  9
$TEXTSIZE
 40
0.2
  9
$TRACEWID
 40
0.05
  9
$TEXTSTYLE
  7
STANDARD
  9
$CLAYER
  8
0
  9
$CELTYPE
  6
BYLAYER
  9
$CECOLOR
 62
     6
  9
$DIMSCALE
 40
1.0
  9
$DIMASZ
 40
3.0
  9
$DIMEXO
 40
2.0
  9
$DIMDLI
 40
0.3799999999999999
  9
$DIMRND
 40
0.0
  9
$DIMDLE
 40
0.0
  9
$DIMEXE
 40
2.0
  9
$DIMTP
 40
0.0
  9
$DIMTM
 40
0.0
  9
$DIMTXT
 40
3.0
  9
$DIMCEN
 40
0.09
  9
$DIMTSZ
 40
0.0
  9
$DIMTOL
 70
     0
  9
$DIMLIM
 70
     0
  9
$DIMTIH
 70
     0
  9
$DIMTOH
 70
     0
  9
$DIMSE1
 70
     0
  9
$DIMSE2
 70
     0
  9
$DIMTAD
 70
     1
  9
$DIMZIN
 70
     8
  9
$DIMBLK
  1

  9
$DIMASO
 70
     1
  9
$DIMSHO
 70
     0
  9
$DIMPOST
  1

  9
$DIMAPOST
  1

  9
$DIMALT
 70
     0
  9
$DIMALTD
 70
     2
  9
$DIMALTF
 40
25.399999999999999
  9
$DIMLFAC
 40
1.0
  9
$DIMTOFL
 70
     0
  9
$DIMTVP
 40
1.6000000000000001
  9
$DIMTIX
 70
     1
  9
$DIMSOXD
 70
     0
  9
$DIMSAH
 70
     0
  9
$DIMBLK1
  1

  9
$DIMBLK2
  1

  9
$DIMSTYLE
  2
STANDARD
  9
$DIMCLRD
 70
     0
  9
$DIMCLRE
 70
     0
  9
$DIMCLRT
 70
     0
  9
$DIMTFAC
 40
1.0
  9
$DIMGAP
 40
1.5
  9
$LUNITS
 70
     2
  9
$LUPREC
 70
     4
  9
$SKETCHINC
 40
0.1
  9
$FILLETRAD
 40
0.2
  9
$AUNITS
 70
     0
  9
$AUPREC
 70
     0
  9
$MENU
  1
E:\r13\win\SUPPORT\ACAD
  9
$ELEVATION
 40
0.0
  9
$PELEVATION
 40
0.0
  9
$THICKNESS
 40
0.0
  9
$LIMCHECK
 70
     0
  9
$BLIPMODE
 70
     0
  9
$CHAMFERA
 40
0.0
  9
$CHAMFERB
 40
0.0
  9
$SKPOLY
 70
     0
  9
$TDCREATE
 40
2449839.7807291672
  9
$TDUPDATE
 40
2456598.6438329751
  9
$TDINDWG
 40
0.5571373264
  9
$TDUSRTIMER
 40
0.5571373264
  9
$USRTIMER
 70
     1
  9
$ANGBASE
 50
0.0
  9
$ANGDIR
 70
     0
  9
$PDMODE
 70
     0
  9
$PDSIZE
 40
0.0
  9
$PLINEWID
 40
0.0
  9
$COORDS
 70
     1
  9
$SPLFRAME
 70
     0
  9
$SPLINETYPE
 70
     6
  9
$SPLINESEGS
 70
     8
  9
$ATTDIA
 70
     0
  9
$ATTREQ
 70
     1
  9
$HANDLING
 70
     1
  9
$HANDSEED
  5
9969
  9
$SURFTAB1
 70
     6
  9
$SURFTAB2
 70
     6
  9
$SURFTYPE
 70
     6
  9
$SURFU
 70
     6
  9
$SURFV
 70
     6
  9
$UCSNAME
  2

  9
$UCSORG
 10
0.0
 20
0.0
 30
0.0
  9
$UCSXDIR
 10
1.0
 20
0.0
 30
0.0
  9
$UCSYDIR
 10
0.0
 20
1.0
 30
0.0
  9
$PUCSNAME
  2

  9
$PUCSORG
 10
0.0
 20
0.0
 30
0.0
  9
$PUCSXDIR
 10
1.0
 20
0.0
 30
0.0
  9
$PUCSYDIR
 10
0.0
 20
1.0
 30
0.0
  9
$USERI1
 70
     0
  9
$USERI2
 70
     1
  9
$USERI3
 70
     1
  9
$USERI4
 70
     0
  9
$USERI5
 70
     0
  9
$USERR1
 40
0.0
  9
$USERR2
 40
0.0
  9
$USERR3
 40
0.0
  9
$USERR4
 40
0.0
  9
$USERR5
 40
0.0
  9
$WORLDVIEW
 70
     1
  9
$SHADEDGE
 70
     3
  9
$SHADEDIF
 70
    70
  9
$TILEMODE
 70
     1
  9
$MAXACTVP
 70
    16
  9
$PLIMCHECK
 70
     0
  9
$PEXTMIN
 10
1.0000000000000000E+020
 20
1.0000000000000000E+020
 30
1.0000000000000000E+020
  9
$PEXTMAX
 10
-1.0000000000000000E+020
 20
-1.0000000000000000E+020
 30
-1.0000000000000000E+020
  9
$PLIMMIN
 10
0.0
 20
0.0
  9
$PLIMMAX
 10
12.0
 20
9.0
  9
$UNITMODE
 70
     0
  9
$VISRETAIN
 70
     0
  9
$PLINEGEN
 70
     0
  9
$PSLTSCALE
 70
     0
  0
ENDSEC
  0
SECTION
  2
TABLES
  0
TABLE
  2
VPORT
 70
     1
  0
VPORT
  2
*ACTIVE
 70
     0
 10
0.0
 20
0.0
 11
1.0
 21
1.0
 12
390.03402345615979
 22
268.50860658393782
 13
0.0
 23
0.0
 14
20.0
 24
20.0
 15
20.0
 25
20.0
 16
0.0
 26
0.0
 36
1.0
 17
0.0
 27
0.0
 37
0.0
 40
547.85258761088789
 41
1.831871345029239
 42
50.0
 43
0.0
 44
0.0
 50
0.0
 51
0.0
 71
     0
 72
   500
 73
     1
 74
     0
 75
     0
 76
     0
 77
     0
 78
     0
  0
ENDTAB
  0
TABLE
  2
LTYPE
 70
     4
  0
LTYPE
  2
CONTINUOUS
 70
     0
  3
Solid Line
 72
    65
 73
     0
 40
0.0
  0
LTYPE
  2
CENTER
 70
     0
  3
____ _ ____ _ ____ _ ____ _ ____ _ ____ _ ____
 72
    65
 73
     4
 40
2.0
 49
1.25
 49
-0.25
 49
0.25
 49
-0.25
  0
LTYPE
  2
HIDDEN
 70
     0
  3
Hidden __ __ __ __ __ __ __ __ __ __ __ __ __ _
 72
    65
 73
     2
 40
0.375
 49
0.25
 49
-0.125
  0
LTYPE
  2
PHANTOM2
 70
     0
  3
___ _ _ ___ _ _ ___ _ _ ___ _ _
 72
    65
 73
     6
 40
1.25
 49
0.625
 49
-0.125
 49
0.125
 49
-0.125
 49
0.125
 49
-0.125
  0
ENDTAB
  0
TABLE
  2
LAYER
 70
     4
  0
LAYER
  2
0
 70
     0
 62
     7
  6
CONTINUOUS
  0
LAYER
  2
1
 70
     0
 62
     1
  6
CENTER
  0
LAYER
  2
2
 70
     0
 62
     2
  6
HIDDEN
  0
LAYER
  2
DEFPOINTS
 70
     0
 62
     7
  6
CONTINUOUS
  0
ENDTAB
  0
TABLE
  2
STYLE
 70
     2
  0
STYLE
  2
STANDARD
 70
     0
 40
0.0
 41
1.0
 50
0.0
 71
     0
 42
0.2
  3
TXT
  4
BIGFONT
  0
STYLE
  2
STANDARD1
 70
     0
 40
0.0
 41
1.0
 50
0.0
 71
     0
 42
3.0
  3
txt
  4

  0
ENDTAB
  0
TABLE
  2
VIEW
 70
     1
  0
VIEW
  2
ALL
 70
     0
 40
540.0
 10
441.98319327731087
 20
270.0
 41
0.0
 11
0.0
 21
0.0
 31
1.0
 12
0.0
 22
0.0
 32
0.0
 42
0.0
 43
0.0
 44
0.0
 50
0.0
 71
     0
  0
ENDTAB
  0
TABLE
  2
UCS
 70
     0
  0
ENDTAB
  0
TABLE
  2
APPID
 70
    11
  0
APPID
  2
ACAD
 70
     0
  0
APPID
  2
ACAD_EXEMPT_FROM_CAD_STANDARDS
 70
     0
  0
APPID
  2
ACAD_DSTYLE_DIMJAG
 70
     0
  0
APPID
  2
ACAD_DSTYLE_DIMTALN
 70
     0
  0
APPID
  2
ACAD_MLEADERVER
 70
     0
  0
APPID
  2
GENIUS_GENODEF_13
 70
     0
  0
APPID
  2
GENIUS_GENOBJ-N-FIL_13
 70
     0
  0
APPID
  2
GENIUS_GENOREF_13
 70
     0
  0
APPID
  2
ACAD_PSEXT
 70
     0
  0
APPID
  2
ACAD_DSTYLE_DIMRADIAL_EXTENSION
 70
     0
  0
APPID
  2
ACAD_NAV_VCDISPLAY
 70
     0
  0
ENDTAB
  0
TABLE
  2
DIMSTYLE
 70
     1
  0
DIMSTYLE
  2
STANDARD
 70
     0
  3

  4

  5

  6

  7

 40
1.0
 41
0.18
 42
0.0625
 43
0.38
 44
0.18
 45
0.0
 46
0.0
 47
0.0
 48
0.0
140
0.18
141
0.09
142
0.0
143
25.399999999999999
144
1.0
145
0.0
146
1.0
147
0.09
 71
     0
 72
     0
 73
     1
 74
     1
 75
     0
 76
     0
 77
     0
 78
     0
170
     0
171
     2
172
     0
173
     0
174
     0
175
     0
176
     0
177
     0
178
     0
  0
ENDTAB
  0
ENDSEC
  0
SECTION
  2
BLOCKS
  0
BLOCK
  8
0
  2
$MODEL_SPACE
 70
     0
 10
0.0
 20
0.0
 30
0.0
  3
$MODEL_SPACE
  1

  0
ENDBLK
  5
13C
  8
0
  0
BLOCK
 67
     1
  8
0
  2
$PAPER_SPACE
 70
     0
 10
0.0
 20
0.0
 30
0.0
  3
$PAPER_SPACE
  1

  0
ENDBLK
  5
13A
 67
     1
  8
0
  0
ENDSEC
  0
SECTION
  2
ENTITIES
  0
LINE
  5
567
  8
1
 10
378.04812195772911
 20
313.35548003376891
 30
0.0
 11
412.60953791448509
 21
313.35548003376891
 31
0.0
  0
CIRCLE
  5
569
  8
0
 10
395.32882993610713
 20
274.35548003376891
 30
0.0
 40
13.50000000000005
  0
CIRCLE
  5
56A
  8
0
 10
395.32882993610713
 20
274.35548003376891
 30
0.0
 40
49.226327944572759
  0
CIRCLE
  5
56B
  8
0
 10
395.32882993610713
 20
274.35548003376891
 30
0.0
 40
50.999999999999993
  0
LINE
  5
57D
  8
1
 10
395.32882993610713
 20
333.63618801214687
 30
0.0
 11
395.32882993610713
 21
215.07477205539089
 31
0.0
  0
LINE
  5
57E
  8
1
 10
336.04812195772911
 20
274.35548003376891
 30
0.0
 11
454.60953791448509
 21
274.35548003376891
 31
0.0
  0
ARC
  5
8F8B
  8
0
 10
346.32882993610713
 20
110.884084451959
 30
0.0
 40
2.0000000000000191
 50
94.711909961644423
 51
180.0
  0
ARC
  5
8F8C
  8
0
 10
444.32882993610701
 20
110.884084451959
 30
0.0
 40
2.0000000000000209
 50
0.0
 51
85.288090038355534
  0
LINE
  5
8F8D
  8
0
 10
446.32882993610713
 20
93.066927314009703
 30
0.0
 11
446.32882993610713
 21
110.884084451959
 31
0.0
  0
LINE
  5
8F8E
  8
0
 10
344.32882993610713
 20
110.884084451959
 30
0.0
 11
344.32882993610713
 21
93.066927314009703
 31
0.0
  0
ARC
  5
8F8F
  8
0
 10
345.57882993610713
 20
93.066927314009703
 30
0.0
 40
1.25
 50
180.0
 51
270.0
  0
ARC
  5
8F90
  8
0
 10
445.07882993610713
 20
93.066927314009703
 30
0.0
 40
1.2500000000000011
 50
270.0
 51
0.0
  0
LINE
  5
8F93
  8
0
 10
410.32882993610713
 20
82.016927314009706
 30
0.0
 11
410.32882993610713
 21
91.816927314009703
 31
0.0
  0
LINE
  5
8F96
  8
0
 10
380.32882993610713
 20
91.816927314009703
 30
0.0
 11
380.32882993610713
 21
82.016927314009706
 31
0.0
  0
LINE
  5
8F97
  8
0
 10
406.32882993610713
 20
81.816927314009703
 30
0.0
 11
406.32882993610713
 21
82.016927314009706
 31
0.0
  0
LINE
  5
8F98
  8
0
 10
384.32882993610713
 20
82.016927314009706
 30
0.0
 11
384.32882993610713
 21
81.816927314009703
 31
0.0
  0
LINE
  5
8FA1
  8
0
 10
444.49312128795299
 20
112.87732511773631
 30
0.0
 11
408.82882993610713
 21
115.8169273140097
 31
0.0
  0
LINE
  5
8FA9
  8
0
 10
345.57882993610713
 20
91.816927314009703
 30
0.0
 11
445.07882993610713
 21
91.816927314009703
 31
0.0
  0
LINE
  5
8FAB
  8
0
 10
380.32882993610713
 20
82.016927314009706
 30
0.0
 11
410.32882993610713
 21
82.016927314009706
 31
0.0
  0
LINE
  5
8FAC
  8
0
 10
384.32882993610713
 20
81.816927314009703
 30
0.0
 11
406.32882993610713
 21
81.816927314009703
 31
0.0
  0
LINE
  5
8FC6
  8
0
 10
381.82882993610713
 20
115.8169273140097
 30
0.0
 11
408.82882993610713
 21
115.8169273140097
 31
0.0
  0
LINE
  5
8FC7
  8
0
 10
346.16453858426121
 20
112.87732511773631
 30
0.0
 11
444.49312128795299
 21
112.87732511773631
 31
0.0
  0
LINE
  5
8FDC
  8
0
 10
346.16453858426121
 20
112.87732511773631
 30
0.0
 11
381.82882993610713
 21
115.8169273140097
 31
0.0
  0
LINE
  5
8FDD
  8
2
 10
382.82882993610713
 20
103.8169273140097
 30
0.0
 11
407.82882993610713
 21
103.8169273140097
 31
0.0
  0
LINE
  5
8FDE
  8
2
 10
381.82882993610701
 20
112.8169273140097
 30
0.0
 11
408.828829936109
 21
112.8169273140097
 31
0.0
  0
LINE
  5
8FDF
  8
2
 10
406.32882993610713
 20
82.016927314009763
 30
0.0
 11
406.32882993610713
 21
102.8169273140097
 31
0.0
  0
LINE
  5
8FE0
  8
2
 10
390.32882993610713
 20
81.816927314009703
 30
0.0
 11
390.32882993610713
 21
103.8169273140097
 31
0.0
  0
LINE
  5
8FE1
  8
2
 10
400.32882993610701
 20
103.8169273140097
 30
0.0
 11
400.32882993610701
 21
81.816927314009703
 31
0.0
  0
LINE
  5
8FE2
  8
2
 10
405.32882993610713
 20
102.8169273140097
 30
0.0
 11
406.32882993610713
 21
102.8169273140097
 31
0.0
  0
LINE
  5
8FE3
  8
2
 10
405.32882993610713
 20
103.8169273140097
 30
0.0
 11
405.32882993610713
 21
102.8169273140097
 31
0.0
  0
LINE
  5
8FE4
  8
2
 10
384.32882993610713
 20
82.016927314009763
 30
0.0
 11
384.32882993610713
 21
102.8169273140097
 31
0.0
  0
LINE
  5
8FE5
  8
2
 10
385.32882993610713
 20
102.8169273140097
 30
0.0
 11
384.32882993610713
 21
102.8169273140097
 31
0.0
  0
LINE
  5
8FE6
  8
2
 10
385.32882993610713
 20
103.8169273140097
 30
0.0
 11
385.32882993610713
 21
102.8169273140097
 31
0.0
  0
LINE
  5
8FE7
  8
2
 10
381.82882993610713
 20
115.8169273140097
 30
0.0
 11
381.82882993610701
 21
112.8169273140097
 31
0.0
  0
LINE
  5
8FE8
  8
2
 10
408.828829936109
 20
115.8169273140097
 30
0.0
 11
408.828829936109
 21
112.8169273140097
 31
0.0
  0
LINE
  5
8FE9
  8
2
 10
407.82882993610713
 20
112.8169273140097
 30
0.0
 11
407.82882993610713
 21
103.8169273140097
 31
0.0
  0
LINE
  5
8FEA
  8
2
 10
382.82882993610713
 20
112.8169273140097
 30
0.0
 11
382.82882993610713
 21
103.8169273140097
 31
0.0
  0
LINE
  5
8FEB
  8
2
 10
408.828829936109
 20
114.8169273140108
 30
0.0
 11
381.82882993610701
 21
114.8169273140108
 31
0.0
  0
CIRCLE
  5
9024
  8
0
 10
226.5257116603224
 20
313.35548003376891
 30
0.0
 40
9.0
  0
LINE
  5
9025
  8
1
 10
209.2450036819443
 20
313.35548003376891
 30
0.0
 11
243.80641963870039
 21
313.35548003376891
 31
0.0
  0
CIRCLE
  5
9026
  8
0
 10
226.5257116603224
 20
274.35548003376891
 30
0.0
 40
13.50000000000005
  0
CIRCLE
  5
9027
  8
0
 10
226.5257116603224
 20
274.35548003376891
 30
0.0
 40
49.226327944572759
  0
CIRCLE
  5
9028
  8
0
 10
226.5257116603224
 20
274.35548003376891
 30
0.0
 40
50.999999999999993
  0
LINE
  5
9029
  8
1
 10
226.5257116603224
 20
333.63618801214687
 30
0.0
 11
226.5257116603224
 21
215.07477205539089
 31
0.0
  0
LINE
  5
902A
  8
1
 10
167.2450036819443
 20
274.35548003376891
 30
0.0
 11
285.80641963870039
 21
274.35548003376891
 31
0.0
  0
ARC
  5
902C
  8
0
 10
177.5257116603224
 20
110.884084451959
 30
0.0
 40
2.0000000000000191
 50
94.711909961644423
 51
180.0
  0
ARC
  5
902D
  8
0
 10
275.52571166032237
 20
110.884084451959
 30
0.0
 40
2.0000000000000209
 50
0.0
 51
85.288090038355534
  0
LINE
  5
902E
  8
0
 10
277.52571166032237
 20
93.066927314009746
 30
0.0
 11
277.52571166032237
 21
110.884084451959
 31
0.0
  0
LINE
  5
902F
  8
0
 10
175.5257116603224
 20
110.884084451959
 30
0.0
 11
175.5257116603224
 21
93.066927314009746
 31
0.0
  0
ARC
  5
9030
  8
0
 10
176.77571166032229
 20
93.066927314009746
 30
0.0
 40
1.25
 50
180.0
 51
270.0
  0
ARC
  5
9031
  8
0
 10
276.27571166032237
 20
93.066927314009746
 30
0.0
 40
1.2500000000000011
 50
270.0
 51
0.0
  0
LINE
  5
9032
  8
0
 10
241.5257116603224
 20
82.016927314009735
 30
0.0
 11
241.5257116603224
 21
91.816927314009746
 31
0.0
  0
LINE
  5
9033
  8
0
 10
211.5257116603224
 20
91.816927314009746
 30
0.0
 11
211.5257116603224
 21
82.016927314009735
 31
0.0
  0
LINE
  5
9034
  8
0
 10
237.5257116603224
 20
81.816927314009746
 30
0.0
 11
237.5257116603224
 21
82.016927314009735
 31
0.0
  0
LINE
  5
9035
  8
0
 10
215.5257116603224
 20
82.016927314009735
 30
0.0
 11
215.5257116603224
 21
81.816927314009746
 31
0.0
  0
LINE
  5
9036
  8
0
 10
275.69000301216829
 20
112.8773251177364
 30
0.0
 11
240.0257116603224
 21
115.8169273140097
 31
0.0
  0
LINE
  5
9037
  8
0
 10
176.77571166032229
 20
91.816927314009746
 30
0.0
 11
276.27571166032237
 21
91.816927314009746
 31
0.0
  0
LINE
  5
9038
  8
0
 10
211.5257116603224
 20
82.016927314009735
 30
0.0
 11
241.5257116603224
 21
82.016927314009735
 31
0.0
  0
LINE
  5
9039
  8
0
 10
215.5257116603224
 20
81.816927314009746
 30
0.0
 11
237.5257116603224
 21
81.816927314009746
 31
0.0
  0
LINE
  5
903A
  8
0
 10
213.0257116603224
 20
115.8169273140097
 30
0.0
 11
240.0257116603224
 21
115.8169273140097
 31
0.0
  0
LINE
  5
903B
  8
0
 10
177.3614203084764
 20
112.8773251177364
 30
0.0
 11
275.69000301216829
 21
112.8773251177364
 31
0.0
  0
LINE
  5
903C
  8
0
 10
177.3614203084764
 20
112.8773251177364
 30
0.0
 11
213.0257116603224
 21
115.8169273140097
 31
0.0
  0
LINE
  5
903D
  8
2
 10
214.0257116603224
 20
103.8169273140097
 30
0.0
 11
239.0257116603224
 21
103.8169273140097
 31
0.0
  0
LINE
  5
903E
  8
2
 10
213.0257116603222
 20
112.8169273140097
 30
0.0
 11
240.02571166032439
 21
112.8169273140097
 31
0.0
  0
LINE
  5
903F
  8
2
 10
237.5257116603224
 20
82.016927314009806
 30
0.0
 11
237.5257116603224
 21
102.8169273140097
 31
0.0
  0
LINE
  5
9040
  8
2
 10
221.5257116603224
 20
81.816927314009746
 30
0.0
 11
221.52571166032229
 21
103.8169273140097
 31
0.0
  0
LINE
  5
9041
  8
2
 10
231.52571166032229
 20
103.8169273140097
 30
0.0
 11
231.5257116603222
 21
81.816927314009746
 31
0.0
  0
LINE
  5
9042
  8
2
 10
236.5257116603224
 20
102.8169273140097
 30
0.0
 11
237.5257116603224
 21
102.8169273140097
 31
0.0
  0
LINE
  5
9043
  8
2
 10
236.5257116603224
 20
103.8169273140097
 30
0.0
 11
236.5257116603224
 21
102.8169273140097
 31
0.0
  0
LINE
  5
9044
  8
2
 10
215.5257116603224
 20
82.016927314009806
 30
0.0
 11
215.5257116603224
 21
102.8169273140097
 31
0.0
  0
LINE
  5
9045
  8
2
 10
216.5257116603224
 20
102.8169273140097
 30
0.0
 11
215.5257116603224
 21
102.8169273140097
 31
0.0
  0
LINE
  5
9046
  8
2
 10
216.5257116603224
 20
103.8169273140097
 30
0.0
 11
216.5257116603224
 21
102.8169273140097
 31
0.0
  0
LINE
  5
9047
  8
2
 10
213.02571166032229
 20
115.8169273140097
 30
0.0
 11
213.0257116603222
 21
112.8169273140097
 31
0.0
  0
LINE
  5
9048
  8
2
 10
240.0257116603243
 20
115.8169273140097
 30
0.0
 11
240.02571166032439
 21
112.8169273140097
 31
0.0
  0
LINE
  5
9049
  8
2
 10
239.0257116603224
 20
112.8169273140097
 30
0.0
 11
239.0257116603224
 21
103.8169273140097
 31
0.0
  0
LINE
  5
904A
  8
2
 10
214.0257116603224
 20
112.8169273140097
 30
0.0
 11
214.0257116603224
 21
103.8169273140097
 31
0.0
  0
LINE
  5
904B
  8
2
 10
240.02571166032439
 20
114.8169273140108
 30
0.0
 11
213.0257116603222
 21
114.8169273140109
 31
0.0
  0
ARC
  5
905D
  8
0
 10
226.5257116603224
 20
154.06692731400969
 30
0.0
 40
7.7500000000000071
 50
0.0
 51
180.0
  0
LINE
  5
905E
  8
0
 10
234.2757116603224
 20
134.38692731400971
 30
0.0
 11
234.2757116603224
 21
154.06692731400969
 31
0.0
  0
LINE
  5
905F
  8
0
 10
218.7757116603224
 20
154.06692731400969
 30
0.0
 11
218.7757116603224
 21
134.38692731400971
 31
0.0
  0
ARC
  5
9060
  8
0
 10
221.34571166032239
 20
134.38692731400971
 30
0.0
 40
2.5699999999999932
 50
180.0
 51
242.0389257508003
  0
ARC
  5
9061
  8
0
 10
231.70571166032241
 20
134.38692731400971
 30
0.0
 40
2.5700000000000069
 50
297.96107424919973
 51
0.0
  0
LINE
  5
9062
  8
0
 10
232.91071166032239
 20
117.01692731400971
 30
0.0
 11
232.91071166032239
 21
132.1169328206243
 31
0.0
  0
LINE
  5
9063
  8
0
 10
220.14071166032241
 20
132.1169328206243
 30
0.0
 11
220.14071166032241
 21
117.01692731400971
 31
0.0
  0
ARC
  5
9064
  8
0
 10
220.3407116603224
 20
117.01692731400971
 30
0.0
 40
0.1999999999999815
 50
180.0
 51
270.0
  0
ARC
  5
9065
  8
0
 10
232.7107116603224
 20
117.01692731400971
 30
0.0
 40
0.1999999999999815
 50
270.0
 51
0.0
  0
LINE
  5
9066
  8
0
 10
218.7757116603224
 20
154.06692731400969
 30
0.0
 11
234.2757116603224
 21
154.06692731400969
 31
0.0
  0
LINE
  5
9067
  8
0
 10
218.7757116603224
 20
134.38692731400971
 30
0.0
 11
234.2757116603224
 21
134.38692731400971
 31
0.0
  0
LINE
  5
9068
  8
0
 10
220.14071166032241
 20
132.1169328206243
 30
0.0
 11
232.91071166032239
 21
132.1169328206243
 31
0.0
  0
LINE
  5
9069
  8
0
 10
220.3407116603224
 20
116.8169273140097
 30
0.0
 11
232.7107116603224
 21
116.8169273140097
 31
0.0
  0
LINE
  5
906A
  8
1
 10
226.5257116603224
 20
73.536219335631714
 30
0.0
 11
226.5257116603224
 21
170.09763529238771
 31
0.0
  0
LINE
  5
906B
  8
0
 10
231.55679332972721
 20
115.8169273140097
 30
0.0
 11
231.69733416442961
 21
116.8169273140097
 31
0.0
  0
LINE
  5
906C
  8
0
 10
221.3540891562152
 20
116.8169273140097
 30
0.0
 11
221.49462999091759
 21
115.8169273140097
 31
0.0
  0
ARC
  5
90B0
  8
0
 10
64.579240012712845
 20
323.35548003376903
 30
0.0
 40
2.0000000000000191
 50
4.711909961644464
 51
90.0
  0
ARC
  5
90B1
  8
0
 10
64.579240012712816
 20
225.355480033769
 30
0.0
 40
2.0000000000000209
 50
270.0
 51
355.28809003835551
  0
LINE
  5
90B2
  8
0
 10
46.762082874763557
 20
223.355480033769
 30
0.0
 11
64.579240012712816
 21
223.355480033769
 31
0.0
  0
LINE
  5
90B3
  8
0
 10
64.579240012712845
 20
325.35548003376903
 30
0.0
 11
46.762082874763557
 21
325.35548003376903
 31
0.0
  0
ARC
  5
90B4
  8
0
 10
46.762082874763557
 20
324.10548003376903
 30
0.0
 40
1.25
 50
90.0
 51
180.0
  0
ARC
  5
90B5
  8
0
 10
46.762082874763557
 20
224.605480033769
 30
0.0
 40
1.2500000000000011
 50
180.0
 51
270.0
  0
LINE
  5
90B6
  8
0
 10
35.712082874763553
 20
259.35548003376903
 30
0.0
 11
45.512082874763557
 21
259.35548003376903
 31
0.0
  0
LINE
  5
90B7
  8
0
 10
45.512082874763557
 20
289.35548003376903
 30
0.0
 11
35.712082874763553
 21
289.35548003376903
 31
0.0
  0
LINE
  5
90B8
  8
0
 10
35.512082874763557
 20
263.35548003376903
 30
0.0
 11
35.712082874763553
 21
263.35548003376903
 31
0.0
  0
LINE
  5
90B9
  8
0
 10
35.712082874763553
 20
285.35548003376903
 30
0.0
 11
35.512082874763557
 21
285.35548003376903
 31
0.0
  0
LINE
  5
90BA
  8
0
 10
66.57248067849018
 20
225.19118868192311
 30
0.0
 11
69.512082874763564
 21
260.85548003376903
 31
0.0
  0
LINE
  5
90BB
  8
0
 10
45.512082874763557
 20
324.10548003376903
 30
0.0
 11
45.512082874763557
 21
224.605480033769
 31
0.0
  0
LINE
  5
90BC
  8
0
 10
35.712082874763553
 20
289.35548003376903
 30
0.0
 11
35.712082874763553
 21
259.35548003376903
 31
0.0
  0
LINE
  5
90BD
  8
0
 10
35.512082874763557
 20
285.35548003376903
 30
0.0
 11
35.512082874763557
 21
263.35548003376903
 31
0.0
  0
LINE
  5
90BE
  8
0
 10
69.512082874763564
 20
287.85548003376903
 30
0.0
 11
69.512082874763564
 21
260.85548003376903
 31
0.0
  0
LINE
  5
90BF
  8
0
 10
66.572480678490209
 20
323.519771385615
 30
0.0
 11
66.57248067849018
 21
225.19118868192311
 31
0.0
  0
LINE
  5
90C1
  8
2
 10
57.512082874763557
 20
286.85548003376903
 30
0.0
 11
57.512082874763557
 21
261.85548003376903
 31
0.0
  0
LINE
  5
90C2
  8
2
 10
66.512082874763564
 20
287.8554800337692
 30
0.0
 11
66.512082874763564
 21
260.85548003376709
 31
0.0
  0
LINE
  5
90C3
  8
2
 10
35.71208287476361
 20
263.35548003376903
 30
0.0
 11
56.512082874763557
 21
263.35548003376903
 31
0.0
  0
LINE
  5
90C4
  8
2
 10
35.512082874763557
 20
279.35548003376903
 30
0.0
 11
57.512082874763557
 21
279.35548003376908
 31
0.0
  0
LINE
  5
90C5
  8
2
 10
57.512082874763557
 20
269.35548003376908
 30
0.0
 11
35.512082874763557
 21
269.35548003376908
 31
0.0
  0
LINE
  5
90C6
  8
2
 10
56.512082874763557
 20
264.35548003376903
 30
0.0
 11
56.512082874763557
 21
263.35548003376903
 31
0.0
  0
LINE
  5
90C7
  8
2
 10
57.512082874763557
 20
264.35548003376903
 30
0.0
 11
56.512082874763557
 21
264.35548003376903
 31
0.0
  0
LINE
  5
90C8
  8
2
 10
35.71208287476361
 20
285.35548003376903
 30
0.0
 11
56.512082874763557
 21
285.35548003376903
 31
0.0
  0
LINE
  5
90C9
  8
2
 10
56.512082874763557
 20
284.35548003376903
 30
0.0
 11
56.512082874763557
 21
285.35548003376903
 31
0.0
  0
LINE
  5
90CA
  8
2
 10
57.512082874763557
 20
284.35548003376903
 30
0.0
 11
56.512082874763557
 21
284.35548003376903
 31
0.0
  0
LINE
  5
90CB
  8
2
 10
69.512082874763564
 20
287.8554800337692
 30
0.0
 11
66.51208287476355
 21
287.8554800337692
 31
0.0
  0
LINE
  5
90CC
  8
2
 10
69.512082874763564
 20
260.85548003376709
 30
0.0
 11
66.512082874763536
 21
260.85548003376709
 31
0.0
  0
LINE
  5
90CD
  8
2
 10
66.512082874763564
 20
261.85548003376903
 30
0.0
 11
57.512082874763557
 21
261.85548003376903
 31
0.0
  0
LINE
  5
90CE
  8
2
 10
66.512082874763564
 20
286.85548003376903
 30
0.0
 11
57.512082874763557
 21
286.85548003376903
 31
0.0
  0
LINE
  5
90CF
  8
2
 10
68.512082874764687
 20
260.85548003376709
 30
0.0
 11
68.512082874764715
 21
287.8554800337692
 31
0.0
  0
LINE
  5
90D2
  8
1
 10
58.501305923298062
 20
313.35548003376891
 30
0.0
 11
123.5832576299557
 21
313.35548003376891
 31
0.0
  0
LINE
  5
90D3
  8
1
 10
27.231374896385429
 20
274.35548003376891
 30
0.0
 11
77.58325762995571
 21
274.35548003376891
 31
0.0
  0
ARC
  5
9113
  8
0
 10
107.76208287476361
 20
313.35548003376891
 30
0.0
 40
7.7500000000000071
 50
270.0
 51
90.0
  0
LINE
  5
9114
  8
0
 10
88.082082874763586
 20
305.60548003376891
 30
0.0
 11
107.76208287476361
 21
305.60548003376891
 31
0.0
  0
LINE
  5
9115
  8
0
 10
107.76208287476361
 20
321.10548003376891
 30
0.0
 11
88.082082874763586
 21
321.10548003376891
 31
0.0
  0
ARC
  5
9116
  8
0
 10
88.082082874763586
 20
318.53548003376898
 30
0.0
 40
2.5699999999999932
 50
90.0
 51
152.03892575080309
  0
ARC
  5
9117
  8
0
 10
88.082082874763586
 20
308.17548003376902
 30
0.0
 40
2.5700000000000069
 50
207.96107424919671
 51
270.0
  0
LINE
  5
9118
  8
0
 10
70.712082874763581
 20
306.97048003376892
 30
0.0
 11
85.812088381378175
 21
306.97048003376892
 31
0.0
  0
LINE
  5
9119
  8
0
 10
85.812088381378175
 20
319.7404800337689
 30
0.0
 11
70.712082874763581
 21
319.7404800337689
 31
0.0
  0
ARC
  5
911A
  8
0
 10
70.712082874763581
 20
319.54048003376897
 30
0.0
 40
0.1999999999999815
 50
90.0
 51
180.0
  0
ARC
  5
911B
  8
0
 10
70.712082874763581
 20
307.17048003376902
 30
0.0
 40
0.1999999999999815
 50
180.0
 51
270.0
  0
LINE
  5
911E
  8
0
 10
107.76208287476361
 20
321.10548003376891
 30
0.0
 11
107.76208287476361
 21
305.60548003376891
 31
0.0
  0
LINE
  5
911F
  8
0
 10
88.082082874763586
 20
321.10548003376891
 30
0.0
 11
88.082082874763586
 21
305.60548003376891
 31
0.0
  0
LINE
  5
9120
  8
0
 10
85.812088381378175
 20
319.7404800337689
 30
0.0
 11
85.812088381378175
 21
306.97048003376892
 31
0.0
  0
LINE
  5
9121
  8
0
 10
70.512082874763593
 20
319.54048003376897
 30
0.0
 11
70.512082874763593
 21
307.17048003376902
 31
0.0
  0
LINE
  5
9232
  8
0
 10
69.512082874763593
 20
308.32439836436407
 30
0.0
 11
70.512082874763593
 21
308.18385752966168
 31
0.0
  0
LINE
  5
9233
  8
0
 10
70.512082874763593
 20
318.52710253787609
 30
0.0
 11
69.512082874763593
 21
318.38656170317358
 31
0.0
  0
LINE
  5
9234
  8
0
 10
68.812082874763604
 20
305.35548003376891
 30
0.0
 11
69.512082874763593
 21
306.0554800337689
 31
0.0
  0
LINE
  5
9235
  8
0
 10
69.512082874763593
 20
320.65548003376892
 30
0.0
 11
68.812082874763604
 21
321.35548003376891
 31
0.0
  0
LINE
  5
9237
  8
0
 10
68.812082874763604
 20
321.35548003376891
 30
0.0
 11
66.750870753551411
 21
321.35548003376891
 31
0.0
  0
LINE
  5
9238
  8
0
 10
69.512082874763593
 20
320.65548003376892
 30
0.0
 11
69.512082874763593
 21
306.0554800337689
 31
0.0
  0
LINE
  5
9241
  8
0
 10
66.57248067849018
 20
323.51977138561472
 30
0.0
 11
69.512082874763564
 21
287.8554800337688
 31
0.0
  0
LINE
  5
9243
  8
0
 10
68.812082874763604
 20
305.35548003376903
 30
0.0
 11
68.069658632339298
 21
305.35548003376903
 31
0.0
  0
LINE
  5
9244
  8
1
 10
395.32882993610713
 20
73.536219335631699
 30
0.0
 11
395.32882993610713
 21
124.09763529238769
 31
0.0
  0
ARC
  5
9246
  8
0
 10
558.40788034094567
 20
225.35548003376891
 30
0.0
 40
2.0000000000000191
 50
184.71190996164441
 51
270.0
  0
ARC
  5
9247
  8
0
 10
558.40788034094567
 20
323.35548003376891
 30
0.0
 40
2.0000000000000209
 50
90.0
 51
175.28809003835551
  0
LINE
  5
9248
  8
0
 10
576.22503747889493
 20
325.35548003376891
 30
0.0
 11
558.40788034094567
 21
325.35548003376891
 31
0.0
  0
LINE
  5
9249
  8
0
 10
558.40788034094567
 20
223.35548003376891
 30
0.0
 11
576.22503747889493
 21
223.35548003376891
 31
0.0
  0
ARC
  5
924A
  8
0
 10
576.22503747889493
 20
224.60548003376891
 30
0.0
 40
1.25
 50
270.0
 51
0.0
  0
ARC
  5
924B
  8
0
 10
576.22503747889493
 20
324.10548003376891
 30
0.0
 40
1.2500000000000011
 50
0.0
 51
90.0
  0
LINE
  5
924C
  8
0
 10
587.275037478895
 20
289.35548003376891
 30
0.0
 11
577.47503747889493
 21
289.35548003376891
 31
0.0
  0
LINE
  5
924D
  8
0
 10
577.47503747889493
 20
259.35548003376891
 30
0.0
 11
587.275037478895
 21
259.35548003376891
 31
0.0
  0
LINE
  5
924E
  8
0
 10
587.47503747889493
 20
285.35548003376891
 30
0.0
 11
587.275037478895
 21
285.35548003376891
 31
0.0
  0
LINE
  5
924F
  8
0
 10
587.275037478895
 20
263.35548003376891
 30
0.0
 11
587.47503747889493
 21
263.35548003376891
 31
0.0
  0
LINE
  5
9250
  8
0
 10
556.41463967516825
 20
323.51977138561477
 30
0.0
 11
553.47503747889493
 21
287.85548003376891
 31
0.0
  0
LINE
  5
9251
  8
0
 10
577.47503747889493
 20
224.60548003376891
 30
0.0
 11
577.47503747889493
 21
324.10548003376891
 31
0.0
  0
LINE
  5
9252
  8
0
 10
587.275037478895
 20
259.35548003376891
 30
0.0
 11
587.275037478895
 21
289.35548003376891
 31
0.0
  0
LINE
  5
9253
  8
0
 10
587.47503747889493
 20
263.35548003376891
 30
0.0
 11
587.47503747889493
 21
285.35548003376891
 31
0.0
  0
LINE
  5
9254
  8
0
 10
553.47503747889493
 20
260.85548003376891
 30
0.0
 11
553.47503747889493
 21
287.85548003376891
 31
0.0
  0
LINE
  5
9255
  8
0
 10
556.41463967516825
 20
225.19118868192299
 30
0.0
 11
556.41463967516825
 21
323.51977138561477
 31
0.0
  0
LINE
  5
9256
  8
0
 10
556.41463967516825
 20
225.19118868192299
 30
0.0
 11
553.47503747889493
 21
260.85548003376891
 31
0.0
  0
LINE
  5
9257
  8
2
 10
565.47503747889493
 20
261.85548003376891
 30
0.0
 11
565.47503747889493
 21
286.85548003376891
 31
0.0
  0
LINE
  5
9258
  8
2
 10
556.47503747889493
 20
260.8554800337688
 30
0.0
 11
556.47503747889493
 21
287.85548003377079
 31
0.0
  0
LINE
  5
9259
  8
2
 10
587.27503747889489
 20
285.35548003376891
 30
0.0
 11
566.47503747889493
 21
285.35548003376891
 31
0.0
  0
LINE
  5
925A
  8
2
 10
587.47503747889493
 20
269.35548003376891
 30
0.0
 11
565.47503747889493
 21
269.3554800337688
 31
0.0
  0
LINE
  5
925B
  8
2
 10
565.47503747889493
 20
279.3554800337688
 30
0.0
 11
587.47503747889493
 21
279.3554800337688
 31
0.0
  0
LINE
  5
925C
  8
2
 10
566.47503747889493
 20
284.35548003376891
 30
0.0
 11
566.47503747889493
 21
285.35548003376891
 31
0.0
  0
LINE
  5
925D
  8
2
 10
565.47503747889493
 20
284.35548003376891
 30
0.0
 11
566.47503747889493
 21
284.35548003376891
 31
0.0
  0
LINE
  5
925E
  8
2
 10
587.27503747889489
 20
263.35548003376891
 30
0.0
 11
566.47503747889493
 21
263.35548003376891
 31
0.0
  0
LINE
  5
925F
  8
2
 10
566.47503747889493
 20
264.35548003376891
 30
0.0
 11
566.47503747889493
 21
263.35548003376891
 31
0.0
  0
LINE
  5
9260
  8
2
 10
565.47503747889493
 20
264.35548003376891
 30
0.0
 11
566.47503747889493
 21
264.35548003376891
 31
0.0
  0
LINE
  5
9261
  8
2
 10
553.47503747889493
 20
260.8554800337688
 30
0.0
 11
556.47503747889493
 21
260.8554800337688
 31
0.0
  0
LINE
  5
9262
  8
2
 10
553.47503747889493
 20
287.8554800337709
 30
0.0
 11
556.47503747889505
 21
287.85548003377079
 31
0.0
  0
LINE
  5
9263
  8
2
 10
556.47503747889493
 20
286.85548003376891
 30
0.0
 11
565.47503747889493
 21
286.85548003376891
 31
0.0
  0
LINE
  5
9264
  8
2
 10
556.47503747889493
 20
261.85548003376891
 30
0.0
 11
565.47503747889493
 21
261.85548003376891
 31
0.0
  0
LINE
  5
9265
  8
2
 10
554.4750374788938
 20
287.85548003377079
 30
0.0
 11
554.4750374788938
 21
260.8554800337688
 31
0.0
  0
LINE
  5
9266
  8
1
 10
595.75574545727295
 20
274.35548003376891
 30
0.0
 11
545.19432950051691
 21
274.35548003376891
 31
0.0
  0
POLYLINE
  5
9328
  8
0
 66
     1
 10
0.0
 20
0.0
 30
0.0
  0
VERTEX
  5
97DF
  8
0
 10
253.65904243358719
 20
298.9500713218618
 30
0.0
  0
VERTEX
  5
97E0
  8
0
 10
253.24017751650061
 20
299.36266865515421
 30
0.0
  0
VERTEX
  5
97E1
  8
0
 10
252.37457578658609
 20
300.17731695863029
 30
0.0
  0
VERTEX
  5
97E2
  8
0
 10
251.47293375442061
 20
300.97517511354158
 30
0.0
  0
VERTEX
  5
97E3
  8
0
 10
251.0090600429462
 20
301.36683280348768
 30
0.0
  0
SEQEND
  5
97E4
  8
0
  0
POLYLINE
  5
9329
  8
0
 66
     1
 10
0.0
 20
0.0
 30
0.0
  0
VERTEX
  5
97E5
  8
0
 10
259.6899879319555
 20
292.91912582349357
 30
0.0
  0
VERTEX
  5
97E6
  8
0
 10
258.65755187197698
 20
293.95156188347198
 30
0.0
  0
VERTEX
  5
97E7
  8
0
 10
256.63235464018351
 20
295.97675911526551
 30
0.0
  0
VERTEX
  5
97E8
  8
0
 10
254.64451799078299
 20
297.96459576466611
 30
0.0
  0
VERTEX
  5
97E9
  8
0
 10
253.65904243358719
 20
298.9500713218618
 30
0.0
  0
SEQEND
  5
97EA
  8
0
  0
POLYLINE
  5
932A
  8
0
 66
     1
 10
0.0
 20
0.0
 30
0.0
  0
VERTEX
  5
97EB
  8
0
 10
264.11919552189443
 20
287.62630895366323
 30
0.0
  0
VERTEX
  5
97EC
  8
0
 10
263.45610092046172
 20
288.54969624006662
 30
0.0
  0
VERTEX
  5
97ED
  8
0
 10
262.03776674754232
 20
290.3519147673573
 30
0.0
  0
VERTEX
  5
97EE
  8
0
 10
260.5009153069762
 20
292.08361877799422
 30
0.0
  0
VERTEX
  5
97EF
  8
0
 10
259.6899879319555
 20
292.91912582349369
 30
0.0
  0
SEQEND
  5
97F0
  8
0
  0
POLYLINE
  5
932B
  8
0
 66
     1
 10
0.0
 20
0.0
 30
0.0
  0
VERTEX
  5
97F1
  8
0
 10
270.80148727398398
 20
278.02872414307308
 30
0.0
  0
VERTEX
  5
97F2
  8
0
 10
269.60366321804099
 20
279.74912462715599
 30
0.0
  0
VERTEX
  5
97F3
  8
0
 10
267.32247847020039
 20
283.02552513438889
 30
0.0
  0
VERTEX
  5
97F4
  8
0
 10
265.16324888999083
 20
286.12676491715001
 30
0.0
  0
VERTEX
  5
97F5
  8
0
 10
264.11919552189443
 20
287.62630895366323
 30
0.0
  0
SEQEND
  5
97F6
  8
0
  0
POLYLINE
  5
932C
  8
0
 66
     1
 10
0.0
 20
0.0
 30
0.0
  0
VERTEX
  5
97F7
  8
0
 10
261.85246755101821
 20
269.0797044201073
 30
0.0
  0
VERTEX
  5
97F8
  8
0
 10
261.92249192938419
 20
269.0316338505267
 30
0.0
  0
VERTEX
  5
97F9
  8
0
 10
262.06459619780838
 20
268.93817347354991
 30
0.0
  0
VERTEX
  5
97FA
  8
0
 10
262.20928240413349
 20
268.84840934229072
 30
0.0
  0
VERTEX
  5
97FB
  8
0
 10
262.28253213656058
 20
268.80495598743801
 30
0.0
  0
VERTEX
  5
97FC
  8
0
 10
262.35635259670079
 20
268.76247603429908
 30
0.0
  0
VERTEX
  5
97FD
  8
0
 10
262.50563642252018
 20
268.6804755253778
 30
0.0
  0
VERTEX
  5
97FE
  8
0
 10
262.656952909881
 20
268.60250220971898
 30
0.0
  0
VERTEX
  5
97FF
  8
0
 10
262.81008504318692
 20
268.52865390897762
 30
0.0
  0
VERTEX
  5
9800
  8
0
 10
262.96480679340448
 20
268.45901525605331
 30
0.0
  0
VERTEX
  5
9801
  8
0
 10
263.12088489337998
 20
268.39365658508791
 30
0.0
  0
VERTEX
  5
9802
  8
0
 10
263.1993581576578
 20
268.36260009229801
 30
0.0
  0
VERTEX
  5
9803
  8
0
 10
263.27808070891479
 20
268.33263305592538
 30
0.0
  0
VERTEX
  5
9804
  8
0
 10
263.43615221675998
 20
268.27598400662453
 30
0.0
  0
VERTEX
  5
9805
  8
0
 10
263.5948549226672
 20
268.22373290339112
 30
0.0
  0
VERTEX
  5
9806
  8
0
 10
263.75393768971702
 20
268.17588881676028
 30
0.0
  0
VERTEX
  5
9807
  8
0
 10
263.91314121528887
 20
268.13244643494841
 30
0.0
  0
VERTEX
  5
9808
  8
0
 10
264.07219984889088
 20
268.09338501482569
 30
0.0
  0
VERTEX
  5
9809
  8
0
 10
264.1515905653747
 20
268.07548625760438
 30
0.0
  0
VERTEX
  5
980A
  8
0
 10
264.23084356858658
 20
268.05866756735003
 30
0.0
  0
VERTEX
  5
980B
  8
0
 10
264.3887999941764
 20
268.0282403136676
 30
0.0
  0
VERTEX
  5
980C
  8
0
 10
264.54617096765401
 20
268.00197465141088
 30
0.0
  0
VERTEX
  5
980D
  8
0
 10
264.6253307492035
 20
267.99027423763488
 30
0.0
  0
VERTEX
  5
980E
  8
0
 10
264.70489321204712
 20
267.97952616887812
 30
0.0
  0
VERTEX
  5
980F
  8
0
 10
264.86513888379051
 20
267.96093749976779
 30
0.0
  0
VERTEX
  5
9810
  8
0
 10
265.02673102909739
 20
267.94630310206333
 30
0.0
  0
VERTEX
  5
9811
  8
0
 10
265.10797591249923
 20
267.9404954307293
 30
0.0
  0
VERTEX
  5
9812
  8
0
 10
265.18948982952247
 20
267.93570702432862
 30
0.0
  0
VERTEX
  5
9813
  8
0
 10
265.35323389992823
 20
267.92922280001198
 30
0.0
  0
VERTEX
  5
9814
  8
0
 10
265.51778159018102
 20
267.92691349633373
 30
0.0
  0
VERTEX
  5
9815
  8
0
 10
265.68295229329652
 20
267.92883191864809
 30
0.0
  0
VERTEX
  5
9816
  8
0
 10
265.84856776065732
 20
267.93502097302252
 30
0.0
  0
VERTEX
  5
9817
  8
0
 10
266.01445288574553
 20
267.94551415033283
 30
0.0
  0
VERTEX
  5
9818
  8
0
 10
266.09744195715592
 20
267.95238273012529
 30
0.0
  0
VERTEX
  5
9819
  8
0
 10
266.18043260638899
 20
267.96033569645908
 30
0.0
  0
VERTEX
  5
981A
  8
0
 10
266.34632969424018
 20
267.97950037142272
 30
0.0
  0
VERTEX
  5
981B
  8
0
 10
266.51196578345792
 20
268.0030133147028
 30
0.0
  0
VERTEX
  5
981C
  8
0
 10
266.67716259882809
 20
268.0308700577736
 30
0.0
  0
VERTEX
  5
981D
  8
0
 10
266.8417431576691
 20
268.06305667625111
 30
0.0
  0
VERTEX
  5
981E
  8
0
 10
267.005532946828
 20
268.0995500811361
 30
0.0
  0
VERTEX
  5
981F
  8
0
 10
267.08707772684249
 20
268.11940221044409
 30
0.0
  0
VERTEX
  5
9820
  8
0
 10
267.16836107533533
 20
268.14031845006082
 30
0.0
  0
VERTEX
  5
9821
  8
0
 10
267.33007508482569
 20
268.18532580193983
 30
0.0
  0
VERTEX
  5
9822
  8
0
 10
267.49056450346768
 20
268.23454187716032
 30
0.0
  0
VERTEX
  5
9823
  8
0
 10
267.6496708139112
 20
268.287916426675
 30
0.0
  0
VERTEX
  5
9824
  8
0
 10
267.80723063719381
 20
268.34538837303552
 30
0.0
  0
VERTEX
  5
9825
  8
0
 10
267.96308218920387
 20
268.40688729958532
 30
0.0
  0
VERTEX
  5
9826
  8
0
 10
268.04031753856549
 20
268.43912237982772
 30
0.0
  0
VERTEX
  5
9827
  8
0
 10
268.11706648156201
 20
268.47233369845799
 30
0.0
  0
VERTEX
  5
9828
  8
0
 10
268.26902847404108
 20
268.54163935210153
 30
0.0
  0
VERTEX
  5
9829
  8
0
 10
268.41881817927691
 20
268.61470784858102
 30
0.0
  0
VERTEX
  5
982A
  8
0
 10
268.5662917203021
 20
268.6914352324722
 30
0.0
  0
VERTEX
  5
982B
  8
0
 10
268.71131182684621
 20
268.7717105013395
 30
0.0
  0
VERTEX
  5
982C
  8
0
 10
268.8537449568056
 20
268.85541412600543
 30
0.0
  0
VERTEX
  5
982D
  8
0
 10
268.92395021771961
 20
268.89851152375689
 30
0.0
  0
VERTEX
  5
982E
  8
0
 10
268.99345967289167
 20
268.94241672972697
 30
0.0
  0
VERTEX
  5
982F
  8
0
 10
269.1303278501963
 20
269.03257925168191
 30
0.0
  0
VERTEX
  5
9830
  8
0
 10
269.26422597979899
 20
269.12575333963753
 30
0.0
  0
VERTEX
  5
9831
  8
0
 10
269.39503638712438
 20
269.22178187641663
 30
0.0
  0
VERTEX
  5
9832
  8
0
 10
269.52264836689119
 20
269.32049963897811
 30
0.0
  0
VERTEX
  5
9833
  8
0
 10
269.6469592372211
 20
269.42173409157152
 30
0.0
  0
VERTEX
  5
9834
  8
0
 10
269.70789327229829
 20
269.47327893419367
 30
0.0
  0
VERTEX
  5
9835
  8
0
 10
269.76833424126562
 20
269.52570941313752
 30
0.0
  0
VERTEX
  5
9836
  8
0
 10
269.88783105619069
 20
269.633357101397
 30
0.0
  0
VERTEX
  5
9837
  8
0
 10
270.005321314762
 20
269.74466362492171
 30
0.0
  0
VERTEX
  5
9838
  8
0
 10
270.06325533968919
 20
269.80166537240171
 30
0.0
  0
VERTEX
  5
9839
  8
0
 10
270.12061811049779
 20
269.85955239574139
 30
0.0
  0
VERTEX
  5
983A
  8
0
 10
270.2335409051783
 20
269.97793798216941
 30
0.0
  0
VERTEX
  5
983B
  8
0
 10
270.34391644465398
 20
270.09972707236642
 30
0.0
  0
VERTEX
  5
983C
  8
0
 10
270.39809704237751
 20
270.16186687791162
 30
0.0
  0
VERTEX
  5
983D
  8
0
 10
270.45157955721788
 20
270.2248195448667
 30
0.0
  0
VERTEX
  5
983E
  8
0
 10
270.5563738347318
 20
270.35310964870831
 30
0.0
  0
VERTEX
  5
983F
  8
0
 10
270.65815219100841
 20
270.48448729143331
 30
0.0
  0
VERTEX
  5
9840
  8
0
 10
270.75677661328342
 20
270.61883848417563
 30
0.0
  0
VERTEX
  5
9841
  8
0
 10
270.85211565790547
 20
270.756042429535
 30
0.0
  0
VERTEX
  5
9842
  8
0
 10
270.94404391473603
 20
270.89597050306588
 30
0.0
  0
VERTEX
  5
9843
  8
0
 10
270.98869166984269
 20
270.96691396125033
 30
0.0
  0
VERTEX
  5
9844
  8
0
 10
271.03244286647828
 20
271.03848711315658
 30
0.0
  0
VERTEX
  5
9845
  8
0
 10
271.11720166077419
 20
271.18345068537201
 30
0.0
  0
VERTEX
  5
9846
  8
0
 10
271.1982177558852
 20
271.33071471922858
 30
0.0
  0
VERTEX
  5
9847
  8
0
 10
271.27539744074772
 20
271.48012891805848
 30
0.0
  0
VERTEX
  5
9848
  8
0
 10
271.34865622858371
 20
271.63154039288128
 30
0.0
  0
VERTEX
  5
9849
  8
0
 10
271.41793061342781
 20
271.78482128144321
 30
0.0
  0
VERTEX
  5
984A
  8
0
 10
271.45105856503687
 20
271.86212994382299
 30
0.0
  0
VERTEX
  5
984B
  8
0
 10
271.48316914446508
 20
271.93985776675879
 30
0.0
  0
VERTEX
  5
984C
  8
0
 10
271.54430705091522
 20
272.09648907836907
 30
0.0
  0
VERTEX
  5
984D
  8
0
 10
271.60128704109411
 20
272.25454823934899
 30
0.0
  0
VERTEX
  5
984E
  8
0
 10
271.65406025722439
 20
272.41386367436849
 30
0.0
  0
VERTEX
  5
984F
  8
0
 10
271.70258683776069
 20
272.5742603239662
 30
0.0
  0
VERTEX
  5
9850
  8
0
 10
271.74683634297742
 20
272.73556080889858
 30
0.0
  0
VERTEX
  5
9851
  8
0
 10
271.76735033011869
 20
272.81649422228571
 30
0.0
  0
VERTEX
  5
9852
  8
0
 10
271.78678804385243
 20
272.89758664540142
 30
0.0
  0
VERTEX
  5
9853
  8
0
 10
271.8224310710616
 20
273.06015950406828
 30
0.0
  0
VERTEX
  5
9854
  8
0
 10
271.85376418222722
 20
273.22310116949359
 30
0.0
  0
VERTEX
  5
9855
  8
0
 10
271.88079500674189
 20
273.3862296676071
 30
0.0
  0
VERTEX
  5
9856
  8
0
 10
271.90354032789031
 20
273.54935839320058
 30
0.0
  0
VERTEX
  5
9857
  8
0
 10
271.92202674122899
 20
273.71229732410649
 30
0.0
  0
VERTEX
  5
9858
  8
0
 10
271.9296839792309
 20
273.79363561500497
 30
0.0
  0
VERTEX
  5
9859
  8
0
 10
271.93629115970663
 20
273.87485430170818
 30
0.0
  0
VERTEX
  5
985A
  8
0
 10
271.9463811584032
 20
274.0368363320286
 30
0.0
  0
VERTEX
  5
985B
  8
0
 10
271.95235516084318
 20
274.19805090858461
 30
0.0
  0
VERTEX
  5
985C
  8
0
 10
271.954282466998
 20
274.35830771851778
 30
0.0
  0
VERTEX
  5
985D
  8
0
 10
271.9522132016067
 20
274.5186013141514
 30
0.0
  0
VERTEX
  5
985E
  8
0
 10
271.94609460198097
 20
274.67984633088179
 30
0.0
  0
VERTEX
  5
985F
  8
0
 10
271.94149484090889
 20
274.76076609563933
 30
0.0
  0
VERTEX
  5
9860
  8
0
 10
271.93585775175308
 20
274.84185200948218
 30
0.0
  0
VERTEX
  5
9861
  8
0
 10
271.92144461287592
 20
275.00442580335528
 30
0.0
  0
VERTEX
  5
9862
  8
0
 10
271.902807991847
 20
275.16737472564648
 30
0.0
  0
VERTEX
  5
9863
  8
0
 10
271.8918940488777
 20
275.24892975697202
 30
0.0
  0
VERTEX
  5
9864
  8
0
 10
271.8799113478035
 20
275.33050667128111
 30
0.0
  0
VERTEX
  5
9865
  8
0
 10
271.85272844214597
 20
275.49363171731852
 30
0.0
  0
VERTEX
  5
9866
  8
0
 10
271.82124282768791
 20
275.65656340272488
 30
0.0
  0
VERTEX
  5
9867
  8
0
 10
271.80388387967758
 20
275.73789972270572
 30
0.0
  0
VERTEX
  5
9868
  8
0
 10
271.7854471871878
 20
275.81911993003553
 30
0.0
  0
VERTEX
  5
9869
  8
0
 10
271.74534308943203
 20
275.98112313675199
 30
0.0
  0
VERTEX
  5
986A
  8
0
 10
271.7009417532974
 20
276.1423946682882
 30
0.0
  0
VERTEX
  5
986B
  8
0
 10
271.65226425498469
 20
276.3027560586508
 30
0.0
  0
VERTEX
  5
986C
  8
0
 10
271.59934137351559
 20
276.46202999027611
 30
0.0
  0
VERTEX
  5
986D
  8
0
 10
271.54221329699578
 20
276.62004150746532
 30
0.0
  0
VERTEX
  5
986E
  8
0
 10
271.51208733904792
 20
276.69852011994089
 30
0.0
  0
VERTEX
  5
986F
  8
0
 10
271.4809291921934
 20
276.77661917895227
 30
0.0
  0
VERTEX
  5
9870
  8
0
 10
271.41554663735781
 20
276.9315962104065
 30
0.0
  0
VERTEX
  5
9871
  8
0
 10
271.34613047912342
 20
277.08481244041923
 30
0.0
  0
VERTEX
  5
9872
  8
0
 10
271.27273079049837
 20
277.2361573377438
 30
0.0
  0
VERTEX
  5
9873
  8
0
 10
271.19541261953998
 20
277.38550010718279
 30
0.0
  0
VERTEX
  5
9874
  8
0
 10
271.11426155196853
 20
277.53268646723012
 30
0.0
  0
VERTEX
  5
9875
  8
0
 10
271.07227787712208
 20
277.60542369711129
 30
0.0
  0
VERTEX
  5
9876
  8
0
 10
271.02937208560138
 20
277.67756560392831
 30
0.0
  0
VERTEX
  5
9877
  8
0
 10
270.94084713285321
 20
277.81999131624201
 30
0.0
  0
VERTEX
  5
9878
  8
0
 10
270.84879739549029
 20
277.95982309017961
 30
0.0
  0
VERTEX
  5
9879
  8
0
 10
270.80148727398398
 20
278.02872414307308
 30
0.0
  0
SEQEND
  5
987A
  8
0
  0
POLYLINE
  5
932D
  8
0
 66
     1
 10
0.0
 20
0.0
 30
0.0
  0
VERTEX
  5
987B
  8
0
 10
252.254882740428
 20
275.76199617219692
 30
0.0
  0
VERTEX
  5
987C
  8
0
 10
253.52931349587729
 20
274.87467730043738
 30
0.0
  0
VERTEX
  5
987D
  8
0
 10
256.40832781525512
 20
272.87017158153009
 30
0.0
  0
VERTEX
  5
987E
  8
0
 10
259.85370782520221
 20
270.47133532452921
 30
0.0
  0
VERTEX
  5
987F
  8
0
 10
261.85246755101821
 20
269.07970442010719
 30
0.0
  0
SEQEND
  5
9880
  8
0
  0
POLYLINE
  5
932E
  8
0
 66
     1
 10
0.0
 20
0.0
 30
0.0
  0
VERTEX
  5
9881
  8
0
 10
246.96206587059751
 20
280.1912037621359
 30
0.0
  0
VERTEX
  5
9882
  8
0
 10
247.7827567295686
 20
279.39424057483171
 30
0.0
  0
VERTEX
  5
9883
  8
0
 10
249.5009978810557
 20
277.86708204389288
 30
0.0
  0
VERTEX
  5
9884
  8
0
 10
251.3148942826034
 20
276.4373897113212
 30
0.0
  0
VERTEX
  5
9885
  8
0
 10
252.254882740428
 20
275.76199617219692
 30
0.0
  0
SEQEND
  5
9886
  8
0
  0
POLYLINE
  5
932F
  8
0
 66
     1
 10
0.0
 20
0.0
 30
0.0
  0
VERTEX
  5
9887
  8
0
 10
240.93112037222929
 20
286.22214926050401
 30
0.0
  0
VERTEX
  5
9888
  8
0
 10
241.86740334395969
 20
285.28586628877372
 30
0.0
  0
VERTEX
  5
9889
  8
0
 10
243.79758488892799
 20
283.35568474380528
 30
0.0
  0
VERTEX
  5
988A
  8
0
 10
245.85872272191659
 20
281.29454691081668
 30
0.0
  0
VERTEX
  5
988B
  8
0
 10
246.9620658705976
 20
280.19120376213567
 30
0.0
  0
SEQEND
  5
988C
  8
0
  0
POLYLINE
  5
9330
  8
0
 66
     1
 10
0.0
 20
0.0
 30
0.0
  0
VERTEX
  5
988D
  8
0
 10
238.51435889060369
 20
288.87213165114508
 30
0.0
  0
VERTEX
  5
988E
  8
0
 10
238.9029905066534
 20
288.41178632601719
 30
0.0
  0
VERTEX
  5
988F
  8
0
 10
239.69642969726891
 20
287.51477448180788
 30
0.0
  0
VERTEX
  5
9890
  8
0
 10
240.51170774553859
 20
286.64803988783018
 30
0.0
  0
VERTEX
  5
9891
  8
0
 10
240.93112037222929
 20
286.22214926050401
 30
0.0
  0
SEQEND
  5
9892
  8
0
  0
POLYLINE
  5
9331
  8
0
 66
     1
 10
0.0
 20
0.0
 30
0.0
  0
VERTEX
  5
9893
  8
0
 10
225.6075179421467
 20
304.40244030997098
 30
0.0
  0
VERTEX
  5
9894
  8
0
 10
227.93701204692249
 20
301.59944904273863
 30
0.0
  0
VERTEX
  5
9895
  8
0
 10
232.94688666500559
 20
295.57125829710509
 30
0.0
  0
VERTEX
  5
9896
  8
0
 10
236.80181744101819
 20
290.93276735660601
 30
0.0
  0
VERTEX
  5
9897
  8
0
 10
238.51435889060369
 20
288.87213165114508
 30
0.0
  0
SEQEND
  5
9898
  8
0
  0
POLYLINE
  5
9332
  8
0
 66
     1
 10
0.0
 20
0.0
 30
0.0
  0
VERTEX
  5
9899
  8
0
 10
251.0090600429462
 20
301.36683280348768
 30
0.0
  0
VERTEX
  5
989A
  8
0
 10
248.39482823493469
 20
303.53945376612552
 30
0.0
  0
VERTEX
  5
989B
  8
0
 10
243.0757522459775
 20
307.96000130902382
 30
0.0
  0
VERTEX
  5
989C
  8
0
 10
237.3880051537032
 20
312.68694194412279
 30
0.0
  0
VERTEX
  5
989D
  8
0
 10
235.47875138412019
 20
314.27367375194473
 30
0.0
  0
SEQEND
  5
989E
  8
0
  0
POLYLINE
  5
9374
  8
0
 66
     1
 10
0.0
 20
0.0
 30
0.0
  0
VERTEX
  5
989F
  8
0
 10
422.46216070937191
 20
298.9500713218618
 30
0.0
  0
VERTEX
  5
98A0
  8
0
 10
422.04329579228528
 20
299.36266865515421
 30
0.0
  0
VERTEX
  5
98A1
  8
0
 10
421.1776940623709
 20
300.17731695863029
 30
0.0
  0
VERTEX
  5
98A2
  8
0
 10
420.27605203020539
 20
300.97517511354158
 30
0.0
  0
VERTEX
  5
98A3
  8
0
 10
419.8121783187309
 20
301.36683280348768
 30
0.0
  0
SEQEND
  5
98A4
  8
0
  0
POLYLINE
  5
9375
  8
0
 66
     1
 10
0.0
 20
0.0
 30
0.0
  0
VERTEX
  5
98A5
  8
0
 10
428.49310620774031
 20
292.91912582349357
 30
0.0
  0
VERTEX
  5
98A6
  8
0
 10
427.46067014776168
 20
293.95156188347198
 30
0.0
  0
VERTEX
  5
98A7
  8
0
 10
425.43547291596832
 20
295.97675911526551
 30
0.0
  0
VERTEX
  5
98A8
  8
0
 10
423.44763626656771
 20
297.96459576466611
 30
0.0
  0
VERTEX
  5
98A9
  8
0
 10
422.46216070937191
 20
298.9500713218618
 30
0.0
  0
SEQEND
  5
98AA
  8
0
  0
POLYLINE
  5
9376
  8
0
 66
     1
 10
0.0
 20
0.0
 30
0.0
  0
VERTEX
  5
98AB
  8
0
 10
432.92231379767912
 20
287.62630895366323
 30
0.0
  0
VERTEX
  5
98AC
  8
0
 10
432.25921919624642
 20
288.54969624006662
 30
0.0
  0
VERTEX
  5
98AD
  8
0
 10
430.84088502332702
 20
290.3519147673573
 30
0.0
  0
VERTEX
  5
98AE
  8
0
 10
429.30403358276101
 20
292.08361877799422
 30
0.0
  0
VERTEX
  5
98AF
  8
0
 10
428.4931062077402
 20
292.91912582349369
 30
0.0
  0
SEQEND
  5
98B0
  8
0
  0
POLYLINE
  5
9377
  8
0
 66
     1
 10
0.0
 20
0.0
 30
0.0
  0
VERTEX
  5
98B1
  8
0
 10
439.60460554976868
 20
278.02872414307308
 30
0.0
  0
VERTEX
  5
98B2
  8
0
 10
438.40678149382569
 20
279.74912462715599
 30
0.0
  0
VERTEX
  5
98B3
  8
0
 10
436.12559674598521
 20
283.02552513438889
 30
0.0
  0
VERTEX
  5
98B4
  8
0
 10
433.96636716577552
 20
286.12676491715001
 30
0.0
  0
VERTEX
  5
98B5
  8
0
 10
432.92231379767912
 20
287.62630895366323
 30
0.0
  0
SEQEND
  5
98B6
  8
0
  0
POLYLINE
  5
9378
  8
0
 66
     1
 10
0.0
 20
0.0
 30
0.0
  0
VERTEX
  5
98B7
  8
0
 10
430.65558582680291
 20
269.0797044201073
 30
0.0
  0
VERTEX
  5
98B8
  8
0
 10
430.72561020516889
 20
269.0316338505267
 30
0.0
  0
VERTEX
  5
98B9
  8
0
 10
430.86771447359308
 20
268.93817347354991
 30
0.0
  0
VERTEX
  5
98BA
  8
0
 10
431.01240067991807
 20
268.84840934229072
 30
0.0
  0
VERTEX
  5
98BB
  8
0
 10
431.08565041234527
 20
268.80495598743801
 30
0.0
  0
VERTEX
  5
98BC
  8
0
 10
431.1594708724856
 20
268.76247603429908
 30
0.0
  0
VERTEX
  5
98BD
  8
0
 10
431.30875469830488
 20
268.6804755253778
 30
0.0
  0
VERTEX
  5
98BE
  8
0
 10
431.4600711856657
 20
268.60250220971898
 30
0.0
  0
VERTEX
  5
98BF
  8
0
 10
431.61320331897161
 20
268.52865390897762
 30
0.0
  0
VERTEX
  5
98C0
  8
0
 10
431.76792506918918
 20
268.45901525605331
 30
0.0
  0
VERTEX
  5
98C1
  8
0
 10
431.92400316916468
 20
268.39365658508791
 30
0.0
  0
VERTEX
  5
98C2
  8
0
 10
432.00247643344261
 20
268.36260009229801
 30
0.0
  0
VERTEX
  5
98C3
  8
0
 10
432.0811989846996
 20
268.33263305592538
 30
0.0
  0
VERTEX
  5
98C4
  8
0
 10
432.23927049254468
 20
268.27598400662453
 30
0.0
  0
VERTEX
  5
98C5
  8
0
 10
432.39797319845189
 20
268.22373290339112
 30
0.0
  0
VERTEX
  5
98C6
  8
0
 10
432.55705596550177
 20
268.17588881676028
 30
0.0
  0
VERTEX
  5
98C7
  8
0
 10
432.71625949107357
 20
268.13244643494841
 30
0.0
  0
VERTEX
  5
98C8
  8
0
 10
432.87531812467569
 20
268.09338501482569
 30
0.0
  0
VERTEX
  5
98C9
  8
0
 10
432.9547088411594
 20
268.07548625760438
 30
0.0
  0
VERTEX
  5
98CA
  8
0
 10
433.03396184437128
 20
268.05866756735003
 30
0.0
  0
VERTEX
  5
98CB
  8
0
 10
433.19191826996109
 20
268.0282403136676
 30
0.0
  0
VERTEX
  5
98CC
  8
0
 10
433.3492892434387
 20
268.00197465141088
 30
0.0
  0
VERTEX
  5
98CD
  8
0
 10
433.4284490249882
 20
267.99027423763488
 30
0.0
  0
VERTEX
  5
98CE
  8
0
 10
433.50801148783182
 20
267.97952616887812
 30
0.0
  0
VERTEX
  5
98CF
  8
0
 10
433.66825715957532
 20
267.96093749976779
 30
0.0
  0
VERTEX
  5
98D0
  8
0
 10
433.82984930488209
 20
267.94630310206333
 30
0.0
  0
VERTEX
  5
98D1
  8
0
 10
433.91109418828393
 20
267.9404954307293
 30
0.0
  0
VERTEX
  5
98D2
  8
0
 10
433.99260810530711
 20
267.93570702432862
 30
0.0
  0
VERTEX
  5
98D3
  8
0
 10
434.15635217571293
 20
267.92922280001198
 30
0.0
  0
VERTEX
  5
98D4
  8
0
 10
434.32089986596571
 20
267.92691349633373
 30
0.0
  0
VERTEX
  5
98D5
  8
0
 10
434.48607056908122
 20
267.92883191864809
 30
0.0
  0
VERTEX
  5
98D6
  8
0
 10
434.65168603644202
 20
267.93502097302252
 30
0.0
  0
VERTEX
  5
98D7
  8
0
 10
434.81757116153022
 20
267.94551415033283
 30
0.0
  0
VERTEX
  5
98D8
  8
0
 10
434.90056023294051
 20
267.95238273012529
 30
0.0
  0
VERTEX
  5
98D9
  8
0
 10
434.98355088217369
 20
267.96033569645908
 30
0.0
  0
VERTEX
  5
98DA
  8
0
 10
435.14944797002488
 20
267.97950037142272
 30
0.0
  0
VERTEX
  5
98DB
  8
0
 10
435.31508405924262
 20
268.0030133147028
 30
0.0
  0
VERTEX
  5
98DC
  8
0
 10
435.48028087461279
 20
268.0308700577736
 30
0.0
  0
VERTEX
  5
98DD
  8
0
 10
435.6448614334538
 20
268.06305667625111
 30
0.0
  0
VERTEX
  5
98DE
  8
0
 10
435.8086512226127
 20
268.0995500811361
 30
0.0
  0
VERTEX
  5
98DF
  8
0
 10
435.89019600262719
 20
268.11940221044409
 30
0.0
  0
VERTEX
  5
98E0
  8
0
 10
435.97147935112008
 20
268.14031845006082
 30
0.0
  0
VERTEX
  5
98E1
  8
0
 10
436.13319336061039
 20
268.18532580193983
 30
0.0
  0
VERTEX
  5
98E2
  8
0
 10
436.29368277925238
 20
268.23454187716032
 30
0.0
  0
VERTEX
  5
98E3
  8
0
 10
436.45278908969578
 20
268.287916426675
 30
0.0
  0
VERTEX
  5
98E4
  8
0
 10
436.61034891297851
 20
268.34538837303552
 30
0.0
  0
VERTEX
  5
98E5
  8
0
 10
436.76620046498851
 20
268.40688729958532
 30
0.0
  0
VERTEX
  5
98E6
  8
0
 10
436.8434358143503
 20
268.43912237982772
 30
0.0
  0
VERTEX
  5
98E7
  8
0
 10
436.9201847573467
 20
268.47233369845799
 30
0.0
  0
VERTEX
  5
98E8
  8
0
 10
437.07214674982589
 20
268.54163935210153
 30
0.0
  0
VERTEX
  5
98E9
  8
0
 10
437.2219364550615
 20
268.61470784858102
 30
0.0
  0
VERTEX
  5
98EA
  8
0
 10
437.3694099960868
 20
268.6914352324722
 30
0.0
  0
VERTEX
  5
98EB
  8
0
 10
437.51443010263091
 20
268.7717105013395
 30
0.0
  0
VERTEX
  5
98EC
  8
0
 10
437.6568632325903
 20
268.85541412600543
 30
0.0
  0
VERTEX
  5
98ED
  8
0
 10
437.72706849350442
 20
268.89851152375689
 30
0.0
  0
VERTEX
  5
98EE
  8
0
 10
437.79657794867637
 20
268.94241672972697
 30
0.0
  0
VERTEX
  5
98EF
  8
0
 10
437.93344612598099
 20
269.03257925168191
 30
0.0
  0
VERTEX
  5
98F0
  8
0
 10
438.06734425558381
 20
269.12575333963753
 30
0.0
  0
VERTEX
  5
98F1
  8
0
 10
438.19815466290908
 20
269.22178187641663
 30
0.0
  0
VERTEX
  5
98F2
  8
0
 10
438.32576664267589
 20
269.32049963897811
 30
0.0
  0
VERTEX
  5
98F3
  8
0
 10
438.45007751300579
 20
269.42173409157152
 30
0.0
  0
VERTEX
  5
98F4
  8
0
 10
438.51101154808299
 20
269.47327893419367
 30
0.0
  0
VERTEX
  5
98F5
  8
0
 10
438.57145251705032
 20
269.52570941313752
 30
0.0
  0
VERTEX
  5
98F6
  8
0
 10
438.69094933197539
 20
269.633357101397
 30
0.0
  0
VERTEX
  5
98F7
  8
0
 10
438.8084395905467
 20
269.74466362492171
 30
0.0
  0
VERTEX
  5
98F8
  8
0
 10
438.86637361547389
 20
269.80166537240171
 30
0.0
  0
VERTEX
  5
98F9
  8
0
 10
438.92373638628249
 20
269.85955239574139
 30
0.0
  0
VERTEX
  5
98FA
  8
0
 10
439.036659180963
 20
269.97793798216941
 30
0.0
  0
VERTEX
  5
98FB
  8
0
 10
439.14703472043868
 20
270.09972707236642
 30
0.0
  0
VERTEX
  5
98FC
  8
0
 10
439.20121531816233
 20
270.16186687791162
 30
0.0
  0
VERTEX
  5
98FD
  8
0
 10
439.25469783300258
 20
270.2248195448667
 30
0.0
  0
VERTEX
  5
98FE
  8
0
 10
439.35949211051638
 20
270.35310964870831
 30
0.0
  0
VERTEX
  5
98FF
  8
0
 10
439.46127046679311
 20
270.48448729143331
 30
0.0
  0
VERTEX
  5
9900
  8
0
 10
439.55989488906812
 20
270.61883848417563
 30
0.0
  0
VERTEX
  5
9901
  8
0
 10
439.65523393369028
 20
270.756042429535
 30
0.0
  0
VERTEX
  5
9902
  8
0
 10
439.74716219052073
 20
270.89597050306588
 30
0.0
  0
VERTEX
  5
9903
  8
0
 10
439.79180994562739
 20
270.96691396125033
 30
0.0
  0
VERTEX
  5
9904
  8
0
 10
439.83556114226297
 20
271.03848711315658
 30
0.0
  0
VERTEX
  5
9905
  8
0
 10
439.92031993655888
 20
271.18345068537201
 30
0.0
  0
VERTEX
  5
9906
  8
0
 10
440.00133603167001
 20
271.33071471922858
 30
0.0
  0
VERTEX
  5
9907
  8
0
 10
440.07851571653248
 20
271.48012891805848
 30
0.0
  0
VERTEX
  5
9908
  8
0
 10
440.15177450436852
 20
271.63154039288128
 30
0.0
  0
VERTEX
  5
9909
  8
0
 10
440.22104888921251
 20
271.78482128144321
 30
0.0
  0
VERTEX
  5
990A
  8
0
 10
440.25417684082157
 20
271.86212994382299
 30
0.0
  0
VERTEX
  5
990B
  8
0
 10
440.28628742024978
 20
271.93985776675879
 30
0.0
  0
VERTEX
  5
990C
  8
0
 10
440.34742532669992
 20
272.09648907836907
 30
0.0
  0
VERTEX
  5
990D
  8
0
 10
440.40440531687881
 20
272.25454823934899
 30
0.0
  0
VERTEX
  5
990E
  8
0
 10
440.4571785330092
 20
272.41386367436849
 30
0.0
  0
VERTEX
  5
990F
  8
0
 10
440.50570511354539
 20
272.5742603239662
 30
0.0
  0
VERTEX
  5
9910
  8
0
 10
440.54995461876211
 20
272.73556080889858
 30
0.0
  0
VERTEX
  5
9911
  8
0
 10
440.57046860590339
 20
272.81649422228571
 30
0.0
  0
VERTEX
  5
9912
  8
0
 10
440.58990631963712
 20
272.89758664540142
 30
0.0
  0
VERTEX
  5
9913
  8
0
 10
440.6255493468463
 20
273.06015950406828
 30
0.0
  0
VERTEX
  5
9914
  8
0
 10
440.65688245801192
 20
273.22310116949359
 30
0.0
  0
VERTEX
  5
9915
  8
0
 10
440.68391328252659
 20
273.3862296676071
 30
0.0
  0
VERTEX
  5
9916
  8
0
 10
440.70665860367501
 20
273.54935839320058
 30
0.0
  0
VERTEX
  5
9917
  8
0
 10
440.7251450170138
 20
273.71229732410649
 30
0.0
  0
VERTEX
  5
9918
  8
0
 10
440.7328022550156
 20
273.79363561500497
 30
0.0
  0
VERTEX
  5
9919
  8
0
 10
440.73940943549132
 20
273.87485430170818
 30
0.0
  0
VERTEX
  5
991A
  8
0
 10
440.7494994341879
 20
274.0368363320286
 30
0.0
  0
VERTEX
  5
991B
  8
0
 10
440.75547343662788
 20
274.19805090858461
 30
0.0
  0
VERTEX
  5
991C
  8
0
 10
440.75740074278281
 20
274.35830771851778
 30
0.0
  0
VERTEX
  5
991D
  8
0
 10
440.75533147739139
 20
274.5186013141514
 30
0.0
  0
VERTEX
  5
991E
  8
0
 10
440.74921287776579
 20
274.67984633088179
 30
0.0
  0
VERTEX
  5
991F
  8
0
 10
440.7446131166937
 20
274.76076609563933
 30
0.0
  0
VERTEX
  5
9920
  8
0
 10
440.73897602753777
 20
274.84185200948218
 30
0.0
  0
VERTEX
  5
9921
  8
0
 10
440.72456288866061
 20
275.00442580335528
 30
0.0
  0
VERTEX
  5
9922
  8
0
 10
440.7059262676317
 20
275.16737472564648
 30
0.0
  0
VERTEX
  5
9923
  8
0
 10
440.6950123246624
 20
275.24892975697202
 30
0.0
  0
VERTEX
  5
9924
  8
0
 10
440.6830296235882
 20
275.33050667128111
 30
0.0
  0
VERTEX
  5
9925
  8
0
 10
440.65584671793067
 20
275.49363171731852
 30
0.0
  0
VERTEX
  5
9926
  8
0
 10
440.62436110347249
 20
275.65656340272488
 30
0.0
  0
VERTEX
  5
9927
  8
0
 10
440.6070021554624
 20
275.73789972270572
 30
0.0
  0
VERTEX
  5
9928
  8
0
 10
440.58856546297261
 20
275.81911993003553
 30
0.0
  0
VERTEX
  5
9929
  8
0
 10
440.54846136521672
 20
275.98112313675199
 30
0.0
  0
VERTEX
  5
992A
  8
0
 10
440.50406002908221
 20
276.1423946682882
 30
0.0
  0
VERTEX
  5
992B
  8
0
 10
440.4553825307695
 20
276.3027560586508
 30
0.0
  0
VERTEX
  5
992C
  8
0
 10
440.40245964930028
 20
276.46202999027611
 30
0.0
  0
VERTEX
  5
992D
  8
0
 10
440.34533157278048
 20
276.62004150746532
 30
0.0
  0
VERTEX
  5
992E
  8
0
 10
440.31520561483262
 20
276.69852011994089
 30
0.0
  0
VERTEX
  5
992F
  8
0
 10
440.28404746797821
 20
276.77661917895227
 30
0.0
  0
VERTEX
  5
9930
  8
0
 10
440.2186649131425
 20
276.9315962104065
 30
0.0
  0
VERTEX
  5
9931
  8
0
 10
440.14924875490811
 20
277.08481244041923
 30
0.0
  0
VERTEX
  5
9932
  8
0
 10
440.07584906628301
 20
277.2361573377438
 30
0.0
  0
VERTEX
  5
9933
  8
0
 10
439.99853089532468
 20
277.38550010718279
 30
0.0
  0
VERTEX
  5
9934
  8
0
 10
439.91737982775328
 20
277.53268646723012
 30
0.0
  0
VERTEX
  5
9935
  8
0
 10
439.87539615290677
 20
277.60542369711129
 30
0.0
  0
VERTEX
  5
9936
  8
0
 10
439.83249036138608
 20
277.67756560392831
 30
0.0
  0
VERTEX
  5
9937
  8
0
 10
439.74396540863791
 20
277.81999131624201
 30
0.0
  0
VERTEX
  5
9938
  8
0
 10
439.65191567127499
 20
277.95982309017961
 30
0.0
  0
VERTEX
  5
9939
  8
0
 10
439.60460554976868
 20
278.02872414307308
 30
0.0
  0
SEQEND
  5
993A
  8
0
  0
POLYLINE
  5
9379
  8
0
 66
     1
 10
0.0
 20
0.0
 30
0.0
  0
VERTEX
  5
993B
  8
0
 10
421.0580010162127
 20
275.76199617219692
 30
0.0
  0
VERTEX
  5
993C
  8
0
 10
422.33243177166202
 20
274.87467730043738
 30
0.0
  0
VERTEX
  5
993D
  8
0
 10
425.21144609103982
 20
272.87017158153009
 30
0.0
  0
VERTEX
  5
993E
  8
0
 10
428.65682610098702
 20
270.47133532452921
 30
0.0
  0
VERTEX
  5
993F
  8
0
 10
430.65558582680291
 20
269.07970442010719
 30
0.0
  0
SEQEND
  5
9940
  8
0
  0
POLYLINE
  5
937A
  8
0
 66
     1
 10
0.0
 20
0.0
 30
0.0
  0
VERTEX
  5
9941
  8
0
 10
415.76518414638218
 20
280.1912037621359
 30
0.0
  0
VERTEX
  5
9942
  8
0
 10
416.58587500535327
 20
279.39424057483171
 30
0.0
  0
VERTEX
  5
9943
  8
0
 10
418.30411615684039
 20
277.86708204389288
 30
0.0
  0
VERTEX
  5
9944
  8
0
 10
420.1180125583881
 20
276.4373897113212
 30
0.0
  0
VERTEX
  5
9945
  8
0
 10
421.0580010162127
 20
275.76199617219692
 30
0.0
  0
SEQEND
  5
9946
  8
0
  0
POLYLINE
  5
937B
  8
0
 66
     1
 10
0.0
 20
0.0
 30
0.0
  0
VERTEX
  5
9947
  8
0
 10
409.73423864801401
 20
286.22214926050401
 30
0.0
  0
VERTEX
  5
9948
  8
0
 10
410.67052161974442
 20
285.28586628877372
 30
0.0
  0
VERTEX
  5
9949
  8
0
 10
412.60070316471268
 20
283.35568474380528
 30
0.0
  0
VERTEX
  5
994A
  8
0
 10
414.66184099770129
 20
281.29454691081668
 30
0.0
  0
VERTEX
  5
994B
  8
0
 10
415.7651841463823
 20
280.19120376213567
 30
0.0
  0
SEQEND
  5
994C
  8
0
  0
POLYLINE
  5
937C
  8
0
 66
     1
 10
0.0
 20
0.0
 30
0.0
  0
VERTEX
  5
994D
  8
0
 10
407.31747716638841
 20
288.87213165114508
 30
0.0
  0
VERTEX
  5
994E
  8
0
 10
407.70610878243821
 20
288.41178632601719
 30
0.0
  0
VERTEX
  5
994F
  8
0
 10
408.49954797305361
 20
287.51477448180788
 30
0.0
  0
VERTEX
  5
9950
  8
0
 10
409.31482602132331
 20
286.64803988783018
 30
0.0
  0
VERTEX
  5
9951
  8
0
 10
409.73423864801401
 20
286.22214926050401
 30
0.0
  0
SEQEND
  5
9952
  8
0
  0
POLYLINE
  5
937D
  8
0
 66
     1
 10
0.0
 20
0.0
 30
0.0
  0
VERTEX
  5
9953
  8
0
 10
393.42823599907462
 20
305.58452496463389
 30
0.0
  0
VERTEX
  5
9954
  8
0
 10
396.74013032270727
 20
301.59944904273863
 30
0.0
  0
VERTEX
  5
9955
  8
0
 10
401.7500049407904
 20
295.57125829710509
 30
0.0
  0
VERTEX
  5
9956
  8
0
 10
405.60493571680303
 20
290.93276735660601
 30
0.0
  0
VERTEX
  5
9957
  8
0
 10
407.31747716638841
 20
288.87213165114508
 30
0.0
  0
SEQEND
  5
9958
  8
0
  0
POLYLINE
  5
937E
  8
0
 66
     1
 10
0.0
 20
0.0
 30
0.0
  0
VERTEX
  5
9959
  8
0
 10
419.8121783187309
 20
301.36683280348768
 30
0.0
  0
VERTEX
  5
995A
  8
0
 10
417.19794651071942
 20
303.53945376612552
 30
0.0
  0
VERTEX
  5
995B
  8
0
 10
411.87887052176222
 20
307.96000130902382
 30
0.0
  0
VERTEX
  5
995C
  8
0
 10
406.1911234294879
 20
312.68694194412279
 30
0.0
  0
VERTEX
  5
995D
  8
0
 10
403.09978500524198
 20
315.25607397080159
 30
0.0
  0
SEQEND
  5
995E
  8
0
  0
ARC
  5
93CC
  8
0
 10
395.32882993610718
 20
313.35548003376891
 30
0.0
 40
7.2999999999999288
 50
331.48297013801891
 51
298.51702986198092
  0
ARC
  5
93CD
  8
0
 10
395.32882993610718
 20
313.35548003376891
 30
0.0
 40
4.7499999999999991
 50
344.65239890648678
 51
285.34760109351322
  0
ARC
  5
93CE
  8
0
 10
395.32882993610718
 20
313.35548003376891
 30
0.0
 40
5.0310816694047809
 50
342.845980295434
 51
287.15401970456452
  0
ARC
  5
93CF
  8
0
 10
394.16210374714939
 20
316.43139453193038
 30
0.0
 40
1.0000000000000031
 50
45.000000000000291
 51
134.99999999999969
  0
POLYLINE
  5
93D0
  8
0
 66
     1
 10
0.0
 20
0.0
 30
0.0
  0
VERTEX
  5
995F
  8
0
 10
400.13610576086421
 20
311.87160608058872
 30
0.0
  0
VERTEX
  5
9960
  8
0
 10
400.09741092373582
 20
311.910300917717
 30
0.0
  0
VERTEX
  5
9961
  8
0
 10
400.02114135397119
 20
311.98657048748157
 30
0.0
  0
VERTEX
  5
9962
  8
0
 10
399.94631949191989
 20
312.06139234953298
 30
0.0
  0
VERTEX
  5
9963
  8
0
 10
399.90943477576081
 20
312.098277065692
 30
0.0
  0
SEQEND
  5
9964
  8
0
  0
LINE
  5
93D1
  8
0
 10
401.9402783402013
 20
310.06743350125151
 30
0.0
 11
394.869210528336
 21
317.13850131311688
 31
0.0
  0
ARC
  5
93D2
  8
0
 10
392.25291543794572
 20
314.5222062227266
 30
0.0
 40
1.0
 50
134.99999999999969
 51
225.00000000000031
  0
LINE
  5
93D3
  8
0
 10
393.45499696596278
 20
317.13850131311688
 30
0.0
 11
391.54580865675911
 21
315.22931300391321
 31
0.0
  0
LINE
  5
93D4
  8
0
 10
391.54580865675911
 20
313.8150994415401
 30
0.0
 11
398.61687646862458
 21
306.74403162967468
 31
0.0
  0
ARC
  5
93D5
  8
0
 10
395.32882993610718
 20
313.35548003376891
 30
0.0
 40
8.0000000000000018
 50
343.95502437186161
 51
286.0449756281393
  0
LINE
  5
93D6
  8
0
 10
396.9081883356393
 20
305.03534349668928
 30
0.0
 11
403.62569928599538
 21
311.75285444704548
 31
0.0
  0
ARC
  5
9455
  8
0
 10
428.7280041020008
 20
279.93303868068392
 30
0.0
 40
7.7500000000000071
 50
225.0
 51
45.0
  0
LINE
  5
9456
  8
0
 10
409.33206509405392
 20
288.3688225802394
 30
0.0
 11
423.24792654780498
 21
274.45296112648822
 31
0.0
  0
LINE
  5
9457
  8
0
 10
434.20808165619661
 20
285.41311623487968
 30
0.0
 11
420.29222020244532
 21
299.32897768863091
 31
0.0
  0
ARC
  5
9458
  8
0
 10
418.47495577479589
 20
297.51171326098148
 30
0.0
 40
2.5699999999999932
 50
45.0
 51
107.0389257508042
  0
ARC
  5
9459
  8
0
 10
411.14932952170329
 20
290.18608700788889
 30
0.0
 40
2.5700000000000069
 50
162.96107424919509
 51
225.0
  0
LINE
  5
945A
  8
0
 10
398.01482106116322
 20
301.61646812576942
 30
0.0
 11
408.69213735084452
 21
290.939151836088
 31
0.0
  0
LINE
  5
945B
  8
0
 10
417.72189094659672
 20
299.96890543184031
 30
0.0
 11
407.0445746569153
 21
310.64622172152161
 31
0.0
  0
ARC
  5
945C
  8
0
 10
406.90315330067813
 20
310.50480036528432
 30
0.0
 40
0.1999999999999815
 50
45.0
 51
135.0
  0
ARC
  5
945D
  8
0
 10
398.15624241740051
 20
301.75788948200682
 30
0.0
 40
0.1999999999999815
 50
135.0
 51
225.0
  0
LINE
  5
945E
  8
0
 10
396.9081883356393
 20
305.03534349668928
 30
0.0
 11
398.73138716041092
 21
302.61587693749169
 31
0.0
  0
LINE
  5
945F
  8
0
 10
406.04516584519308
 20
309.92965562227403
 30
0.0
 11
403.62569928599532
 21
311.75285444704559
 31
0.0
  0
LINE
  5
9460
  8
0
 10
434.20808165619661
 20
285.41311623487968
 30
0.0
 11
423.24792654780498
 21
274.45296112648822
 31
0.0
  0
LINE
  5
9461
  8
0
 10
420.29222020244532
 20
299.32897768863091
 30
0.0
 11
409.33206509405392
 21
288.3688225802394
 31
0.0
  0
LINE
  5
9462
  8
0
 10
417.72189094659672
 20
299.96890543184031
 30
0.0
 11
408.69213735084452
 21
290.939151836088
 31
0.0
  0
LINE
  5
9463
  8
0
 10
406.76173194444078
 20
310.64622172152173
 30
0.0
 11
398.01482106116322
 21
301.89931083824399
 31
0.0
  0
LINE
  5
9473
  8
1
 10
387.70482179291531
 20
320.97948817696067
 30
0.0
 11
436.1868600568543
 21
272.49744991302163
 31
0.0
  0
LINE
  5
94D9
  8
1
 10
218.90170351713061
 20
320.97948817696067
 30
0.0
 11
267.38374178106972
 21
272.49744991302163
 31
0.0
  0
TEXT
  5
977D
  8
0
 62
     3
 10
0.0
 20
0.0
 30
0.0
 40
10.0
  1
EDHN100F
  7
STANDARD1
  0
ENDSEC
  0
EOF
