  0
SECTION
  2
HEADER
  9
$ACADVER
  1
AC1009
  9
$INSBASE
 10
0.0
 20
0.0
 30
0.0
  9
$EXTMIN
 10
0.0
 20
-2.960436562073669
 30
0.0
  9
$EXTMAX
 10
244.86155431348021
 20
135.02971906024541
 30
0.0
  9
$LIMMIN
 10
0.0
 20
0.0
  9
$LIMMAX
 10
375.0
 20
270.0
  9
$ORTHOMODE
 70
     1
  9
$REGENMODE
 70
     1
  9
$FILLMODE
 70
     1
  9
$QTEXTMODE
 70
     0
  9
$MIRRTEXT
 70
     0
  9
$DRAGMODE
 70
     2
  9
$LTSCALE
 40
10.0
  9
$OSMODE
 70
  3071
  9
$ATTMODE
 70
     1
  9
$TEXTSIZE
 40
0.2
  9
$TRACEWID
 40
0.05
  9
$TEXTSTYLE
  7
STANDARD
  9
$CLAYER
  8
0
  9
$CELTYPE
  6
BYLAYER
  9
$CECOLOR
 62
   256
  9
$DIMSCALE
 40
1.0
  9
$DIMASZ
 40
3.0
  9
$DIMEXO
 40
0.0625
  9
$DIMDLI
 40
0.38
  9
$DIMRND
 40
0.0
  9
$DIMDLE
 40
0.0
  9
$DIMEXE
 40
0.18
  9
$DIMTP
 40
0.0
  9
$DIMTM
 40
0.0
  9
$DIMTXT
 40
3.0
  9
$DIMCEN
 40
0.09
  9
$DIMTSZ
 40
0.0
  9
$DIMTOL
 70
     0
  9
$DIMLIM
 70
     0
  9
$DIMTIH
 70
     1
  9
$DIMTOH
 70
     1
  9
$DIMSE1
 70
     0
  9
$DIMSE2
 70
     0
  9
$DIMTAD
 70
     0
  9
$DIMZIN
 70
     0
  9
$DIMBLK
  1

  9
$DIMASO
 70
     1
  9
$DIMSHO
 70
     1
  9
$DIMPOST
  1

  9
$DIMAPOST
  1

  9
$DIMALT
 70
     0
  9
$DIMALTD
 70
     2
  9
$DIMALTF
 40
25.399999999999999
  9
$DIMLFAC
 40
1.0
  9
$DIMTOFL
 70
     0
  9
$DIMTVP
 40
0.0
  9
$DIMTIX
 70
     0
  9
$DIMSOXD
 70
     0
  9
$DIMSAH
 70
     0
  9
$DIMBLK1
  1

  9
$DIMBLK2
  1

  9
$DIMSTYLE
  2
STANDARD
  9
$DIMCLRD
 70
     0
  9
$DIMCLRE
 70
     0
  9
$DIMCLRT
 70
     0
  9
$DIMTFAC
 40
1.0
  9
$DIMGAP
 40
0.09
  9
$LUNITS
 70
     2
  9
$LUPREC
 70
     4
  9
$SKETCHINC
 40
0.1
  9
$FILLETRAD
 40
12.625
  9
$AUNITS
 70
     0
  9
$AUPREC
 70
     0
  9
$MENU
  1
E:\r13\win\SUPPORT\ACAD
  9
$ELEVATION
 40
0.0
  9
$PELEVATION
 40
0.0
  9
$THICKNESS
 40
0.0
  9
$LIMCHECK
 70
     0
  9
$BLIPMODE
 70
     0
  9
$CHAMFERA
 40
0.0
  9
$CHAMFERB
 40
0.0
  9
$SKPOLY
 70
     0
  9
$TDCREATE
 40
2450372.5415973379
  9
$TDUPDATE
 40
2456598.6243718639
  9
$TDINDWG
 40
0.080934537
  9
$TDUSRTIMER
 40
0.080934537
  9
$USRTIMER
 70
     1
  9
$ANGBASE
 50
0.0
  9
$ANGDIR
 70
     0
  9
$PDMODE
 70
     0
  9
$PDSIZE
 40
0.0
  9
$PLINEWID
 40
0.0
  9
$COORDS
 70
     1
  9
$SPLFRAME
 70
     0
  9
$SPLINETYPE
 70
     6
  9
$SPLINESEGS
 70
     8
  9
$ATTDIA
 70
     0
  9
$ATTREQ
 70
     1
  9
$HANDLING
 70
     1
  9
$HANDSEED
  5
C4C
  9
$SURFTAB1
 70
     6
  9
$SURFTAB2
 70
     6
  9
$SURFTYPE
 70
     6
  9
$SURFU
 70
     6
  9
$SURFV
 70
     6
  9
$UCSNAME
  2

  9
$UCSORG
 10
0.0
 20
0.0
 30
0.0
  9
$UCSXDIR
 10
1.0
 20
0.0
 30
0.0
  9
$UCSYDIR
 10
0.0
 20
1.0
 30
0.0
  9
$PUCSNAME
  2

  9
$PUCSORG
 10
0.0
 20
0.0
 30
0.0
  9
$PUCSXDIR
 10
1.0
 20
0.0
 30
0.0
  9
$PUCSYDIR
 10
0.0
 20
1.0
 30
0.0
  9
$USERI1
 70
     3
  9
$USERI2
 70
     1
  9
$USERI3
 70
     1
  9
$USERI4
 70
     0
  9
$USERI5
 70
     0
  9
$USERR1
 40
1.0
  9
$USERR2
 40
3.0
  9
$USERR3
 40
3.0
  9
$USERR4
 40
3.0
  9
$USERR5
 40
10.0
  9
$WORLDVIEW
 70
     1
  9
$SHADEDGE
 70
     3
  9
$SHADEDIF
 70
    70
  9
$TILEMODE
 70
     1
  9
$MAXACTVP
 70
    16
  9
$PLIMCHECK
 70
     0
  9
$PEXTMIN
 10
1.0000000000000000E+020
 20
1.0000000000000000E+020
 30
1.0000000000000000E+020
  9
$PEXTMAX
 10
-1.0000000000000000E+020
 20
-1.0000000000000000E+020
 30
-1.0000000000000000E+020
  9
$PLIMMIN
 10
0.0
 20
0.0
  9
$PLIMMAX
 10
12.0
 20
9.0
  9
$UNITMODE
 70
     0
  9
$VISRETAIN
 70
     0
  9
$PLINEGEN
 70
     0
  9
$PSLTSCALE
 70
     0
  0
ENDSEC
  0
SECTION
  2
TABLES
  0
TABLE
  2
VPORT
 70
     1
  0
VPORT
  2
*ACTIVE
 70
     0
 10
0.0
 20
0.0
 11
1.0
 21
1.0
 12
195.0581083320873
 22
133.5127261426681
 13
0.0
 23
0.0
 14
10.0
 24
10.0
 15
10.0
 25
10.0
 16
0.0
 26
0.0
 36
1.0
 17
0.0
 27
0.0
 37
0.0
 40
275.42274993631997
 41
1.831871345029239
 42
50.0
 43
0.0
 44
0.0
 50
0.0
 51
0.0
 71
     0
 72
   100
 73
     1
 74
     0
 75
     0
 76
     0
 77
     0
 78
     0
  0
ENDTAB
  0
TABLE
  2
LTYPE
 70
     4
  0
LTYPE
  2
CONTINUOUS
 70
     0
  3
Solid Line
 72
    65
 73
     0
 40
0.0
  0
LTYPE
  2
CENTER
 70
     0
  3
____ _ ____ _ ____ _ ____ _ ____ _ ____ _ ____
 72
    65
 73
     4
 40
2.0
 49
1.25
 49
-0.25
 49
0.25
 49
-0.25
  0
LTYPE
  2
HIDDEN
 70
     0
  3
_ _ _ _ _ _ _ _ _ _ _ _ _ _ _ _ _ _ _ _ _ _ _
 72
    65
 73
     2
 40
0.375
 49
0.25
 49
-0.125
  0
LTYPE
  2
PHANTOM2
 70
     0
  3
___ _ _ ___ _ _ ___ _ _ ___ _ _
 72
    65
 73
     6
 40
1.25
 49
0.625
 49
-0.125
 49
0.125
 49
-0.125
 49
0.125
 49
-0.125
  0
ENDTAB
  0
TABLE
  2
LAYER
 70
     5
  0
LAYER
  2
0
 70
     0
 62
     7
  6
CONTINUOUS
  0
LAYER
  2
1
 70
     0
 62
     1
  6
CENTER
  0
LAYER
  2
2
 70
     0
 62
     2
  6
HIDDEN
  0
LAYER
  2
3
 70
     0
 62
     3
  6
CONTINUOUS
  0
LAYER
  2
DEFPOINTS
 70
     0
 62
     7
  6
CONTINUOUS
  0
ENDTAB
  0
TABLE
  2
STYLE
 70
     2
  0
STYLE
  2
STANDARD
 70
     0
 40
0.0
 41
1.0
 50
0.0
 71
     0
 42
0.2
  3
SIMPLEX
  4
BIGFONT
  0
STYLE
  2
STANDARD1
 70
     0
 40
0.0
 41
1.0
 50
0.0
 71
     0
 42
3.0
  3
txt
  4

  0
ENDTAB
  0
TABLE
  2
VIEW
 70
     0
  0
ENDTAB
  0
TABLE
  2
UCS
 70
     0
  0
ENDTAB
  0
TABLE
  2
APPID
 70
     6
  0
APPID
  2
ACAD
 70
     0
  0
APPID
  2
ACAD_MLEADERVER
 70
     0
  0
APPID
  2
ACAD_EXEMPT_FROM_CAD_STANDARDS
 70
     0
  0
APPID
  2
ACAD_NAV_VCDISPLAY
 70
     0
  0
APPID
  2
ACAD_DSTYLE_DIMJAG
 70
     0
  0
APPID
  2
ACAD_DSTYLE_DIMTALN
 70
     0
  0
ENDTAB
  0
TABLE
  2
DIMSTYLE
 70
     1
  0
DIMSTYLE
  2
STANDARD
 70
     0
  3

  4

  5

  6

  7

 40
1.0
 41
0.18
 42
0.0625
 43
0.38
 44
0.18
 45
0.0
 46
0.0
 47
0.0
 48
0.0
140
0.18
141
0.09
142
0.0
143
25.399999999999999
144
1.0
145
0.0
146
1.0
147
0.09
 71
     0
 72
     0
 73
     1
 74
     1
 75
     0
 76
     0
 77
     0
 78
     0
170
     0
171
     2
172
     0
173
     0
174
     0
175
     0
176
     0
177
     0
178
     0
  0
ENDTAB
  0
ENDSEC
  0
SECTION
  2
BLOCKS
  0
BLOCK
  8
0
  2
$MODEL_SPACE
 70
     0
 10
0.0
 20
0.0
 30
0.0
  3
$MODEL_SPACE
  1

  0
ENDBLK
  5
1E6
  8
0
  0
BLOCK
 67
     1
  8
0
  2
$PAPER_SPACE
 70
     0
 10
0.0
 20
0.0
 30
0.0
  3
$PAPER_SPACE
  1

  0
ENDBLK
  5
1E4
 67
     1
  8
0
  0
ENDSEC
  0
SECTION
  2
ENTITIES
  0
CIRCLE
  5
9EF
  8
0
 10
127.3627864645823
 20
120.5297190602454
 30
0.0
 40
5.4000000000000004
  0
ARC
  5
9F0
  8
0
 10
131.76278646458209
 20
63.729719060245479
 30
0.0
 40
1.0
 50
0.0
 51
90.0
  0
LINE
  5
9F1
  8
0
 10
131.76278646458209
 20
64.729719060245486
 30
0.0
 11
122.96278646458219
 21
64.729719060245486
 31
0.0
  0
LINE
  5
9F2
  8
0
 10
132.76278646458221
 20
61.061046817856827
 30
0.0
 11
132.76278646458221
 21
63.729719060245479
 31
0.0
  0
ARC
  5
9F3
  8
0
 10
122.96278646458219
 20
63.729719060245479
 30
0.0
 40
1.0
 50
90.0
 51
180.0
  0
LINE
  5
9F4
  8
0
 10
121.96278646458219
 20
59.729719060245479
 30
0.0
 11
121.96278646458219
 21
63.729719060245479
 31
0.0
  0
LINE
  5
9F5
  8
0
 10
134.86278646458231
 20
28.129719060245289
 30
0.0
 11
134.26278646458229
 21
27.52971906024538
 31
0.0
  0
LINE
  5
9F6
  8
0
 10
134.86278646458231
 20
35.329719060245388
 30
0.0
 11
134.86278646458231
 21
28.129719060245289
 31
0.0
  0
LINE
  5
9F7
  8
2
 10
136.76137890117411
 20
41.096942164703862
 30
0.0
 11
136.86525349251141
 21
58.192397922839803
 31
0.0
  0
LINE
  5
9F8
  8
0
 10
119.8627864645823
 20
28.129719060245339
 30
0.0
 11
120.46278646458229
 21
27.52971906024543
 31
0.0
  0
LINE
  5
9F9
  8
0
 10
119.8627864645823
 20
35.329719060245388
 30
0.0
 11
119.8627864645823
 21
28.129719060245339
 31
0.0
  0
LINE
  5
9FA
  8
0
 10
120.46278646458229
 20
27.52971906024543
 30
0.0
 11
134.26278646458229
 21
27.52971906024543
 31
0.0
  0
LINE
  5
9FB
  8
0
 10
119.8627864645823
 20
34.329719060245331
 30
0.0
 11
134.86278646458231
 21
34.329719060245388
 31
0.0
  0
ARC
  5
9FC
  8
0
 10
187.8627864645822
 20
67.829719060245509
 30
0.0
 40
2.5
 50
2.3910729895675429
 51
89.999999999999588
  0
LINE
  5
9FD
  8
0
 10
187.8627864645822
 20
70.329719060245509
 30
0.0
 11
182.58610473984891
 21
70.329719060245509
 31
0.0
  0
LINE
  5
9FE
  8
2
 10
184.5515915976238
 20
62.265183303166218
 30
0.0
 11
184.48534112890729
 21
66.060670113952767
 31
0.0
  0
ARC
  5
9FF
  8
0
 10
179.01618583191791
 20
57.000060899000282
 30
0.0
 40
7.5750000000000011
 50
47.636674913815142
 51
67.670727145868085
  0
ARC
  5
A00
  8
0
 10
186.03742405767841
 20
64.607719060245415
 30
0.0
 40
2.778
 50
226.36535271183931
 51
315.26356537728577
  0
ARC
  5
A01
  8
0
 10
182.84116777408639
 20
68.115967185707675
 30
0.0
 40
7.5216430270795342
 50
313.41664324423527
 51
358.6138827821585
  0
ARC
  5
A02
  8
2
 10
182.98556958617269
 20
66.034491504297023
 30
0.0
 40
1.5
 50
0.9999999999985176
 51
91.080949145711045
  0
ARC
  5
A03
  8
2
 10
139.3652068481139
 20
58.177126386863208
 30
0.0
 40
2.5
 50
106.7801033010431
 51
179.65000000000131
  0
ARC
  5
A04
  8
0
 10
128.17078646458211
 20
68.314719060245295
 30
0.0
 40
8.5850000000000009
 50
270.0
 51
325.62418432622258
  0
ARC
  5
A05
  8
0
 10
119.88274877590921
 20
57.70971906024549
 30
0.0
 40
2.02
 50
90.0
 51
180.3499999999986
  0
LINE
  5
A06
  8
0
 10
128.17078646458211
 20
59.729719060245479
 30
0.0
 11
119.88274877590921
 21
59.729719060245479
 31
0.0
  0
ARC
  5
A07
  8
0
 10
182.58610473984891
 20
-96.320280939754355
 30
0.0
 40
166.65000000000001
 50
90.0
 51
106.49946753813531
  0
ARC
  5
A08
  8
2
 10
186.0553959809798
 20
-96.662549777668971
 30
0.0
 40
164.226
 50
91.080949145708615
 51
106.7801033010427
  0
LINE
  5
A09
  8
0
 10
136.72614850180361
 20
35.329719060245388
 30
0.0
 11
117.99942442736091
 21
35.329719060245388
 31
0.0
  0
ARC
  5
A0A
  8
0
 10
149.64113093195471
 20
41.017019542112443
 30
0.0
 40
12.880000000000001
 50
119.4133831322485
 51
179.64446751947241
  0
CIRCLE
  5
A0B
  8
0
 10
149.4290556245009
 20
120.5297190602454
 30
0.0
 40
0.9000000000000001
  0
CIRCLE
  5
A0C
  8
0
 10
141.5147560477447
 20
120.5297190602454
 30
0.0
 40
0.9000000000000001
  0
CIRCLE
  5
A0D
  8
0
 10
144.14370918774739
 20
120.5297190602454
 30
0.0
 40
0.9000000000000001
  0
CIRCLE
  5
A0E
  8
0
 10
146.77240511229499
 20
120.5297190602454
 30
0.0
 40
0.9000000000000001
  0
ARC
  5
A0F
  8
3
 10
103.1561307074916
 20
120.5297190602454
 30
0.0
 40
31.935543275418951
 50
349.93181562997762
 51
10.06818437002241
  0
CIRCLE
  5
A10
  8
0
 10
138.9076254142789
 20
120.5297190602454
 30
0.0
 40
0.9000000000000001
  0
LINE
  5
A11
  8
1
 10
127.3627864645822
 20
69.729719060245486
 30
0.0
 11
127.3627864645823
 21
22.329719060245392
 31
0.0
  0
ARC
  5
A12
  8
0
 10
192.91750075344399
 20
-35.744235105487363
 30
0.0
 40
101.0
 50
97.736332650601085
 51
119.4133831322485
  0
LINE
  5
A13
  8
0
 10
117.99942442736091
 20
35.329719060245388
 30
0.0
 11
117.8627864645822
 21
57.697379659176299
 31
0.0
  0
LINE
  5
A14
  8
1
 10
235.3615543134801
 20
75.329719060245509
 30
0.0
 11
235.3615543134801
 21
22.329719060245498
 31
0.0
  0
LINE
  5
A15
  8
1
 10
43.941096937708188
 20
75.329719060245452
 30
0.0
 11
43.941096937708252
 21
22.329719060245449
 31
0.0
  0
LINE
  5
A16
  8
0
 10
38.541096937708303
 20
59.729719060245543
 30
0.0
 11
38.541096937708303
 21
63.729719060245593
 31
0.0
  0
ARC
  5
A17
  8
0
 10
39.541096937708247
 20
63.729719060245593
 30
0.0
 40
1.0
 50
90.0
 51
180.0
  0
LINE
  5
A18
  8
0
 10
231.06155431348
 20
70.329719060245509
 30
0.0
 11
239.6615543134802
 21
70.329719060245509
 31
0.0
  0
LINE
  5
A19
  8
0
 10
228.61155431348001
 20
67.829719060245509
 30
0.0
 11
228.61155431348021
 21
41.096942164703812
 31
0.0
  0
LINE
  5
A1A
  8
0
 10
242.1115543134801
 20
67.829719060245509
 30
0.0
 11
242.1115543134801
 21
41.096942164703812
 31
0.0
  0
LINE
  5
A1B
  8
0
 10
231.8615543134801
 20
62.796408911079702
 30
0.0
 11
231.8615543134801
 21
41.096942164703812
 31
0.0
  0
LINE
  5
A1C
  8
0
 10
238.8615543134801
 20
62.796408911079702
 30
0.0
 11
238.8615543134801
 21
41.096942164703812
 31
0.0
  0
ARC
  5
A1D
  8
0
 10
231.11155431348001
 20
67.829719060245509
 30
0.0
 40
2.5
 50
90.0
 51
180.0
  0
ARC
  5
A1E
  8
0
 10
239.6115543134801
 20
67.829719060245509
 30
0.0
 40
2.5
 50
0.0
 51
90.0
  0
LINE
  5
A1F
  8
0
 10
48.341096937708201
 20
64.729719060245543
 30
0.0
 11
39.541096937708247
 21
64.729719060245543
 31
0.0
  0
ARC
  5
A20
  8
0
 10
48.341096937708201
 20
63.729719060245593
 30
0.0
 40
1.0
 50
0.0
 51
90.0
  0
LINE
  5
A21
  8
0
 10
49.341096937708137
 20
59.729719060245543
 30
0.0
 11
49.341096937708137
 21
63.729719060245593
 31
0.0
  0
LINE
  5
A22
  8
0
 10
37.19109693770821
 20
67.834719060245391
 30
0.0
 11
37.19109693770821
 21
59.729719060245543
 31
0.0
  0
LINE
  5
A23
  8
0
 10
50.69109693770821
 20
67.834719060245391
 30
0.0
 11
50.69109693770821
 21
59.729719060245543
 31
0.0
  0
LINE
  5
A24
  8
0
 10
39.69109693770821
 20
70.334719060245391
 30
0.0
 11
48.19109693770821
 21
70.334719060245391
 31
0.0
  0
LINE
  5
A25
  8
0
 10
50.69109693770821
 20
63.235000469748002
 30
0.0
 11
49.341096937708137
 21
63.235000469748002
 31
0.0
  0
LINE
  5
A26
  8
0
 10
38.541096937708303
 20
63.235000469747931
 30
0.0
 11
37.19109693770821
 21
63.235000469747931
 31
0.0
  0
ARC
  5
A27
  8
0
 10
39.69109693770821
 20
67.834719060245391
 30
0.0
 40
2.5
 50
90.0
 51
180.0
  0
ARC
  5
A28
  8
0
 10
48.19109693770821
 20
67.834719060245391
 30
0.0
 40
2.5
 50
0.0
 51
90.0
  0
ARC
  5
A29
  8
0
 10
235.36155431348001
 20
68.626571489992855
 30
0.0
 40
6.7968524297474691
 50
186.73130950690759
 51
353.26869049309261
  0
LINE
  5
A2A
  8
0
 10
123.3627864645822
 20
27.329719060245392
 30
0.0
 11
131.3627864645822
 21
27.329719060245392
 31
0.0
  0
LINE
  5
A2B
  8
0
 10
131.3627864645822
 20
27.52971906024543
 30
0.0
 11
131.3627864645822
 21
27.329719060245392
 31
0.0
  0
LINE
  5
A2C
  8
0
 10
123.3627864645822
 20
27.52971906024543
 30
0.0
 11
123.3627864645822
 21
27.329719060245392
 31
0.0
  0
LINE
  5
A2D
  8
3
 10
133.4938068057906
 20
27.530579054723091
 30
0.0
 11
133.49380680579051
 21
34.329719060245388
 31
0.0
  0
LINE
  5
A2E
  8
3
 10
132.3938068057906
 20
27.530579054723091
 30
0.0
 11
132.3938068057906
 21
34.329719060245388
 31
0.0
  0
LINE
  5
A2F
  8
3
 10
131.2938068057905
 20
27.530579054723091
 30
0.0
 11
131.2938068057905
 21
34.329719060245388
 31
0.0
  0
LINE
  5
A30
  8
3
 10
130.19380680579059
 20
27.530579054723091
 30
0.0
 11
130.1938068057905
 21
34.329719060245388
 31
0.0
  0
LINE
  5
A31
  8
3
 10
129.09380680579059
 20
27.530579054723091
 30
0.0
 11
129.09380680579059
 21
34.329719060245388
 31
0.0
  0
LINE
  5
A32
  8
3
 10
127.9938068057906
 20
27.530579054723091
 30
0.0
 11
127.9938068057907
 21
34.329719060245388
 31
0.0
  0
LINE
  5
A33
  8
3
 10
126.7317661233738
 20
27.530579054723091
 30
0.0
 11
126.7317661233738
 21
34.329719060245388
 31
0.0
  0
LINE
  5
A34
  8
3
 10
134.48978600246471
 20
27.75671859812774
 30
0.0
 11
134.48978600246471
 21
34.329719060245388
 31
0.0
  0
LINE
  5
A35
  8
3
 10
121.231766123374
 20
27.530579054723031
 30
0.0
 11
121.231766123374
 21
34.329719060245331
 31
0.0
  0
LINE
  5
A36
  8
3
 10
122.331766123374
 20
27.530579054723031
 30
0.0
 11
122.331766123374
 21
34.329719060245331
 31
0.0
  0
LINE
  5
A37
  8
3
 10
123.4317661233741
 20
27.530579054723031
 30
0.0
 11
123.4317661233741
 21
34.329719060245331
 31
0.0
  0
LINE
  5
A38
  8
3
 10
124.531766123374
 20
27.530579054723031
 30
0.0
 11
124.531766123374
 21
34.329719060245331
 31
0.0
  0
LINE
  5
A39
  8
3
 10
125.63176612337401
 20
27.530579054723031
 30
0.0
 11
125.63176612337401
 21
34.329719060245388
 31
0.0
  0
LINE
  5
A3A
  8
3
 10
120.2357869267
 20
27.75671859812774
 30
0.0
 11
120.2357869266999
 21
34.329719060245331
 31
0.0
  0
LINE
  5
A3B
  8
0
 10
136.72614850180361
 20
35.329719060245452
 30
0.0
 11
136.7613789011728
 21
41.096942164509798
 31
0.0
  0
ARC
  5
A3C
  8
0
 10
179.99450250927521
 20
59.381976405227242
 30
0.0
 40
5.0
 50
67.670727145868085
 51
97.736332650601085
  0
LINE
  5
A3D
  8
0
 10
53.304458974929602
 20
35.329719060245388
 30
0.0
 11
34.577734900486902
 21
35.329719060245452
 31
0.0
  0
LINE
  5
A3E
  8
0
 10
34.577734900486902
 20
35.329719060245452
 30
0.0
 11
34.441096937708188
 21
57.697379659176349
 31
0.0
  0
ARC
  5
A3F
  8
0
 10
36.461059249035188
 20
57.709719060245561
 30
0.0
 40
2.02
 50
90.0
 51
180.3499999999986
  0
LINE
  5
A40
  8
0
 10
51.421134626380791
 20
59.729719060245593
 30
0.0
 11
36.461059249035188
 21
59.729719060245543
 31
0.0
  0
LINE
  5
A41
  8
0
 10
225.99819227625869
 20
35.329719060245502
 30
0.0
 11
225.8615543134801
 21
57.697379659176413
 31
0.0
  0
LINE
  5
A42
  8
0
 10
242.84159200215319
 20
59.729719060245543
 30
0.0
 11
242.1115543134801
 21
59.729719060245543
 31
0.0
  0
ARC
  5
A43
  8
0
 10
227.88151662480701
 20
57.709719060245611
 30
0.0
 40
2.02
 50
90.0
 51
180.3499999999986
  0
LINE
  5
A44
  8
0
 10
244.72491635070139
 20
35.329719060245502
 30
0.0
 11
225.99819227625869
 21
35.329719060245502
 31
0.0
  0
ARC
  5
A45
  8
0
 10
242.84159200215319
 20
57.709719060245611
 30
0.0
 40
2.02
 50
359.6499999999981
 51
90.0
  0
LINE
  5
A46
  8
0
 10
244.72491635070139
 20
35.329719060245502
 30
0.0
 11
244.86155431348021
 21
57.697379659176413
 31
0.0
  0
LINE
  5
A47
  8
0
 10
228.61155431348001
 20
59.729719060245593
 30
0.0
 11
227.88151662480701
 21
59.729719060245593
 31
0.0
  0
ARC
  5
A48
  8
0
 10
127.3627864645823
 20
120.5297190602454
 30
0.0
 40
9.5
 50
59.201618289706921
 51
300.79838171029309
  0
ARC
  5
A49
  8
0
 10
183.61278646458231
 20
120.5297190602454
 30
0.0
 40
6.75
 50
270.0
 51
90.0
  0
LINE
  5
A4A
  8
0
 10
183.61278646458231
 20
127.2797190602454
 30
0.0
 11
137.34714923844021
 21
127.2797190602454
 31
0.0
  0
ARC
  5
A4B
  8
0
 10
137.34714923844021
 20
137.27971906024541
 30
0.0
 40
10.0
 50
239.20161828970689
 51
270.0
  0
LINE
  5
A4C
  8
0
 10
183.61278646458231
 20
113.7797190602454
 30
0.0
 11
137.34714923844021
 21
113.7797190602454
 31
0.0
  0
ARC
  5
A4D
  8
0
 10
137.34714923844021
 20
103.7797190602454
 30
0.0
 40
10.0
 50
90.0
 51
120.798381710293
  0
ARC
  5
A4E
  8
3
 10
183.61278646458231
 20
120.5297190602454
 30
0.0
 40
5.25
 50
270.0
 51
90.0
  0
LINE
  5
A4F
  8
3
 10
183.61278646458231
 20
115.2797190602454
 30
0.0
 11
137.34714923844021
 21
115.2797190602454
 31
0.0
  0
LINE
  5
A50
  8
3
 10
183.61278646458231
 20
125.7797190602454
 30
0.0
 11
137.34714923844021
 21
125.7797190602454
 31
0.0
  0
ARC
  5
A51
  8
3
 10
137.34714923844021
 20
137.27971906024541
 30
0.0
 40
11.5
 50
239.20161828970689
 51
270.0
  0
ARC
  5
A52
  8
3
 10
127.3627864645823
 20
120.5297190602454
 30
0.0
 40
8.0
 50
59.201618289706921
 51
300.79838171029309
  0
ARC
  5
A53
  8
3
 10
137.34714923844021
 20
103.7797190602454
 30
0.0
 40
11.5
 50
90.0
 51
120.798381710293
  0
LINE
  5
A54
  8
1
 10
127.3627864645823
 20
135.02971906024541
 30
0.0
 11
127.3627864645823
 21
106.0297190602454
 31
0.0
  0
LINE
  5
A55
  8
1
 10
195.36278646458231
 20
120.5297190602454
 30
0.0
 11
112.8627864645823
 21
120.5297190602454
 31
0.0
  0
LINE
  5
A5E
  8
0
 10
53.304458974929616
 20
35.329719060245488
 30
0.0
 11
53.44109693770821
 21
57.697379659176413
 31
0.0
  0
ARC
  5
A5F
  8
0
 10
51.421134626381217
 20
57.70971906024559
 30
0.0
 40
2.02
 50
359.65000000000163
 51
90.0
  0
LINE
  5
A65
  8
0
 10
51.441096937708281
 20
28.129719060245311
 30
0.0
 11
50.841096937708258
 21
27.529719060245409
 31
0.0
  0
LINE
  5
A66
  8
0
 10
51.441096937708252
 20
35.329719060245417
 30
0.0
 11
51.441096937708281
 21
28.129719060245311
 31
0.0
  0
LINE
  5
A67
  8
0
 10
36.441096937708252
 20
28.129719060245371
 30
0.0
 11
37.041096937708282
 21
27.529719060245458
 31
0.0
  0
LINE
  5
A68
  8
0
 10
36.441096937708252
 20
35.329719060245417
 30
0.0
 11
36.441096937708252
 21
28.129719060245371
 31
0.0
  0
LINE
  5
A69
  8
0
 10
37.041096937708282
 20
27.529719060245458
 30
0.0
 11
50.841096937708279
 21
27.529719060245458
 31
0.0
  0
LINE
  5
A6A
  8
0
 10
36.441096937708252
 20
34.32971906024536
 30
0.0
 11
51.441096937708281
 21
34.329719060245417
 31
0.0
  0
LINE
  5
A6B
  8
0
 10
39.941096937708217
 20
27.32971906024542
 30
0.0
 11
47.94109693770816
 21
27.32971906024542
 31
0.0
  0
LINE
  5
A6C
  8
0
 10
47.94109693770816
 20
27.529719060245458
 30
0.0
 11
47.94109693770816
 21
27.32971906024542
 31
0.0
  0
LINE
  5
A6D
  8
0
 10
39.941096937708217
 20
27.529719060245458
 30
0.0
 11
39.941096937708217
 21
27.32971906024542
 31
0.0
  0
LINE
  5
A6E
  8
3
 10
50.072117278916572
 20
27.530579054723109
 30
0.0
 11
50.072117278916537
 21
34.329719060245417
 31
0.0
  0
LINE
  5
A6F
  8
3
 10
48.972117278916599
 20
27.530579054723109
 30
0.0
 11
48.972117278916599
 21
34.329719060245417
 31
0.0
  0
LINE
  5
A70
  8
3
 10
47.872117278916463
 20
27.530579054723109
 30
0.0
 11
47.872117278916491
 21
34.329719060245417
 31
0.0
  0
LINE
  5
A71
  8
3
 10
46.772117278916546
 20
27.530579054723109
 30
0.0
 11
46.772117278916518
 21
34.329719060245417
 31
0.0
  0
LINE
  5
A72
  8
3
 10
45.672117278916588
 20
27.530579054723109
 30
0.0
 11
45.672117278916588
 21
34.329719060245417
 31
0.0
  0
LINE
  5
A73
  8
3
 10
44.572117278916622
 20
27.530579054723109
 30
0.0
 11
44.57211727891665
 21
34.329719060245417
 31
0.0
  0
LINE
  5
A74
  8
3
 10
43.310076596499833
 20
27.530579054723109
 30
0.0
 11
43.310076596499833
 21
34.329719060245417
 31
0.0
  0
LINE
  5
A75
  8
3
 10
51.068096475590707
 20
27.756718598127769
 30
0.0
 11
51.068096475590707
 21
34.329719060245417
 31
0.0
  0
LINE
  5
A76
  8
3
 10
37.810076596500032
 20
27.530579054723059
 30
0.0
 11
37.810076596500032
 21
34.32971906024536
 31
0.0
  0
LINE
  5
A77
  8
3
 10
38.910076596499991
 20
27.530579054723059
 30
0.0
 11
38.910076596499962
 21
34.32971906024536
 31
0.0
  0
LINE
  5
A78
  8
3
 10
40.010076596500127
 20
27.530579054723059
 30
0.0
 11
40.01007659650007
 21
34.32971906024536
 31
0.0
  0
LINE
  5
A79
  8
3
 10
41.110076596500029
 20
27.530579054723059
 30
0.0
 11
41.110076596500029
 21
34.32971906024536
 31
0.0
  0
LINE
  5
A7A
  8
3
 10
42.210076596500002
 20
27.530579054723059
 30
0.0
 11
42.210076596499967
 21
34.329719060245417
 31
0.0
  0
LINE
  5
A7B
  8
3
 10
36.81409739982594
 20
27.756718598127769
 30
0.0
 11
36.814097399825862
 21
34.32971906024536
 31
0.0
  0
LINE
  5
A89
  8
0
 10
242.8615543134801
 20
28.129719060245289
 30
0.0
 11
242.2615543134801
 21
27.52971906024538
 31
0.0
  0
LINE
  5
A8A
  8
0
 10
242.8615543134801
 20
35.329719060245388
 30
0.0
 11
242.8615543134801
 21
28.129719060245289
 31
0.0
  0
LINE
  5
A8B
  8
0
 10
227.8615543134801
 20
28.129719060245339
 30
0.0
 11
228.46155431348009
 21
27.52971906024543
 31
0.0
  0
LINE
  5
A8C
  8
0
 10
227.8615543134801
 20
35.329719060245388
 30
0.0
 11
227.8615543134801
 21
28.129719060245339
 31
0.0
  0
LINE
  5
A8D
  8
0
 10
228.46155431348009
 20
27.52971906024543
 30
0.0
 11
242.2615543134801
 21
27.52971906024543
 31
0.0
  0
LINE
  5
A8E
  8
0
 10
227.8615543134801
 20
34.329719060245331
 30
0.0
 11
242.8615543134801
 21
34.329719060245388
 31
0.0
  0
LINE
  5
A8F
  8
0
 10
231.3615543134801
 20
27.329719060245392
 30
0.0
 11
239.36155431348001
 21
27.329719060245392
 31
0.0
  0
LINE
  5
A90
  8
0
 10
239.36155431348001
 20
27.52971906024543
 30
0.0
 11
239.36155431348001
 21
27.329719060245392
 31
0.0
  0
LINE
  5
A91
  8
0
 10
231.3615543134801
 20
27.52971906024543
 30
0.0
 11
231.3615543134801
 21
27.329719060245392
 31
0.0
  0
LINE
  5
A92
  8
3
 10
241.49257465468841
 20
27.530579054723091
 30
0.0
 11
241.49257465468841
 21
34.329719060245388
 31
0.0
  0
LINE
  5
A93
  8
3
 10
240.39257465468839
 20
27.530579054723091
 30
0.0
 11
240.39257465468839
 21
34.329719060245388
 31
0.0
  0
LINE
  5
A94
  8
3
 10
239.29257465468831
 20
27.530579054723091
 30
0.0
 11
239.29257465468831
 21
34.329719060245388
 31
0.0
  0
LINE
  5
A95
  8
3
 10
238.1925746546884
 20
27.530579054723091
 30
0.0
 11
238.1925746546884
 21
34.329719060245388
 31
0.0
  0
LINE
  5
A96
  8
3
 10
237.09257465468841
 20
27.530579054723091
 30
0.0
 11
237.09257465468841
 21
34.329719060245388
 31
0.0
  0
LINE
  5
A97
  8
3
 10
235.9925746546885
 20
27.530579054723091
 30
0.0
 11
235.9925746546885
 21
34.329719060245388
 31
0.0
  0
LINE
  5
A98
  8
3
 10
234.7305339722717
 20
27.530579054723091
 30
0.0
 11
234.7305339722717
 21
34.329719060245388
 31
0.0
  0
LINE
  5
A99
  8
3
 10
242.4885538513625
 20
27.75671859812774
 30
0.0
 11
242.4885538513625
 21
34.329719060245388
 31
0.0
  0
LINE
  5
A9A
  8
3
 10
229.2305339722719
 20
27.530579054723031
 30
0.0
 11
229.2305339722719
 21
34.329719060245331
 31
0.0
  0
LINE
  5
A9B
  8
3
 10
230.33053397227181
 20
27.530579054723031
 30
0.0
 11
230.33053397227181
 21
34.329719060245331
 31
0.0
  0
LINE
  5
A9C
  8
3
 10
231.430533972272
 20
27.530579054723031
 30
0.0
 11
231.43053397227189
 21
34.329719060245331
 31
0.0
  0
LINE
  5
A9D
  8
3
 10
232.53053397227191
 20
27.530579054723031
 30
0.0
 11
232.53053397227191
 21
34.329719060245331
 31
0.0
  0
LINE
  5
A9E
  8
3
 10
233.63053397227191
 20
27.530579054723031
 30
0.0
 11
233.63053397227179
 21
34.329719060245388
 31
0.0
  0
LINE
  5
A9F
  8
3
 10
228.23455477559779
 20
27.75671859812774
 30
0.0
 11
228.2345547755977
 21
34.329719060245331
 31
0.0
  0
LINE
  5
AD2
  8
2
 10
41.941096937708039
 20
48.029719060245412
 30
0.0
 11
45.941096937708117
 21
48.029719060245412
 31
0.0
  0
LINE
  5
AD3
  8
2
 10
41.941096937708039
 20
48.029719060245412
 30
0.0
 11
39.941096937708153
 21
46.029719060245299
 31
0.0
  0
LINE
  5
AD4
  8
2
 10
39.941096937708153
 20
27.529719060245409
 30
0.0
 11
39.941096937708153
 21
46.029719060245299
 31
0.0
  0
LINE
  5
AD5
  8
2
 10
45.941096937708103
 20
48.029719060245412
 30
0.0
 11
47.941096937708089
 21
46.029719060245299
 31
0.0
  0
LINE
  5
AD6
  8
2
 10
47.941096937708089
 20
27.529719060245409
 30
0.0
 11
47.941096937708089
 21
46.029719060245299
 31
0.0
  0
LINE
  5
ADC
  8
2
 10
130.36278646458231
 20
43.329719060245267
 30
0.0
 11
124.3627864645822
 21
43.329719060245267
 31
0.0
  0
LINE
  5
ADD
  8
2
 10
124.3627864645822
 20
27.82971906024606
 30
0.0
 11
124.3627864645822
 21
43.329719060245267
 31
0.0
  0
LINE
  5
ADE
  8
2
 10
130.36278646458231
 20
27.82971906024602
 30
0.0
 11
130.36278646458231
 21
43.329719060245267
 31
0.0
  0
LINE
  5
ADF
  8
2
 10
125.3627864645821
 20
48.029719060245377
 30
0.0
 11
129.3627864645822
 21
48.029719060245377
 31
0.0
  0
LINE
  5
AE0
  8
2
 10
125.3627864645821
 20
48.029719060245377
 30
0.0
 11
123.3627864645822
 21
46.02971906024527
 31
0.0
  0
LINE
  5
AE1
  8
2
 10
123.3627864645822
 20
27.529719060245391
 30
0.0
 11
123.3627864645822
 21
46.02971906024527
 31
0.0
  0
LINE
  5
AE2
  8
2
 10
129.3627864645822
 20
48.029719060245377
 30
0.0
 11
131.3627864645822
 21
46.02971906024527
 31
0.0
  0
LINE
  5
AE3
  8
2
 10
131.3627864645822
 20
27.529719060245391
 30
0.0
 11
131.3627864645822
 21
46.02971906024527
 31
0.0
  0
LINE
  5
AE4
  8
2
 10
124.862786464582
 20
28.329719060246351
 30
0.0
 11
124.862786464582
 21
44.700386010301031
 31
0.0
  0
LINE
  5
AE5
  8
2
 10
124.862786464582
 20
44.700386010301081
 30
0.0
 11
129.8627864645824
 21
44.700386010301081
 31
0.0
  0
LINE
  5
AE6
  8
2
 10
127.3627864645822
 20
46.143761683275272
 30
0.0
 11
124.862786464582
 21
44.700386010301081
 31
0.0
  0
LINE
  5
AE7
  8
2
 10
129.8627864645824
 20
28.329719060246351
 30
0.0
 11
129.8627864645824
 21
44.700386010301031
 31
0.0
  0
LINE
  5
AE8
  8
2
 10
127.3627864645822
 20
46.143761683275272
 30
0.0
 11
129.8627864645824
 21
44.700386010301081
 31
0.0
  0
LINE
  5
AEC
  8
2
 10
233.3615543134799
 20
48.029719060245377
 30
0.0
 11
237.36155431348001
 21
48.029719060245377
 31
0.0
  0
LINE
  5
AED
  8
2
 10
233.3615543134799
 20
48.029719060245377
 30
0.0
 11
231.36155431348001
 21
46.02971906024527
 31
0.0
  0
LINE
  5
AEE
  8
2
 10
231.36155431348001
 20
27.529719060245391
 30
0.0
 11
231.36155431348001
 21
46.02971906024527
 31
0.0
  0
LINE
  5
AEF
  8
2
 10
237.3615543134799
 20
48.029719060245377
 30
0.0
 11
239.3615543134799
 21
46.02971906024527
 31
0.0
  0
LINE
  5
AF0
  8
2
 10
239.3615543134799
 20
27.529719060245391
 30
0.0
 11
239.3615543134799
 21
46.02971906024527
 31
0.0
  0
LINE
  5
B46
  8
2
 10
124.862786464582
 20
28.329719060246351
 30
0.0
 11
129.8627864645824
 21
28.329719060246351
 31
0.0
  0
LINE
  5
B47
  8
2
 10
124.862786464582
 20
28.329719060246351
 30
0.0
 11
123.862786464582
 21
27.329719060245449
 31
0.0
  0
LINE
  5
B48
  8
2
 10
124.862786464582
 20
44.195744464029517
 30
0.0
 11
124.362786464582
 21
43.329719060245132
 31
0.0
  0
LINE
  5
B49
  8
2
 10
129.8627864645824
 20
28.329719060246351
 30
0.0
 11
130.8627864645824
 21
27.329719060245449
 31
0.0
  0
LINE
  5
B4A
  8
2
 10
129.8627864645824
 20
44.195744464029517
 30
0.0
 11
130.3627864645824
 21
43.329719060245132
 31
0.0
  0
LINE
  5
B51
  8
2
 10
238.3615543134801
 20
43.329719060245267
 30
0.0
 11
232.36155431348001
 21
43.329719060245267
 31
0.0
  0
LINE
  5
B52
  8
2
 10
232.36155431348001
 20
27.82971906024606
 30
0.0
 11
232.36155431348001
 21
43.329719060245267
 31
0.0
  0
LINE
  5
B53
  8
2
 10
238.3615543134801
 20
27.82971906024602
 30
0.0
 11
238.3615543134801
 21
43.329719060245267
 31
0.0
  0
LINE
  5
B54
  8
2
 10
232.8615543134799
 20
28.329719060246351
 30
0.0
 11
232.8615543134799
 21
44.700386010301031
 31
0.0
  0
LINE
  5
B55
  8
2
 10
232.8615543134799
 20
44.700386010301081
 30
0.0
 11
237.86155431348021
 21
44.700386010301081
 31
0.0
  0
LINE
  5
B56
  8
2
 10
235.36155431348001
 20
46.143761683275272
 30
0.0
 11
232.8615543134799
 21
44.700386010301081
 31
0.0
  0
LINE
  5
B57
  8
2
 10
237.8615543134803
 20
28.329719060246351
 30
0.0
 11
237.86155431348021
 21
44.700386010301031
 31
0.0
  0
LINE
  5
B58
  8
2
 10
235.36155431348001
 20
46.143761683275272
 30
0.0
 11
237.86155431348021
 21
44.700386010301081
 31
0.0
  0
LINE
  5
B59
  8
2
 10
232.86155431347979
 20
28.329719060246351
 30
0.0
 11
237.86155431348021
 21
28.329719060246351
 31
0.0
  0
LINE
  5
B5A
  8
2
 10
232.86155431347979
 20
28.329719060246351
 30
0.0
 11
231.86155431347979
 21
27.329719060245449
 31
0.0
  0
LINE
  5
B5B
  8
2
 10
232.86155431347979
 20
44.195744464029517
 30
0.0
 11
232.3615543134799
 21
43.329719060245132
 31
0.0
  0
LINE
  5
B5C
  8
2
 10
237.86155431348021
 20
28.329719060246351
 30
0.0
 11
238.86155431348021
 21
27.329719060245449
 31
0.0
  0
LINE
  5
B5D
  8
2
 10
237.86155431348021
 20
44.195744464029517
 30
0.0
 11
238.36155431348021
 21
43.329719060245132
 31
0.0
  0
LINE
  5
B5E
  8
2
 10
46.94109693770821
 20
43.32971906024531
 30
0.0
 11
40.941096937708103
 21
43.32971906024531
 31
0.0
  0
LINE
  5
B5F
  8
2
 10
40.941096937708103
 20
27.829719060246092
 30
0.0
 11
40.941096937708103
 21
43.32971906024531
 31
0.0
  0
LINE
  5
B60
  8
2
 10
46.94109693770821
 20
27.829719060246049
 30
0.0
 11
46.94109693770821
 21
43.32971906024531
 31
0.0
  0
LINE
  5
B61
  8
2
 10
41.441096937707947
 20
28.329719060246379
 30
0.0
 11
41.441096937707933
 21
44.70038601030106
 31
0.0
  0
LINE
  5
B62
  8
2
 10
41.441096937707933
 20
44.700386010301109
 30
0.0
 11
46.441096937708323
 21
44.700386010301109
 31
0.0
  0
LINE
  5
B63
  8
2
 10
43.941096937708103
 20
46.143761683275301
 30
0.0
 11
41.441096937707933
 21
44.700386010301109
 31
0.0
  0
LINE
  5
B64
  8
2
 10
46.441096937708352
 20
28.329719060246379
 30
0.0
 11
46.441096937708323
 21
44.70038601030106
 31
0.0
  0
LINE
  5
B65
  8
2
 10
43.941096937708139
 20
46.143761683275301
 30
0.0
 11
46.441096937708323
 21
44.700386010301109
 31
0.0
  0
LINE
  5
B66
  8
2
 10
41.441096937707933
 20
28.329719060246379
 30
0.0
 11
46.441096937708323
 21
28.329719060246379
 31
0.0
  0
LINE
  5
B67
  8
2
 10
41.441096937707933
 20
28.329719060246379
 30
0.0
 11
40.441096937707918
 21
27.32971906024547
 31
0.0
  0
LINE
  5
B68
  8
2
 10
41.441096937707933
 20
44.195744464029552
 30
0.0
 11
40.941096937707947
 21
43.329719060245161
 31
0.0
  0
LINE
  5
B69
  8
2
 10
46.441096937708323
 20
28.329719060246379
 30
0.0
 11
47.441096937708323
 21
27.32971906024547
 31
0.0
  0
LINE
  5
B6A
  8
2
 10
46.441096937708323
 20
44.195744464029552
 30
0.0
 11
46.941096937708288
 21
43.329719060245161
 31
0.0
  0
TEXT
  5
BF8
  8
0
 62
     3
 10
0.0
 20
0.0
 30
0.0
 40
10.0
  1
EAL63
  7
STANDARD1
  0
ENDSEC
  0
EOF
