  0
SECTION
  2
HEADER
  9
$ACADVER
  1
AC1009
  9
$INSBASE
 10
0.0
 20
0.0
 30
0.0
  9
$EXTMIN
 10
0.0
 20
-2.960436562073669
 30
0.0
  9
$EXTMAX
 10
361.75
 20
332.64999999998832
 30
0.0
  9
$LIMMIN
 10
0.0
 20
0.0
  9
$LIMMAX
 10
375.0
 20
270.0
  9
$ORTHOMODE
 70
     1
  9
$REGENMODE
 70
     1
  9
$FILLMODE
 70
     1
  9
$QTEXTMODE
 70
     0
  9
$MIRRTEXT
 70
     0
  9
$DRAGMODE
 70
     2
  9
$LTSCALE
 40
10.0
  9
$OSMODE
 70
  3071
  9
$ATTMODE
 70
     1
  9
$TEXTSIZE
 40
0.2
  9
$TRACEWID
 40
0.05
  9
$TEXTSTYLE
  7
STANDARD
  9
$CLAYER
  8
0
  9
$CELTYPE
  6
BYLAYER
  9
$CECOLOR
 62
   256
  9
$DIMSCALE
 40
1.0
  9
$DIMASZ
 40
3.0
  9
$DIMEXO
 40
2.0
  9
$DIMDLI
 40
0.38
  9
$DIMRND
 40
0.0
  9
$DIMDLE
 40
0.0
  9
$DIMEXE
 40
2.0
  9
$DIMTP
 40
0.0
  9
$DIMTM
 40
0.0
  9
$DIMTXT
 40
3.2000000000000002
  9
$DIMCEN
 40
0.0
  9
$DIMTSZ
 40
0.0
  9
$DIMTOL
 70
     0
  9
$DIMLIM
 70
     0
  9
$DIMTIH
 70
     0
  9
$DIMTOH
 70
     0
  9
$DIMSE1
 70
     0
  9
$DIMSE2
 70
     0
  9
$DIMTAD
 70
     1
  9
$DIMZIN
 70
     0
  9
$DIMBLK
  1

  9
$DIMASO
 70
     0
  9
$DIMSHO
 70
     0
  9
$DIMPOST
  1

  9
$DIMAPOST
  1

  9
$DIMALT
 70
     0
  9
$DIMALTD
 70
     2
  9
$DIMALTF
 40
25.399999999999999
  9
$DIMLFAC
 40
1.0
  9
$DIMTOFL
 70
     0
  9
$DIMTVP
 40
1.6000000000000001
  9
$DIMTIX
 70
     1
  9
$DIMSOXD
 70
     0
  9
$DIMSAH
 70
     0
  9
$DIMBLK1
  1

  9
$DIMBLK2
  1

  9
$DIMSTYLE
  2
STANDARD
  9
$DIMCLRD
 70
     0
  9
$DIMCLRE
 70
     0
  9
$DIMCLRT
 70
     0
  9
$DIMTFAC
 40
1.0
  9
$DIMGAP
 40
0.09
  9
$LUNITS
 70
     2
  9
$LUPREC
 70
     4
  9
$SKETCHINC
 40
0.1
  9
$FILLETRAD
 40
0.0
  9
$AUNITS
 70
     0
  9
$AUPREC
 70
     0
  9
$MENU
  1
E:\r13\win\SUPPORT\ACAD
  9
$ELEVATION
 40
0.0
  9
$PELEVATION
 40
0.0
  9
$THICKNESS
 40
0.0
  9
$LIMCHECK
 70
     0
  9
$BLIPMODE
 70
     0
  9
$CHAMFERA
 40
0.0
  9
$CHAMFERB
 40
0.0
  9
$SKPOLY
 70
     0
  9
$TDCREATE
 40
2449840.6053587962
  9
$TDUPDATE
 40
2456598.6015181602
  9
$TDINDWG
 40
0.0010391435
  9
$TDUSRTIMER
 40
0.0010391435
  9
$USRTIMER
 70
     1
  9
$ANGBASE
 50
0.0
  9
$ANGDIR
 70
     0
  9
$PDMODE
 70
     0
  9
$PDSIZE
 40
0.0
  9
$PLINEWID
 40
0.0
  9
$COORDS
 70
     1
  9
$SPLFRAME
 70
     0
  9
$SPLINETYPE
 70
     6
  9
$SPLINESEGS
 70
     8
  9
$ATTDIA
 70
     0
  9
$ATTREQ
 70
     1
  9
$HANDLING
 70
     1
  9
$HANDSEED
  5
2E5
  9
$SURFTAB1
 70
     6
  9
$SURFTAB2
 70
     6
  9
$SURFTYPE
 70
     6
  9
$SURFU
 70
     6
  9
$SURFV
 70
     6
  9
$UCSNAME
  2

  9
$UCSORG
 10
0.0
 20
0.0
 30
0.0
  9
$UCSXDIR
 10
1.0
 20
0.0
 30
0.0
  9
$UCSYDIR
 10
0.0
 20
1.0
 30
0.0
  9
$PUCSNAME
  2

  9
$PUCSORG
 10
0.0
 20
0.0
 30
0.0
  9
$PUCSXDIR
 10
1.0
 20
0.0
 30
0.0
  9
$PUCSYDIR
 10
0.0
 20
1.0
 30
0.0
  9
$USERI1
 70
     0
  9
$USERI2
 70
     1
  9
$USERI3
 70
     0
  9
$USERI4
 70
     0
  9
$USERI5
 70
     0
  9
$USERR1
 40
0.0
  9
$USERR2
 40
0.0
  9
$USERR3
 40
0.0
  9
$USERR4
 40
0.0
  9
$USERR5
 40
0.0
  9
$WORLDVIEW
 70
     1
  9
$SHADEDGE
 70
     3
  9
$SHADEDIF
 70
    70
  9
$TILEMODE
 70
     1
  9
$MAXACTVP
 70
    16
  9
$PLIMCHECK
 70
     0
  9
$PEXTMIN
 10
1.0000000000000000E+020
 20
1.0000000000000000E+020
 30
1.0000000000000000E+020
  9
$PEXTMAX
 10
-1.0000000000000000E+020
 20
-1.0000000000000000E+020
 30
-1.0000000000000000E+020
  9
$PLIMMIN
 10
0.0
 20
0.0
  9
$PLIMMAX
 10
12.0
 20
9.0
  9
$UNITMODE
 70
     0
  9
$VISRETAIN
 70
     0
  9
$PLINEGEN
 70
     0
  9
$PSLTSCALE
 70
     0
  0
ENDSEC
  0
SECTION
  2
TABLES
  0
TABLE
  2
VPORT
 70
     1
  0
VPORT
  2
*ACTIVE
 70
     0
 10
0.0
 20
0.0
 11
1.0
 21
1.0
 12
196.79449113185191
 22
164.84031868964701
 13
0.0
 23
0.0
 14
10.0
 24
10.0
 15
10.0
 25
10.0
 16
0.0
 26
0.0
 36
1.0
 17
0.0
 27
0.0
 37
0.0
 40
338.64988874776839
 41
1.8318713450292401
 42
50.0
 43
0.0
 44
0.0
 50
0.0
 51
0.0
 71
     0
 72
   500
 73
     1
 74
     0
 75
     0
 76
     0
 77
     0
 78
     1
  0
ENDTAB
  0
TABLE
  2
LTYPE
 70
     3
  0
LTYPE
  2
CONTINUOUS
 70
     0
  3
Solid Line
 72
    65
 73
     0
 40
0.0
  0
LTYPE
  2
CENTER
 70
     0
  3
____ _ ____ _ ____ _ ____ _ ____ _ ____ _ ____
 72
    65
 73
     4
 40
2.0
 49
1.25
 49
-0.25
 49
0.25
 49
-0.25
  0
LTYPE
  2
PHANTOM2
 70
     0
  3
___ _ _ ___ _ _ ___ _ _ ___ _ _
 72
    65
 73
     6
 40
1.25
 49
0.625
 49
-0.125
 49
0.125
 49
-0.125
 49
0.125
 49
-0.125
  0
ENDTAB
  0
TABLE
  2
LAYER
 70
     3
  0
LAYER
  2
0
 70
     0
 62
     7
  6
CONTINUOUS
  0
LAYER
  2
1
 70
     0
 62
     1
  6
CENTER
  0
LAYER
  2
3
 70
     0
 62
     3
  6
CONTINUOUS
  0
ENDTAB
  0
TABLE
  2
STYLE
 70
     2
  0
STYLE
  2
STANDARD
 70
     0
 40
0.0
 41
1.0
 50
0.0
 71
     0
 42
0.2
  3
TXT
  4
BIGFONT
  0
STYLE
  2
STANDARD1
 70
     0
 40
0.0
 41
1.0
 50
0.0
 71
     0
 42
3.0
  3
txt
  4

  0
ENDTAB
  0
TABLE
  2
VIEW
 70
     1
  0
VIEW
  2
ALL
 70
     0
 40
270.0
 10
220.99159663865549
 20
135.0
 41
0.0
 11
0.0
 21
0.0
 31
1.0
 12
0.0
 22
0.0
 32
0.0
 42
0.0
 43
0.0
 44
0.0
 50
0.0
 71
     0
  0
ENDTAB
  0
TABLE
  2
UCS
 70
     0
  0
ENDTAB
  0
TABLE
  2
APPID
 70
     3
  0
APPID
  2
ACAD
 70
     0
  0
APPID
  2
ACAD_MLEADERVER
 70
     0
  0
APPID
  2
ACAD_NAV_VCDISPLAY
 70
     0
  0
ENDTAB
  0
TABLE
  2
DIMSTYLE
 70
     1
  0
DIMSTYLE
  2
STANDARD
 70
     0
  3

  4

  5

  6

  7

 40
1.0
 41
0.18
 42
0.0625
 43
0.38
 44
0.18
 45
0.0
 46
0.0
 47
0.0
 48
0.0
140
0.18
141
0.09
142
0.0
143
25.399999999999999
144
1.0
145
0.0
146
1.0
147
0.09
 71
     0
 72
     0
 73
     1
 74
     1
 75
     0
 76
     0
 77
     0
 78
     0
170
     0
171
     2
172
     0
173
     0
174
     0
175
     0
176
     0
177
     0
178
     0
  0
ENDTAB
  0
ENDSEC
  0
SECTION
  2
BLOCKS
  0
BLOCK
  8
0
  2
$MODEL_SPACE
 70
     0
 10
0.0
 20
0.0
 30
0.0
  3
$MODEL_SPACE
  1

  0
ENDBLK
  5
13D
  8
0
  0
BLOCK
 67
     1
  8
0
  2
$PAPER_SPACE
 70
     0
 10
0.0
 20
0.0
 30
0.0
  3
$PAPER_SPACE
  1

  0
ENDBLK
  5
13B
 67
     1
  8
0
  0
ENDSEC
  0
SECTION
  2
ENTITIES
  0
LINE
  5
34
  8
1
 10
187.992583463307
 20
230.0749999999999
 30
0.0
 11
199.99999999999699
 21
230.0749999999999
 31
0.0
  0
LINE
  5
35
  8
0
 10
219.39999999999901
 20
193.19999999999879
 30
0.0
 11
219.39999999999901
 21
193.19999999999879
 31
0.0
  0
LINE
  5
36
  8
0
 10
220.00000000000011
 20
193.7999999999995
 30
0.0
 11
220.00000000000011
 21
196.2000000000003
 31
0.0
  0
LINE
  5
37
  8
0
 10
220.00000000000011
 20
196.2000000000003
 30
0.0
 11
219.90000000000239
 21
196.29999999999791
 31
0.0
  0
LINE
  5
38
  8
0
 10
220.00000000000011
 20
193.79999999999961
 30
0.0
 11
219.90000000000549
 21
193.7000000000051
 31
0.0
  0
ARC
  5
39
  8
0
 10
214.18750000000091
 20
194.99999999999761
 30
0.0
 40
5.7115655439868123
 50
339.28036122274978
 51
20.71963877730083
  0
LINE
  5
3A
  8
0
 10
217.5
 20
197.02072594207121
 30
0.0
 11
219.52965758194179
 21
197.02072594207121
 31
0.0
  0
ARC
  5
3B
  8
0
 10
218.33659977424119
 20
198.0310889131797
 30
0.0
 40
1.5634002257586559
 50
319.73979101933088
 51
19.739791019247502
  0
ARC
  5
3C
  8
0
 10
218.33659977424119
 20
191.96891108682021
 30
0.0
 40
1.5634002257586559
 50
340.26020898075262
 51
40.260208980669169
  0
ARC
  5
3D
  8
0
 10
218.33659977424119
 20
191.96891108682021
 30
0.0
 40
1.5634002257586559
 50
319.73979101933168
 51
319.7397910194257
  0
LINE
  5
3E
  8
0
 10
217.5
 20
192.97927405792859
 30
0.0
 11
219.52965758194179
 21
192.97927405792859
 31
0.0
  0
LINE
  5
3F
  8
0
 10
219.89999999999981
 20
198.40000000001351
 30
0.0
 11
219.90000000000799
 21
191.60000000000039
 31
0.0
  0
LINE
  5
40
  8
0
 10
217.5
 20
199.04145188428811
 30
0.0
 11
219.52965758194179
 21
199.04145188428811
 31
0.0
  0
LINE
  5
41
  8
0
 10
219.52965758194179
 20
199.04145188428811
 30
0.0
 11
219.89999999999981
 21
198.40000000001351
 31
0.0
  0
LINE
  5
42
  8
0
 10
219.52965758194179
 20
190.95854811571181
 30
0.0
 11
219.89999999999981
 21
191.59999999998641
 31
0.0
  0
LINE
  5
43
  8
0
 10
217.5
 20
190.95854811571181
 30
0.0
 11
219.52965758194179
 21
190.95854811571181
 31
0.0
  0
LINE
  5
44
  8
0
 10
217.5
 20
199.49999999999989
 30
0.0
 11
217.5
 21
190.49999999999989
 31
0.0
  0
LINE
  5
45
  8
0
 10
217.0
 20
199.49999999999989
 30
0.0
 11
217.5
 21
199.49999999999989
 31
0.0
  0
LINE
  5
46
  8
0
 10
217.0
 20
190.49999999999989
 30
0.0
 11
217.5
 21
190.49999999999989
 31
0.0
  0
ARC
  5
47
  8
0
 10
216.0
 20
159.24999999999989
 30
0.0
 40
1.0
 50
269.99999999999977
 51
0.0
  0
ARC
  5
48
  8
0
 10
216.0
 20
230.75
 30
0.0
 40
1.0
 50
0.0
 51
90.000000000000099
  0
LINE
  5
49
  8
0
 10
216.0
 20
231.74999999999989
 30
0.0
 11
213.0
 21
231.74999999999989
 31
0.0
  0
LINE
  5
4A
  8
0
 10
217.0
 20
159.24999999999989
 30
0.0
 11
217.0
 21
230.75
 31
0.0
  0
LINE
  5
4B
  8
0
 10
216.0
 20
158.24999999999989
 30
0.0
 11
213.0
 21
158.25
 31
0.0
  0
ARC
  5
4C
  8
0
 10
193.99258346330399
 20
228.59289239477781
 30
0.0
 40
1.0
 50
180.0
 51
270.0
  0
ARC
  5
4D
  8
0
 10
193.99258346330399
 20
231.59289239477781
 30
0.0
 40
1.0
 50
90.0
 51
180.0
  0
LINE
  5
4E
  8
0
 10
193.99258346330399
 20
232.59289239477781
 30
0.0
 11
194.99999999999989
 21
232.59289239477781
 31
0.0
  0
LINE
  5
4F
  8
0
 10
192.99258346330399
 20
228.59289239477781
 30
0.0
 11
192.99258346330399
 21
231.59289239477781
 31
0.0
  0
LINE
  5
50
  8
0
 10
194.9925834633045
 20
227.59289239477781
 30
0.0
 11
193.99258346330399
 21
227.59289239477781
 31
0.0
  0
LINE
  5
51
  8
0
 10
194.9925834633045
 20
228.44289239478371
 30
0.0
 11
194.9925834633045
 21
227.59289239477781
 31
0.0
  0
ARC
  5
52
  8
0
 10
196.0
 20
231.6499999999883
 30
0.0
 40
1.0
 50
90.0
 51
180.0
  0
ARC
  5
53
  8
0
 10
196.0
 20
158.35000000001159
 30
0.0
 40
1.0
 50
180.0
 51
270.0
  0
LINE
  5
54
  8
0
 10
194.99999999999989
 20
232.59289239477781
 30
0.0
 11
195.0
 21
158.35000000001159
 31
0.0
  0
LINE
  5
55
  8
0
 10
213.0
 20
232.6499999999883
 30
0.0
 11
196.0
 21
232.6499999999883
 31
0.0
  0
LINE
  5
56
  8
0
 10
213.0
 20
157.35000000001159
 30
0.0
 11
213.0
 21
232.6499999999883
 31
0.0
  0
LINE
  5
57
  8
0
 10
196.0
 20
157.35000000001159
 30
0.0
 11
213.0
 21
157.35000000001159
 31
0.0
  0
LINE
  5
58
  8
1
 10
225.0
 20
195.0
 30
0.0
 11
190.0
 21
195.0
 31
0.0
  0
CIRCLE
  5
59
  8
0
 10
320.0
 20
195.0
 30
0.0
 40
37.799999999999997
  0
CIRCLE
  5
5A
  8
0
 10
320.0
 20
195.0
 30
0.0
 40
36.75
  0
LINE
  5
5B
  8
1
 10
361.75
 20
195.0
 30
0.0
 11
278.25
 21
195.0
 31
0.0
  0
LINE
  5
5C
  8
1
 10
320.0
 20
236.75
 30
0.0
 11
320.0
 21
153.25
 31
0.0
  0
CIRCLE
  5
5D
  8
0
 10
320.0
 20
195.0
 30
0.0
 40
3.399999999999999
  0
LINE
  5
5E
  8
0
 10
320.00000000000028
 20
199.04145188103661
 30
0.0
 11
323.50000000000028
 21
197.02072593887351
 31
0.0
  0
LINE
  5
5F
  8
0
 10
316.50000000284882
 20
197.02072594051961
 30
0.0
 11
320.00000000284882
 21
199.0414518826837
 31
0.0
  0
LINE
  5
60
  8
0
 10
316.50000000284882
 20
192.97927405948249
 30
0.0
 11
316.50000000284882
 21
197.02072594380931
 31
0.0
  0
LINE
  5
61
  8
0
 10
320.00000000000028
 20
190.95854811896331
 30
0.0
 11
316.50000000000028
 21
192.9792740611264
 31
0.0
  0
LINE
  5
62
  8
0
 10
323.49999999714811
 20
192.9792740594803
 30
0.0
 11
319.9999999971518
 21
190.95854811731621
 31
0.0
  0
LINE
  5
63
  8
0
 10
323.49999999715169
 20
197.02072594052009
 30
0.0
 11
323.49999999715169
 21
192.97927405619291
 31
0.0
  0
CIRCLE
  5
64
  8
3
 10
320.0
 20
195.0
 30
0.0
 40
1.6209999999999991
  0
CIRCLE
  5
65
  8
0
 10
320.0
 20
195.0
 30
0.0
 40
2.0
  0
CIRCLE
  5
66
  8
0
 10
320.0
 20
195.0
 30
0.0
 40
4.4999999999999138
  0
LINE
  5
67
  8
1
 10
225.0
 20
295.0
 30
0.0
 11
190.0
 21
295.0
 31
0.0
  0
LINE
  5
68
  8
0
 10
196.0
 20
257.35000000001162
 30
0.0
 11
213.0
 21
257.35000000001162
 31
0.0
  0
LINE
  5
69
  8
0
 10
213.0
 20
257.35000000001162
 30
0.0
 11
213.0
 21
332.64999999998832
 31
0.0
  0
LINE
  5
6A
  8
0
 10
213.0
 20
332.64999999998832
 30
0.0
 11
196.0
 21
332.64999999998832
 31
0.0
  0
LINE
  5
6B
  8
0
 10
194.99999999999989
 20
331.64999999998832
 30
0.0
 11
195.0
 21
258.35000000001162
 31
0.0
  0
ARC
  5
6C
  8
0
 10
196.0
 20
258.35000000001162
 30
0.0
 40
1.0
 50
180.0
 51
270.0
  0
ARC
  5
6D
  8
0
 10
196.0
 20
331.64999999998832
 30
0.0
 40
1.0
 50
90.0
 51
180.0
  0
LINE
  5
6E
  8
0
 10
194.9925834633045
 20
293.36789239478378
 30
0.0
 11
194.9925834633045
 21
292.5178923947779
 31
0.0
  0
LINE
  5
6F
  8
0
 10
194.9925834633045
 20
292.5178923947779
 30
0.0
 11
193.99258346330399
 21
292.5178923947779
 31
0.0
  0
LINE
  5
70
  8
0
 10
192.99258346330399
 20
293.51789239477779
 30
0.0
 11
192.99258346330399
 21
296.51789239477802
 31
0.0
  0
LINE
  5
71
  8
0
 10
193.99258346330399
 20
297.51789239477802
 30
0.0
 11
194.99999999999989
 21
297.51789239477802
 31
0.0
  0
ARC
  5
72
  8
0
 10
193.99258346330399
 20
296.51789239477802
 30
0.0
 40
1.0
 50
90.0
 51
180.0
  0
ARC
  5
73
  8
0
 10
193.99258346330399
 20
293.51789239477779
 30
0.0
 40
1.0
 50
180.0
 51
270.0
  0
LINE
  5
74
  8
0
 10
216.0
 20
258.25
 30
0.0
 11
213.0
 21
258.25
 31
0.0
  0
LINE
  5
75
  8
0
 10
217.0
 20
259.24999999999989
 30
0.0
 11
217.0
 21
330.75
 31
0.0
  0
LINE
  5
76
  8
0
 10
216.0
 20
331.74999999999989
 30
0.0
 11
213.0
 21
331.74999999999989
 31
0.0
  0
ARC
  5
77
  8
0
 10
216.0
 20
330.75
 30
0.0
 40
1.0
 50
0.0
 51
90.000000000000099
  0
ARC
  5
78
  8
0
 10
216.0
 20
259.24999999999989
 30
0.0
 40
1.0
 50
269.99999999999977
 51
0.0
  0
LINE
  5
79
  8
0
 10
217.0
 20
290.49999999999989
 30
0.0
 11
217.5
 21
290.49999999999989
 31
0.0
  0
LINE
  5
7A
  8
0
 10
217.0
 20
299.5
 30
0.0
 11
217.5
 21
299.5
 31
0.0
  0
LINE
  5
7B
  8
0
 10
217.5
 20
299.5
 30
0.0
 11
217.5
 21
290.49999999999989
 31
0.0
  0
LINE
  5
7C
  8
0
 10
220.00000000000011
 20
293.79999999999961
 30
0.0
 11
219.95773502527459
 21
293.75773502527409
 31
0.0
  0
LINE
  5
7D
  8
0
 10
220.00000000000011
 20
296.20000000000027
 30
0.0
 11
219.95773502527459
 21
296.2422649747258
 31
0.0
  0
LINE
  5
7E
  8
0
 10
220.00000000000011
 20
293.79999999999961
 30
0.0
 11
220.00000000000011
 21
296.20000000000027
 31
0.0
  0
LINE
  5
7F
  8
0
 10
219.95773502527459
 20
291.60000000000031
 30
0.0
 11
219.95773502527459
 21
298.39999999999958
 31
0.0
  0
LINE
  5
80
  8
0
 10
217.5
 20
298.49999999715118
 30
0.0
 11
219.9000000000002
 21
298.49999999715112
 31
0.0
  0
LINE
  5
81
  8
0
 10
219.89999999999981
 20
291.50000000284831
 30
0.0
 11
217.5
 21
291.50000000284831
 31
0.0
  0
LINE
  5
82
  8
0
 10
219.95773502527459
 20
291.60000000000031
 30
0.0
 11
219.89999999999981
 21
291.50000000284831
 31
0.0
  0
ARC
  5
83
  8
0
 10
214.84537962360471
 20
293.25000000142438
 30
0.0
 40
5.054620376395234
 50
339.74384199953772
 51
20.25615800045583
  0
ARC
  5
84
  8
0
 10
214.84537962360471
 20
296.74999999857562
 30
0.0
 40
5.054620376395234
 50
339.7438419995442
 51
20.256158000462239
  0
LINE
  5
85
  8
0
 10
219.95773502527459
 20
298.39999999999958
 30
0.0
 11
219.9000000000002
 21
298.49999999715112
 31
0.0
  0
LINE
  5
86
  8
0
 10
219.58739260908411
 20
295.0
 30
0.0
 11
217.5
 21
295.0
 31
0.0
  0
LINE
  5
87
  8
0
 10
219.58739260908411
 20
95.0
 30
0.0
 11
217.5
 21
95.0
 31
0.0
  0
LINE
  5
88
  8
0
 10
219.95773502527459
 20
98.399999999999665
 30
0.0
 11
219.9000000000002
 21
98.499999997151164
 31
0.0
  0
ARC
  5
89
  8
0
 10
214.84537962360471
 20
96.749999998575561
 30
0.0
 40
5.054620376395234
 50
339.7438419995442
 51
20.256158000462239
  0
ARC
  5
8A
  8
0
 10
214.84537962360471
 20
93.250000001424425
 30
0.0
 40
5.054620376395234
 50
339.74384199953772
 51
20.25615800045583
  0
LINE
  5
8B
  8
0
 10
219.95773502527459
 20
91.600000000000335
 30
0.0
 11
219.89999999999981
 21
91.500000002848239
 31
0.0
  0
LINE
  5
8C
  8
0
 10
219.89999999999981
 20
91.500000002848239
 30
0.0
 11
217.5
 21
91.500000002848239
 31
0.0
  0
LINE
  5
8D
  8
0
 10
217.5
 20
98.499999997151178
 30
0.0
 11
219.9000000000002
 21
98.499999997151164
 31
0.0
  0
LINE
  5
8E
  8
0
 10
219.95773502527459
 20
91.600000000000307
 30
0.0
 11
219.95773502527459
 21
98.399999999999665
 31
0.0
  0
LINE
  5
8F
  8
0
 10
220.00000000000011
 20
93.799999999999557
 30
0.0
 11
220.00000000000011
 21
96.200000000000273
 31
0.0
  0
LINE
  5
90
  8
0
 10
220.00000000000011
 20
96.200000000000315
 30
0.0
 11
219.95773502527459
 21
96.242264974725799
 31
0.0
  0
LINE
  5
91
  8
0
 10
220.00000000000011
 20
93.799999999999585
 30
0.0
 11
219.95773502527459
 21
93.757735025274087
 31
0.0
  0
LINE
  5
92
  8
0
 10
217.5
 20
99.499999999999943
 30
0.0
 11
217.5
 21
90.499999999999943
 31
0.0
  0
LINE
  5
93
  8
0
 10
217.0
 20
99.499999999999943
 30
0.0
 11
217.5
 21
99.499999999999943
 31
0.0
  0
LINE
  5
94
  8
0
 10
217.0
 20
90.499999999999943
 30
0.0
 11
217.5
 21
90.499999999999943
 31
0.0
  0
ARC
  5
95
  8
0
 10
216.0
 20
59.249999999999943
 30
0.0
 40
1.0
 50
269.99999999999977
 51
0.0
  0
ARC
  5
96
  8
0
 10
216.0
 20
130.74999999999989
 30
0.0
 40
1.0
 50
0.0
 51
90.000000000000099
  0
LINE
  5
97
  8
0
 10
216.0
 20
131.74999999999989
 30
0.0
 11
213.0
 21
131.74999999999989
 31
0.0
  0
LINE
  5
98
  8
0
 10
217.0
 20
59.249999999999943
 30
0.0
 11
217.0
 21
130.74999999999989
 31
0.0
  0
LINE
  5
99
  8
0
 10
216.0
 20
58.249999999999943
 30
0.0
 11
213.0
 21
58.249999999999972
 31
0.0
  0
ARC
  5
9A
  8
0
 10
193.99258346330399
 20
93.517892394777874
 30
0.0
 40
1.0
 50
180.0
 51
270.0
  0
ARC
  5
9B
  8
0
 10
193.99258346330399
 20
96.517892394777931
 30
0.0
 40
1.0
 50
90.0
 51
180.0
  0
LINE
  5
9C
  8
0
 10
193.99258346330399
 20
97.517892394777945
 30
0.0
 11
194.99999999999989
 21
97.517892394777945
 31
0.0
  0
LINE
  5
9D
  8
0
 10
192.99258346330399
 20
93.517892394777874
 30
0.0
 11
192.99258346330399
 21
96.517892394777931
 31
0.0
  0
LINE
  5
9E
  8
0
 10
194.9925834633045
 20
92.517892394777874
 30
0.0
 11
193.99258346330399
 21
92.517892394777874
 31
0.0
  0
LINE
  5
9F
  8
0
 10
194.9925834633045
 20
93.367892394783809
 30
0.0
 11
194.9925834633045
 21
92.517892394777874
 31
0.0
  0
ARC
  5
A0
  8
0
 10
196.0
 20
131.6499999999883
 30
0.0
 40
1.0
 50
90.0
 51
180.0
  0
ARC
  5
A1
  8
0
 10
196.0
 20
58.350000000011647
 30
0.0
 40
1.0
 50
180.0
 51
270.0
  0
LINE
  5
A2
  8
0
 10
194.99999999999989
 20
131.6499999999883
 30
0.0
 11
195.0
 21
58.350000000011647
 31
0.0
  0
LINE
  5
A3
  8
0
 10
213.0
 20
132.6499999999883
 30
0.0
 11
196.0
 21
132.6499999999883
 31
0.0
  0
LINE
  5
A4
  8
0
 10
213.0
 20
57.350000000011619
 30
0.0
 11
213.0
 21
132.6499999999883
 31
0.0
  0
LINE
  5
A5
  8
0
 10
196.0
 20
57.35000000001164
 30
0.0
 11
213.0
 21
57.350000000011619
 31
0.0
  0
LINE
  5
A6
  8
1
 10
225.0
 20
94.999999999999986
 30
0.0
 11
190.0
 21
95.0
 31
0.0
  0
LINE
  5
A7
  8
0
 10
114.2527887549374
 20
200.4673685542125
 30
0.0
 11
97.499884605000844
 21
195.02402002679599
 31
0.0
  0
LINE
  5
A8
  8
0
 10
113.7894718967963
 20
201.8933112210089
 30
0.0
 11
114.2527887549374
 21
200.4673685542125
 31
0.0
  0
LINE
  5
A9
  8
0
 10
97.036567746787796
 20
196.44996269356909
 30
0.0
 11
113.7894718967963
 21
201.8933112210089
 31
0.0
  0
TEXT
  5
AA
  8
0
 10
80.316498490000058
 20
175.547117626626
 30
0.0
 40
2.5
  1
10
 72
     1
 11
81.774831823333386
 21
175.547117626626
 31
0.0
  0
TEXT
  5
AB
  8
0
 10
72.767895050019987
 20
200.7028823734183
 30
0.0
 40
2.5
  1
5
 72
     1
 11
73.601228383353316
 21
200.7028823734183
 31
0.0
  0
TEXT
  5
AC
  8
0
 10
106.55850151
 20
175.547117626626
 30
0.0
 40
2.5
  1
15
 72
     1
 11
108.2251681766667
 21
175.547117626626
 31
0.0
  0
TEXT
  5
AD
  8
0
 10
114.5237716166468
 20
200.7028823734183
 30
0.0
 40
2.5
  1
20
 72
     1
 11
116.3987716166468
 21
200.7028823734183
 31
0.0
  0
LINE
  5
AE
  8
0
 10
70.748058834473454
 20
202.87993335656131
 30
0.0
 11
64.090663220407635
 21
205.04305231718581
 31
0.0
  0
LINE
  5
AF
  8
3
 10
71.569900067316496
 20
209.869193560675
 30
0.0
 11
67.559342421187296
 21
212.4143708368218
 31
0.0
  0
LINE
  5
B0
  8
3
 10
76.003817810478324
 20
215.2288794109524
 30
0.0
 11
72.75221905732144
 21
218.69148039119949
 31
0.0
  0
LINE
  5
B1
  8
3
 10
81.631335543678915
 20
219.3175103712253
 30
0.0
 11
79.343005591698784
 21
223.4799671014282
 31
0.0
  0
LINE
  5
B2
  8
3
 10
88.098855631178708
 20
221.87818272132699
 30
0.0
 11
86.917578667147268
 21
226.47895273668189
 31
0.0
  0
LINE
  5
B3
  8
0
 10
80.011476066541888
 20
174.37006664343869
 30
0.0
 11
75.896979300494706
 21
168.70694768281419
 31
0.0
  0
LINE
  5
B4
  8
3
 10
73.61825751296368
 20
177.31148428447369
 30
0.0
 11
69.958319609783587
 21
174.28372033317149
 31
0.0
  0
LINE
  5
B5
  8
3
 10
69.891049294060053
 20
183.18462465907109
 30
0.0
 11
65.593120794852211
 21
181.1621730241398
 31
0.0
  0
LINE
  5
B6
  8
3
 10
67.741528792271708
 20
189.80016852025
 30
0.0
 11
63.075664351316682
 21
188.91010727596901
 31
0.0
  0
LINE
  5
B7
  8
3
 10
67.304758286109461
 20
196.742436916944
 30
0.0
 11
62.564131326081508
 21
197.04069188470791
 31
0.0
  0
LINE
  5
B8
  8
0
 10
109.9885239334582
 20
174.37006664343869
 30
0.0
 11
114.10302069950539
 21
168.70694768281419
 31
0.0
  0
LINE
  5
B9
  8
3
 10
105.21545633699741
 20
169.19870251659319
 30
0.0
 11
106.96404796224731
 21
164.7822642086299
 31
0.0
  0
LINE
  5
BA
  8
3
 10
98.477997231405197
 20
167.46881703851631
 30
0.0
 11
99.073330090834816
 21
162.75627220727881
 31
0.0
  0
LINE
  5
BB
  8
3
 10
91.522002768584684
 20
167.4688170385175
 30
0.0
 11
90.926669909155066
 21
162.75627220728009
 31
0.0
  0
LINE
  5
BC
  8
3
 10
84.784543662993073
 20
169.19870251659691
 30
0.0
 11
83.035952037743186
 21
164.78226420863371
 31
0.0
  0
LINE
  5
BD
  8
0
 10
119.2519411655266
 20
202.87993335656131
 30
0.0
 11
125.90933677959249
 21
205.04305231718581
 31
0.0
  0
LINE
  5
BE
  8
3
 10
122.69524171389131
 20
196.74243691693371
 30
0.0
 11
127.4358686739192
 21
197.04069188469751
 31
0.0
  0
LINE
  5
BF
  8
3
 10
122.2584712077265
 20
189.80016852023991
 30
0.0
 11
126.92433564868151
 21
188.91010727595881
 31
0.0
  0
LINE
  5
C0
  8
3
 10
120.1089507059357
 20
183.18462465906191
 30
0.0
 11
124.4068792051435
 21
181.1621730241304
 31
0.0
  0
LINE
  5
C1
  8
3
 10
116.3817424870299
 20
177.31148428446579
 30
0.0
 11
120.04168039021
 21
174.28372033316359
 31
0.0
  0
LINE
  5
C2
  8
3
 10
118.4300999326891
 20
209.8691935606663
 30
0.0
 11
122.4406575788183
 21
212.41437083681311
 31
0.0
  0
LINE
  5
C3
  8
3
 10
113.99618218952931
 20
215.22887941094541
 30
0.0
 11
117.24778094268621
 21
218.69148039119241
 31
0.0
  0
LINE
  5
C4
  8
3
 10
108.36866445633019
 20
219.31751037122029
 30
0.0
 11
110.6569944083103
 21
223.47996710142311
 31
0.0
  0
LINE
  5
C5
  8
3
 10
101.9011443688313
 20
221.87818272132449
 30
0.0
 11
103.08242133286279
 21
226.4789527366793
 31
0.0
  0
TEXT
  5
C6
  8
0
 10
96.110517579878547
 20
181.9999999999979
 30
0.0
 40
0.75
  1
25
 72
     1
 11
96.735517579878547
 21
181.9999999999979
 31
0.0
  0
TEXT
  5
C7
  8
0
 10
96.610517579878561
 20
183.2499999999979
 30
0.0
 40
0.75
  1
1
 72
     1
 11
96.735517579878547
 21
183.2499999999979
 31
0.0
  0
LINE
  5
C8
  8
0
 10
96.235517579878547
 20
182.9999999999979
 30
0.0
 11
97.235517579878561
 21
182.9999999999979
 31
0.0
  0
TEXT
  5
C9
  8
0
 10
92.252184246545241
 20
182.4999999999979
 30
0.0
 40
1.0
  1
D75L
 72
     1
 11
94.085517579878555
 21
182.4999999999979
 31
0.0
  0
ARC
  5
CA
  8
0
 10
95.000000000000114
 20
195.0
 30
0.0
 40
2.5
 50
107.4526535302864
 51
72.547346470478814
  0
LINE
  5
CB
  8
0
 10
94.250206021952408
 20
220.5000000000002
 30
0.0
 11
95.749793978015873
 21
220.5000000000002
 31
0.0
  0
LINE
  5
CC
  8
0
 10
94.250206021952408
 20
197.38491278467191
 30
0.0
 11
94.250206021952408
 21
220.5000000000002
 31
0.0
  0
LINE
  5
CD
  8
0
 10
95.749793978015873
 20
220.5000000000002
 30
0.0
 11
95.749793978015873
 21
197.38491278468331
 31
0.0
  0
LINE
  5
E3
  8
0
 10
95.000000000000057
 20
220.5000000000002
 30
0.0
 11
95.000000000000057
 21
227.5
 31
0.0
  0
CIRCLE
  5
E4
  8
0
 10
95.000000000025636
 20
195.0
 30
0.0
 40
27.75
  0
CIRCLE
  5
E5
  8
0
 10
95.000000000000057
 20
195.0
 30
0.0
 40
32.5
  0
CIRCLE
  5
E6
  8
0
 10
95.0
 20
230.0749999999999
 30
0.0
 40
2.5
  0
LINE
  5
E7
  8
1
 10
89.999970328618872
 20
230.0749999999999
 30
0.0
 11
100.0
 21
230.07499999999999
 31
0.0
  0
LINE
  5
E8
  8
0
 10
94.600000000000193
 20
231.72499999982529
 30
0.0
 11
94.600000000000193
 21
230.97500000000429
 31
0.0
  0
LINE
  5
E9
  8
0
 10
94.700000000000159
 20
231.8249999998252
 30
0.0
 11
95.300000000004388
 21
231.8249999998252
 31
0.0
  0
LINE
  5
EA
  8
0
 10
95.400000000004411
 20
231.72499999982529
 30
0.0
 11
95.400000000004411
 21
230.97499999999971
 31
0.0
  0
ARC
  5
EB
  8
0
 10
95.300000000004388
 20
231.72499999982529
 30
0.0
 40
0.1
 50
0.0
 51
90.000000000001023
  0
ARC
  5
EC
  8
0
 10
94.700000000000159
 20
231.72499999982529
 30
0.0
 40
0.1
 50
90.0
 51
180.0
  0
ARC
  5
ED
  8
0
 10
93.350000000174646
 20
229.77500000000009
 30
0.0
 40
0.1
 50
180.0
 51
270.0
  0
LINE
  5
EE
  8
0
 10
93.350000000174646
 20
229.6750000000001
 30
0.0
 11
94.099999999995646
 21
229.6750000000001
 31
0.0
  0
LINE
  5
EF
  8
0
 10
93.250000000174666
 20
229.77500000000009
 30
0.0
 11
93.250000000174666
 21
230.37500000000429
 31
0.0
  0
ARC
  5
F0
  8
0
 10
93.350000000174646
 20
230.37500000000429
 30
0.0
 40
0.1
 50
90.0
 51
180.00000000000099
  0
LINE
  5
F1
  8
0
 10
93.350000000174646
 20
230.47500000000429
 30
0.0
 11
94.100000000000193
 21
230.47500000000429
 31
0.0
  0
ARC
  5
F2
  8
0
 10
95.299999999999855
 20
228.5000000001688
 30
0.0
 40
0.1
 50
270.0
 51
0.0
  0
LINE
  5
F3
  8
0
 10
95.399999999999864
 20
228.42500000017449
 30
0.0
 11
95.399999999999807
 21
229.17499999999549
 31
0.0
  0
LINE
  5
F4
  8
0
 10
95.299999999999855
 20
228.4000000001688
 30
0.0
 11
94.699999999995612
 21
228.4000000001688
 31
0.0
  0
ARC
  5
F5
  8
0
 10
94.699999999995612
 20
228.5000000001688
 30
0.0
 40
0.1
 50
180.0
 51
270.00000000000102
  0
LINE
  5
F6
  8
0
 10
94.599999999995646
 20
228.42500000017449
 30
0.0
 11
94.599999999995646
 21
229.1750000000001
 31
0.0
  0
ARC
  5
F7
  8
0
 10
96.649999999825354
 20
230.37499999999969
 30
0.0
 40
0.1
 50
0.0
 51
89.999999999999986
  0
LINE
  5
F8
  8
0
 10
96.649999999825354
 20
230.4749999999998
 30
0.0
 11
95.900000000004425
 21
230.47499999999971
 31
0.0
  0
LINE
  5
F9
  8
0
 10
96.749999999825391
 20
230.37499999999969
 30
0.0
 11
96.749999999825391
 21
229.77499999999549
 31
0.0
  0
ARC
  5
FA
  8
0
 10
96.649999999825354
 20
229.77499999999549
 30
0.0
 40
0.1
 50
270.0
 51
0.0000000000010037
  0
LINE
  5
FB
  8
0
 10
96.649999999825354
 20
229.67499999999549
 30
0.0
 11
95.899999999999807
 21
229.67499999999549
 31
0.0
  0
ARC
  5
FC
  8
0
 10
94.100000000000193
 20
230.97500000000429
 30
0.0
 40
0.5
 50
270.0
 51
0.0000000000012977
  0
ARC
  5
FD
  8
0
 10
94.099999999995646
 20
229.1750000000001
 30
0.0
 40
0.5
 50
0.0
 51
90.000000000001336
  0
ARC
  5
FE
  8
0
 10
95.899999999999807
 20
229.17499999999549
 30
0.0
 40
0.5
 50
90.0
 51
180.00000000000131
  0
ARC
  5
FF
  8
0
 10
95.900000000004425
 20
230.97499999999971
 30
0.0
 40
0.5
 50
180.0
 51
270.00000000000131
  0
CIRCLE
  5
100
  8
0
 10
95.0
 20
195.0
 30
0.0
 40
37.649999999999999
  0
LINE
  5
101
  8
1
 10
95.0
 20
237.6499999999966
 30
0.0
 11
95.0
 21
152.35000000000369
 31
0.0
  0
LINE
  5
102
  8
1
 10
52.35000000000354
 20
195.0
 30
0.0
 11
137.64999999999651
 21
195.0
 31
0.0
  0
LINE
  5
188
  8
0
 10
95.843749999999986
 20
207.40625000000011
 30
0.0
 11
96.40625
 21
207.40625000000011
 31
0.0
  0
LINE
  5
189
  8
0
 10
95.843749999999986
 20
207.7812500000002
 30
0.0
 11
95.843749999999986
 21
207.40625000000011
 31
0.0
  0
ARC
  5
18A
  8
0
 10
96.125
 20
207.78125012644071
 30
0.0
 40
0.2812500000000284
 50
359.99997424174512
 51
180.00002575825491
  0
LINE
  5
18B
  8
0
 10
96.40625
 20
207.40625000000011
 30
0.0
 11
96.40625
 21
207.7812500000002
 31
0.0
  0
ARC
  5
18C
  8
0
 10
96.124999999999972
 20
207.78125026317269
 30
0.0
 40
1.218750000000028
 50
359.99998762775181
 51
107.9303927634253
  0
LINE
  5
18D
  8
0
 10
97.343749999999986
 20
206.0000000000002
 30
0.0
 11
97.343749999999986
 21
207.7812500000002
 31
0.0
  0
LINE
  5
18E
  8
0
 10
96.40625
 20
206.0000000000002
 30
0.0
 11
97.343749999999986
 21
206.0000000000002
 31
0.0
  0
LINE
  5
18F
  8
0
 10
96.40625
 20
206.6562500000002
 30
0.0
 11
96.40625
 21
206.0000000000002
 31
0.0
  0
LINE
  5
190
  8
0
 10
95.843749999999986
 20
206.65625000000011
 30
0.0
 11
96.40625
 21
206.6562500000002
 31
0.0
  0
LINE
  5
191
  8
0
 10
95.843749999999986
 20
206.00000000000011
 30
0.0
 11
95.843749999999986
 21
206.65625000000011
 31
0.0
  0
LINE
  5
192
  8
0
 10
95.749793977990294
 20
206.00000000000011
 30
0.0
 11
95.843749999999986
 21
206.00000000000011
 31
0.0
  0
LINE
  5
193
  8
0
 10
90.218750000000114
 20
206.0000000000002
 30
0.0
 11
90.218750000000114
 21
209.00000000000011
 31
0.0
  0
LINE
  5
194
  8
0
 10
89.281250000000128
 20
206.0000000000002
 30
0.0
 11
90.218750000000114
 21
206.0000000000002
 31
0.0
  0
LINE
  5
195
  8
0
 10
89.281250000000128
 20
209.00000000000011
 30
0.0
 11
89.281250000000128
 21
206.0000000000002
 31
0.0
  0
LINE
  5
196
  8
0
 10
90.218750000000114
 20
209.00000000000011
 30
0.0
 11
89.281250000000128
 21
209.00000000000011
 31
0.0
  0
LINE
  5
197
  8
0
 10
93.593750000000057
 20
206.0000000000002
 30
0.0
 11
94.250206021926857
 21
206.0000000000002
 31
0.0
  0
LINE
  5
198
  8
0
 10
93.593750000000057
 20
207.7812500000002
 30
0.0
 11
93.593750000000057
 21
206.0000000000002
 31
0.0
  0
ARC
  5
199
  8
0
 10
93.312500000000057
 20
207.7812500000002
 30
0.0
 40
0.28125
 50
0.0
 51
180.0
  0
LINE
  5
19A
  8
0
 10
93.031250000000057
 20
206.0000000000002
 30
0.0
 11
93.031250000000057
 21
207.7812500000002
 31
0.0
  0
LINE
  5
19B
  8
0
 10
92.093750000000085
 20
206.0000000000002
 30
0.0
 11
93.031250000000057
 21
206.0000000000002
 31
0.0
  0
LINE
  5
19C
  8
0
 10
92.093750000000085
 20
207.7812500000002
 30
0.0
 11
92.093750000000085
 21
206.0000000000002
 31
0.0
  0
ARC
  5
19D
  8
0
 10
91.812500000000085
 20
207.7812500000002
 30
0.0
 40
0.28125
 50
0.0
 51
180.0
  0
LINE
  5
19E
  8
0
 10
91.531250000000085
 20
206.0000000000002
 30
0.0
 11
91.531250000000085
 21
207.7812500000002
 31
0.0
  0
LINE
  5
19F
  8
0
 10
90.593750000000114
 20
206.0000000000002
 30
0.0
 11
91.531250000000085
 21
206.0000000000002
 31
0.0
  0
LINE
  5
1A0
  8
0
 10
90.593750000000114
 20
207.7812500000002
 30
0.0
 11
90.593750000000114
 21
206.0000000000002
 31
0.0
  0
ARC
  5
1A1
  8
0
 10
91.812500000000085
 20
207.78125000000011
 30
0.0
 40
1.218749999999982
 50
52.02012755514837
 51
179.99999999999841
  0
ARC
  5
1A2
  8
0
 10
93.312500000000057
 20
207.78125000000011
 30
0.0
 40
1.218749999999982
 50
39.699976874570623
 51
127.97987244485159
  0
ARC
  5
1A3
  8
0
 10
99.218749999999943
 20
207.50000000000011
 30
0.0
 40
0.5625
 50
0.0
 51
180.0
  0
ARC
  5
1A4
  8
0
 10
99.218749999999943
 20
207.50000000000011
 30
0.0
 40
0.5625
 50
180.0
 51
0.0
  0
ARC
  5
1A5
  8
0
 10
99.218749999999915
 20
207.50000000000011
 30
0.0
 40
1.4999999999999429
 50
180.0
 51
0.0
  0
ARC
  5
1A6
  8
0
 10
99.218749999999915
 20
207.50000000000011
 30
0.0
 40
1.4999999999999429
 50
0.0
 51
180.0
  0
TEXT
  5
254
  8
0
 62
     3
 10
0.0
 20
0.0
 30
0.0
 40
10.0
  1
D75L1/25
  7
STANDARD1
  0
ENDSEC
  0
EOF
