  0
SECTION
  2
HEADER
  9
$ACADVER
  1
AC1009
  9
$INSBASE
 10
0.0
 20
0.0
 30
0.0
  9
$EXTMIN
 10
0.0
 20
-2.960436562073669
 30
0.0
  9
$EXTMAX
 10
331.94999999999999
 20
246.9500000000117
 30
0.0
  9
$LIMMIN
 10
0.0
 20
0.0
  9
$LIMMAX
 10
375.0
 20
270.0
  9
$ORTHOMODE
 70
     1
  9
$REGENMODE
 70
     1
  9
$FILLMODE
 70
     1
  9
$QTEXTMODE
 70
     0
  9
$MIRRTEXT
 70
     0
  9
$DRAGMODE
 70
     2
  9
$LTSCALE
 40
10.0
  9
$OSMODE
 70
  3071
  9
$ATTMODE
 70
     1
  9
$TEXTSIZE
 40
0.2
  9
$TRACEWID
 40
0.05
  9
$TEXTSTYLE
  7
STANDARD
  9
$CLAYER
  8
0
  9
$CELTYPE
  6
BYLAYER
  9
$CECOLOR
 62
   256
  9
$DIMSCALE
 40
1.0
  9
$DIMASZ
 40
3.0
  9
$DIMEXO
 40
2.0
  9
$DIMDLI
 40
0.38
  9
$DIMRND
 40
0.0
  9
$DIMDLE
 40
0.0
  9
$DIMEXE
 40
2.0
  9
$DIMTP
 40
0.0
  9
$DIMTM
 40
0.0
  9
$DIMTXT
 40
3.2000000000000002
  9
$DIMCEN
 40
0.0
  9
$DIMTSZ
 40
0.0
  9
$DIMTOL
 70
     0
  9
$DIMLIM
 70
     0
  9
$DIMTIH
 70
     0
  9
$DIMTOH
 70
     0
  9
$DIMSE1
 70
     0
  9
$DIMSE2
 70
     0
  9
$DIMTAD
 70
     1
  9
$DIMZIN
 70
     0
  9
$DIMBLK
  1

  9
$DIMASO
 70
     0
  9
$DIMSHO
 70
     0
  9
$DIMPOST
  1

  9
$DIMAPOST
  1

  9
$DIMALT
 70
     0
  9
$DIMALTD
 70
     2
  9
$DIMALTF
 40
25.399999999999999
  9
$DIMLFAC
 40
1.0
  9
$DIMTOFL
 70
     0
  9
$DIMTVP
 40
1.6000000000000001
  9
$DIMTIX
 70
     1
  9
$DIMSOXD
 70
     0
  9
$DIMSAH
 70
     0
  9
$DIMBLK1
  1

  9
$DIMBLK2
  1

  9
$DIMSTYLE
  2
STANDARD
  9
$DIMCLRD
 70
     0
  9
$DIMCLRE
 70
     0
  9
$DIMCLRT
 70
     0
  9
$DIMTFAC
 40
1.0
  9
$DIMGAP
 40
0.09
  9
$LUNITS
 70
     2
  9
$LUPREC
 70
     4
  9
$SKETCHINC
 40
0.1
  9
$FILLETRAD
 40
0.0
  9
$AUNITS
 70
     0
  9
$AUPREC
 70
     0
  9
$MENU
  1
E:\r13\win\SUPPORT\ACAD
  9
$ELEVATION
 40
0.0
  9
$PELEVATION
 40
0.0
  9
$THICKNESS
 40
0.0
  9
$LIMCHECK
 70
     0
  9
$BLIPMODE
 70
     0
  9
$CHAMFERA
 40
0.0
  9
$CHAMFERB
 40
0.0
  9
$SKPOLY
 70
     0
  9
$TDCREATE
 40
2449840.6052083331
  9
$TDUPDATE
 40
2456598.6013357518
  9
$TDINDWG
 40
0.0031783102
  9
$TDUSRTIMER
 40
0.0031783102
  9
$USRTIMER
 70
     1
  9
$ANGBASE
 50
0.0
  9
$ANGDIR
 70
     0
  9
$PDMODE
 70
     0
  9
$PDSIZE
 40
0.0
  9
$PLINEWID
 40
0.0
  9
$COORDS
 70
     1
  9
$SPLFRAME
 70
     0
  9
$SPLINETYPE
 70
     6
  9
$SPLINESEGS
 70
     8
  9
$ATTDIA
 70
     0
  9
$ATTREQ
 70
     1
  9
$HANDLING
 70
     1
  9
$HANDSEED
  5
2F1
  9
$SURFTAB1
 70
     6
  9
$SURFTAB2
 70
     6
  9
$SURFTYPE
 70
     6
  9
$SURFU
 70
     6
  9
$SURFV
 70
     6
  9
$UCSNAME
  2

  9
$UCSORG
 10
0.0
 20
0.0
 30
0.0
  9
$UCSXDIR
 10
1.0
 20
0.0
 30
0.0
  9
$UCSYDIR
 10
0.0
 20
1.0
 30
0.0
  9
$PUCSNAME
  2

  9
$PUCSORG
 10
0.0
 20
0.0
 30
0.0
  9
$PUCSXDIR
 10
1.0
 20
0.0
 30
0.0
  9
$PUCSYDIR
 10
0.0
 20
1.0
 30
0.0
  9
$USERI1
 70
     0
  9
$USERI2
 70
     1
  9
$USERI3
 70
     0
  9
$USERI4
 70
     0
  9
$USERI5
 70
     0
  9
$USERR1
 40
0.0
  9
$USERR2
 40
0.0
  9
$USERR3
 40
0.0
  9
$USERR4
 40
0.0
  9
$USERR5
 40
0.0
  9
$WORLDVIEW
 70
     1
  9
$SHADEDGE
 70
     3
  9
$SHADEDIF
 70
    70
  9
$TILEMODE
 70
     1
  9
$MAXACTVP
 70
    16
  9
$PLIMCHECK
 70
     0
  9
$PEXTMIN
 10
1.0000000000000000E+020
 20
1.0000000000000000E+020
 30
1.0000000000000000E+020
  9
$PEXTMAX
 10
-1.0000000000000000E+020
 20
-1.0000000000000000E+020
 30
-1.0000000000000000E+020
  9
$PLIMMIN
 10
0.0
 20
0.0
  9
$PLIMMAX
 10
12.0
 20
9.0
  9
$UNITMODE
 70
     0
  9
$VISRETAIN
 70
     0
  9
$PLINEGEN
 70
     0
  9
$PSLTSCALE
 70
     0
  0
ENDSEC
  0
SECTION
  2
TABLES
  0
TABLE
  2
VPORT
 70
     1
  0
VPORT
  2
*ACTIVE
 70
     0
 10
0.0
 20
0.0
 11
1.0
 21
1.0
 12
195.0581083320873
 22
133.5127261426681
 13
0.0
 23
0.0
 14
10.0
 24
10.0
 15
10.0
 25
10.0
 16
0.0
 26
0.0
 36
1.0
 17
0.0
 27
0.0
 37
0.0
 40
275.42274993631997
 41
1.831871345029239
 42
50.0
 43
0.0
 44
0.0
 50
0.0
 51
0.0
 71
     0
 72
   500
 73
     1
 74
     0
 75
     0
 76
     0
 77
     0
 78
     2
  0
ENDTAB
  0
TABLE
  2
LTYPE
 70
     3
  0
LTYPE
  2
CONTINUOUS
 70
     0
  3
Solid Line
 72
    65
 73
     0
 40
0.0
  0
LTYPE
  2
CENTER
 70
     0
  3
____ _ ____ _ ____ _ ____ _ ____ _ ____ _ ____
 72
    65
 73
     4
 40
2.0
 49
1.25
 49
-0.25
 49
0.25
 49
-0.25
  0
LTYPE
  2
PHANTOM2
 70
     0
  3
___ _ _ ___ _ _ ___ _ _ ___ _ _
 72
    65
 73
     6
 40
1.25
 49
0.625
 49
-0.125
 49
0.125
 49
-0.125
 49
0.125
 49
-0.125
  0
ENDTAB
  0
TABLE
  2
LAYER
 70
     3
  0
LAYER
  2
0
 70
     0
 62
     7
  6
CONTINUOUS
  0
LAYER
  2
1
 70
     0
 62
     1
  6
CENTER
  0
LAYER
  2
3
 70
     0
 62
     3
  6
CONTINUOUS
  0
ENDTAB
  0
TABLE
  2
STYLE
 70
     2
  0
STYLE
  2
STANDARD
 70
     0
 40
0.0
 41
1.0
 50
0.0
 71
     0
 42
0.2
  3
TXT
  4
BIGFONT
  0
STYLE
  2
STANDARD1
 70
     0
 40
0.0
 41
1.0
 50
0.0
 71
     0
 42
3.0
  3
txt
  4

  0
ENDTAB
  0
TABLE
  2
VIEW
 70
     1
  0
VIEW
  2
ALL
 70
     0
 40
270.0
 10
220.99159663865549
 20
135.0
 41
0.0
 11
0.0
 21
0.0
 31
1.0
 12
0.0
 22
0.0
 32
0.0
 42
0.0
 43
0.0
 44
0.0
 50
0.0
 71
     0
  0
ENDTAB
  0
TABLE
  2
UCS
 70
     0
  0
ENDTAB
  0
TABLE
  2
APPID
 70
     3
  0
APPID
  2
ACAD
 70
     0
  0
APPID
  2
ACAD_MLEADERVER
 70
     0
  0
APPID
  2
ACAD_NAV_VCDISPLAY
 70
     0
  0
ENDTAB
  0
TABLE
  2
DIMSTYLE
 70
     1
  0
DIMSTYLE
  2
STANDARD
 70
     0
  3

  4

  5

  6

  7

 40
1.0
 41
0.18
 42
0.0625
 43
0.38
 44
0.18
 45
0.0
 46
0.0
 47
0.0
 48
0.0
140
0.18
141
0.09
142
0.0
143
25.399999999999999
144
1.0
145
0.0
146
1.0
147
0.09
 71
     0
 72
     0
 73
     1
 74
     1
 75
     0
 76
     0
 77
     0
 78
     0
170
     0
171
     2
172
     0
173
     0
174
     0
175
     0
176
     0
177
     0
178
     0
  0
ENDTAB
  0
ENDSEC
  0
SECTION
  2
BLOCKS
  0
BLOCK
  8
0
  2
$MODEL_SPACE
 70
     0
 10
0.0
 20
0.0
 30
0.0
  3
$MODEL_SPACE
  1

  0
ENDBLK
  5
13E
  8
0
  0
BLOCK
 67
     1
  8
0
  2
$PAPER_SPACE
 70
     0
 10
0.0
 20
0.0
 30
0.0
  3
$PAPER_SPACE
  1

  0
ENDBLK
  5
13C
 67
     1
  8
0
  0
ENDSEC
  0
SECTION
  2
ENTITIES
  0
LINE
  5
34
  8
1
 10
174.00000000000301
 20
164.71669184290019
 30
0.0
 11
185.0
 21
164.71669184290019
 31
0.0
  0
ARC
  5
35
  8
0
 10
180.00000000000011
 20
165.2261854126867
 30
0.0
 40
1.0
 50
90.000000000003254
 51
180.0
  0
ARC
  5
36
  8
0
 10
180.00000000000011
 20
164.22618541268659
 30
0.0
 40
1.0
 50
180.0
 51
269.9999999999992
  0
LINE
  5
37
  8
0
 10
179.00000000000011
 20
164.22618541268659
 30
0.0
 11
179.00000000000011
 21
165.2261854126867
 31
0.0
  0
LINE
  5
38
  8
0
 10
180.00000000000011
 20
166.2261854126867
 30
0.0
 11
180.00000000000011
 21
166.2261854126867
 31
0.0
  0
LINE
  5
39
  8
0
 10
180.00000000000011
 20
163.22618541268659
 30
0.0
 11
180.00000000000011
 21
163.22618541268659
 31
0.0
  0
LINE
  5
3A
  8
0
 10
205.00000000000011
 20
138.7999999999997
 30
0.0
 11
205.00000000000011
 21
141.20000000000039
 31
0.0
  0
LINE
  5
3B
  8
0
 10
205.00000000000011
 20
141.20000000000039
 30
0.0
 11
204.39999999999901
 21
141.80000000000109
 31
0.0
  0
LINE
  5
3C
  8
3
 10
204.57899999998651
 20
141.62100000001379
 30
0.0
 11
204.39999999999901
 21
141.62100000001379
 31
0.0
  0
LINE
  5
3D
  8
3
 10
204.57899999998651
 20
138.37899999998629
 30
0.0
 11
204.39999999999901
 21
138.37899999998629
 31
0.0
  0
LINE
  5
3E
  8
0
 10
205.00000000000011
 20
138.7999999999997
 30
0.0
 11
204.39999999999901
 21
138.19999999999891
 31
0.0
  0
ARC
  5
3F
  8
0
 10
198.6875
 20
139.9999999999977
 30
0.0
 40
5.7115655439868123
 50
339.28036122274978
 51
20.71963877730083
  0
LINE
  5
40
  8
0
 10
201.9999999999992
 20
142.02072594207129
 30
0.0
 11
204.02965758194091
 21
142.02072594207129
 31
0.0
  0
ARC
  5
41
  8
0
 10
202.8365997742404
 20
143.0310889131797
 30
0.0
 40
1.5634002257586559
 50
319.73979101933088
 51
19.739791019247502
  0
ARC
  5
42
  8
0
 10
202.8365997742404
 20
136.9689110868203
 30
0.0
 40
1.5634002257586559
 50
340.26020898075262
 51
40.260208980669169
  0
ARC
  5
43
  8
0
 10
202.8365997742404
 20
136.9689110868203
 30
0.0
 40
1.5634002257586559
 50
319.73979101933168
 51
319.7397910194257
  0
LINE
  5
44
  8
0
 10
201.9999999999992
 20
137.97927405792871
 30
0.0
 11
204.02965758194091
 21
137.97927405792871
 31
0.0
  0
LINE
  5
45
  8
0
 10
204.39999999999901
 20
143.40000000001359
 30
0.0
 11
204.40000000000711
 21
136.60000000000051
 31
0.0
  0
LINE
  5
46
  8
0
 10
201.9999999999992
 20
144.04145188428811
 30
0.0
 11
204.02965758194091
 21
144.04145188428819
 31
0.0
  0
LINE
  5
47
  8
0
 10
204.02965758194091
 20
144.04145188428819
 30
0.0
 11
204.39999999999901
 21
143.40000000001359
 31
0.0
  0
LINE
  5
48
  8
0
 10
204.02965758194091
 20
135.95854811571189
 30
0.0
 11
204.39999999999901
 21
136.59999999998649
 31
0.0
  0
LINE
  5
49
  8
0
 10
201.9999999999992
 20
135.95854811571189
 30
0.0
 11
204.02965758194091
 21
135.95854811571189
 31
0.0
  0
LINE
  5
4A
  8
0
 10
201.9999999999992
 20
135.00000000000011
 30
0.0
 11
201.50000000000011
 21
135.00000000000011
 31
0.0
  0
LINE
  5
4B
  8
0
 10
201.9999999999992
 20
144.99999999999989
 30
0.0
 11
201.50000000000011
 21
144.99999999999989
 31
0.0
  0
LINE
  5
4C
  8
0
 10
201.9999999999992
 20
135.00000000000011
 30
0.0
 11
201.9999999999992
 21
144.99999999999989
 31
0.0
  0
ARC
  5
4D
  8
0
 10
200.50000000000011
 20
114.90000000000001
 30
0.0
 40
1.0
 50
270.0
 51
0.0
  0
ARC
  5
4E
  8
0
 10
200.50000000000011
 20
165.09999999999999
 30
0.0
 40
1.0
 50
0.0
 51
90.000000000000099
  0
ARC
  5
4F
  8
0
 10
181.0
 20
165.9500000000117
 30
0.0
 40
1.0
 50
90.0
 51
180.0
  0
ARC
  5
50
  8
0
 10
181.0
 20
114.0499999999883
 30
0.0
 40
1.0
 50
180.0
 51
270.0
  0
LINE
  5
51
  8
0
 10
200.50000000000011
 20
113.90000000000001
 30
0.0
 11
200.0
 21
113.90000000000001
 31
0.0
  0
LINE
  5
52
  8
0
 10
200.50000000000011
 20
166.09999999999999
 30
0.0
 11
200.0
 21
166.09999999999999
 31
0.0
  0
LINE
  5
53
  8
0
 10
201.50000000000011
 20
114.90000000000001
 30
0.0
 11
201.50000000000011
 21
165.09999999999999
 31
0.0
  0
LINE
  5
54
  8
0
 10
200.0
 20
113.0499999999883
 30
0.0
 11
200.0
 21
166.9500000000117
 31
0.0
  0
LINE
  5
55
  8
0
 10
181.0
 20
113.0499999999883
 30
0.0
 11
200.0
 21
113.0499999999883
 31
0.0
  0
LINE
  5
56
  8
0
 10
180.0
 20
166.2261854126867
 30
0.0
 11
180.0
 21
114.0499999999883
 31
0.0
  0
LINE
  5
57
  8
0
 10
200.0
 20
166.9500000000117
 30
0.0
 11
181.0
 21
166.9500000000117
 31
0.0
  0
LINE
  5
58
  8
1
 10
210.0
 20
140.0
 30
0.0
 11
175.0000000000029
 21
140.0
 31
0.0
  0
CIRCLE
  5
59
  8
0
 10
300.0
 20
140.0
 30
0.0
 40
26.949999999999999
  0
CIRCLE
  5
5A
  8
0
 10
300.0
 20
140.0
 30
0.0
 40
26.100000000000001
  0
LINE
  5
5B
  8
1
 10
331.94999999999999
 20
140.0
 30
0.0
 11
268.05000000000001
 21
140.0
 31
0.0
  0
LINE
  5
5C
  8
1
 10
300.0
 20
171.94999999999999
 30
0.0
 11
300.0
 21
108.05
 31
0.0
  0
CIRCLE
  5
5D
  8
0
 10
300.0
 20
140.0
 30
0.0
 40
3.399999999999999
  0
LINE
  5
5E
  8
0
 10
300.00000000000028
 20
144.04145188103661
 30
0.0
 11
303.50000000000028
 21
142.02072593887351
 31
0.0
  0
LINE
  5
5F
  8
0
 10
296.50000000284882
 20
142.02072594051961
 30
0.0
 11
300.00000000284882
 21
144.0414518826837
 31
0.0
  0
LINE
  5
60
  8
0
 10
296.50000000284882
 20
137.97927405948249
 30
0.0
 11
296.50000000284882
 21
142.02072594380931
 31
0.0
  0
LINE
  5
61
  8
0
 10
300.00000000000028
 20
135.95854811896331
 30
0.0
 11
296.50000000000028
 21
137.9792740611264
 31
0.0
  0
LINE
  5
62
  8
0
 10
303.49999999714811
 20
137.97927405948019
 30
0.0
 11
299.99999999715169
 21
135.95854811731621
 31
0.0
  0
LINE
  5
63
  8
0
 10
303.4999999971518
 20
142.02072594052009
 30
0.0
 11
303.4999999971518
 21
137.97927405619291
 31
0.0
  0
CIRCLE
  5
64
  8
3
 10
300.0
 20
140.0
 30
0.0
 40
1.6209999999999991
  0
CIRCLE
  5
65
  8
0
 10
300.0
 20
140.0
 30
0.0
 40
2.0
  0
CIRCLE
  5
66
  8
0
 10
300.0
 20
140.0
 30
0.0
 40
4.9999999999999281
  0
LINE
  5
67
  8
1
 10
210.0
 20
220.00000000000011
 30
0.0
 11
175.0000000000029
 21
220.00000000000011
 31
0.0
  0
LINE
  5
68
  8
0
 10
200.0
 20
246.9500000000117
 30
0.0
 11
181.0
 21
246.9500000000117
 31
0.0
  0
LINE
  5
69
  8
0
 10
180.0
 20
245.9500000000117
 30
0.0
 11
180.0
 21
194.0499999999883
 31
0.0
  0
LINE
  5
6A
  8
0
 10
181.0
 20
193.0499999999883
 30
0.0
 11
200.0
 21
193.0499999999883
 31
0.0
  0
LINE
  5
6B
  8
0
 10
200.0
 20
193.0499999999883
 30
0.0
 11
200.0
 21
246.9500000000117
 31
0.0
  0
LINE
  5
6C
  8
0
 10
201.50000000000011
 20
194.90000000000001
 30
0.0
 11
201.50000000000011
 21
245.09999999999999
 31
0.0
  0
LINE
  5
6D
  8
0
 10
200.50000000000011
 20
246.09999999999999
 30
0.0
 11
200.0
 21
246.09999999999999
 31
0.0
  0
LINE
  5
6E
  8
0
 10
200.50000000000011
 20
193.90000000000001
 30
0.0
 11
200.0
 21
193.90000000000001
 31
0.0
  0
ARC
  5
6F
  8
0
 10
181.0
 20
194.0499999999883
 30
0.0
 40
1.0
 50
180.0
 51
270.0
  0
ARC
  5
70
  8
0
 10
181.0
 20
245.9500000000117
 30
0.0
 40
1.0
 50
90.0
 51
180.0
  0
ARC
  5
71
  8
0
 10
200.50000000000011
 20
245.09999999999999
 30
0.0
 40
1.0
 50
0.0
 51
90.000000000000099
  0
ARC
  5
72
  8
0
 10
200.50000000000011
 20
194.90000000000001
 30
0.0
 40
1.0
 50
270.0
 51
0.0
  0
LINE
  5
73
  8
0
 10
201.9999999999992
 20
215.00000000000011
 30
0.0
 11
201.9999999999992
 21
225.0
 31
0.0
  0
LINE
  5
74
  8
0
 10
201.9999999999992
 20
225.0
 30
0.0
 11
201.50000000000011
 21
225.0
 31
0.0
  0
LINE
  5
75
  8
0
 10
201.9999999999992
 20
215.00000000000011
 30
0.0
 11
201.50000000000011
 21
215.00000000000011
 31
0.0
  0
LINE
  5
76
  8
0
 10
205.00000000000011
 20
218.7999999999997
 30
0.0
 11
204.39999999999901
 21
218.19999999999891
 31
0.0
  0
LINE
  5
77
  8
3
 10
204.57899999998651
 20
218.37899999998629
 30
0.0
 11
204.39999999999901
 21
218.37899999998629
 31
0.0
  0
LINE
  5
78
  8
3
 10
204.57899999998651
 20
221.62100000001379
 30
0.0
 11
204.39999999999901
 21
221.62100000001379
 31
0.0
  0
LINE
  5
79
  8
0
 10
205.00000000000011
 20
221.20000000000039
 30
0.0
 11
204.39999999999901
 21
221.80000000000109
 31
0.0
  0
LINE
  5
7A
  8
0
 10
205.00000000000011
 20
218.7999999999997
 30
0.0
 11
205.00000000000011
 21
221.20000000000039
 31
0.0
  0
LINE
  5
7B
  8
0
 10
180.00000000000011
 20
218.5094935697864
 30
0.0
 11
180.00000000000011
 21
218.5094935697864
 31
0.0
  0
LINE
  5
7C
  8
0
 10
180.00000000000011
 20
221.50949356978651
 30
0.0
 11
180.00000000000011
 21
221.50949356978651
 31
0.0
  0
LINE
  5
7D
  8
0
 10
179.00000000000011
 20
219.5094935697864
 30
0.0
 11
179.00000000000011
 21
220.50949356978651
 31
0.0
  0
ARC
  5
7E
  8
0
 10
180.00000000000011
 20
219.5094935697864
 30
0.0
 40
1.0
 50
180.0
 51
269.9999999999992
  0
ARC
  5
7F
  8
0
 10
180.00000000000011
 20
220.50949356978651
 30
0.0
 40
1.0
 50
90.000000000003254
 51
180.0
  0
LINE
  5
80
  8
0
 10
204.39999999999901
 20
216.60000000000031
 30
0.0
 11
204.39999999999901
 21
223.39999999999969
 31
0.0
  0
LINE
  5
81
  8
0
 10
201.9999999999992
 20
223.49999999715121
 30
0.0
 11
204.3422649747246
 21
223.49999999715121
 31
0.0
  0
LINE
  5
82
  8
0
 10
204.34226497472429
 20
216.50000000284831
 30
0.0
 11
201.9999999999992
 21
216.50000000284831
 31
0.0
  0
LINE
  5
83
  8
0
 10
204.39999999999901
 20
216.60000000000039
 30
0.0
 11
204.34226497472429
 21
216.50000000284831
 31
0.0
  0
ARC
  5
84
  8
0
 10
199.28764459832911
 20
218.2500000014245
 30
0.0
 40
5.054620376395234
 50
339.74384199953772
 51
20.25615800045583
  0
ARC
  5
85
  8
0
 10
199.28764459832911
 20
221.74999999857559
 30
0.0
 40
5.054620376395234
 50
339.7438419995442
 51
20.256158000462239
  0
LINE
  5
86
  8
0
 10
204.39999999999901
 20
223.39999999999969
 30
0.0
 11
204.3422649747246
 21
223.49999999715121
 31
0.0
  0
LINE
  5
87
  8
0
 10
204.02965758380861
 20
220.00000000000011
 30
0.0
 11
201.9999999999992
 21
220.00000000000011
 31
0.0
  0
LINE
  5
88
  8
0
 10
204.02965758380861
 20
60.000000000000057
 30
0.0
 11
201.9999999999992
 21
60.000000000000057
 31
0.0
  0
LINE
  5
89
  8
0
 10
204.39999999999901
 20
63.399999999999721
 30
0.0
 11
204.3422649747246
 21
63.4999999971512
 31
0.0
  0
ARC
  5
8A
  8
0
 10
199.28764459832911
 20
61.749999998575611
 30
0.0
 40
5.054620376395234
 50
339.7438419995442
 51
20.256158000462239
  0
ARC
  5
8B
  8
0
 10
199.28764459832911
 20
58.250000001424489
 30
0.0
 40
5.054620376395234
 50
339.74384199953772
 51
20.25615800045583
  0
LINE
  5
8C
  8
0
 10
204.39999999999901
 20
56.600000000000392
 30
0.0
 11
204.34226497472429
 21
56.50000000284831
 31
0.0
  0
LINE
  5
8D
  8
0
 10
204.34226497472429
 20
56.50000000284831
 30
0.0
 11
201.9999999999992
 21
56.500000002848331
 31
0.0
  0
LINE
  5
8E
  8
0
 10
201.9999999999992
 20
63.4999999971512
 30
0.0
 11
204.3422649747246
 21
63.4999999971512
 31
0.0
  0
LINE
  5
8F
  8
0
 10
204.39999999999901
 20
56.600000000000357
 30
0.0
 11
204.39999999999901
 21
63.399999999999721
 31
0.0
  0
ARC
  5
90
  8
0
 10
180.00000000000011
 20
60.509493569786478
 30
0.0
 40
1.0
 50
90.000000000003254
 51
180.0
  0
ARC
  5
91
  8
0
 10
180.00000000000011
 20
59.509493569786429
 30
0.0
 40
1.0
 50
180.0
 51
269.9999999999992
  0
LINE
  5
92
  8
0
 10
179.00000000000011
 20
59.509493569786429
 30
0.0
 11
179.00000000000011
 21
60.509493569786478
 31
0.0
  0
LINE
  5
93
  8
0
 10
180.00000000000011
 20
61.509493569786493
 30
0.0
 11
180.00000000000011
 21
61.509493569786493
 31
0.0
  0
LINE
  5
94
  8
0
 10
180.00000000000011
 20
58.509493569786429
 30
0.0
 11
180.00000000000011
 21
58.509493569786429
 31
0.0
  0
LINE
  5
95
  8
0
 10
205.00000000000011
 20
58.79999999999967
 30
0.0
 11
205.00000000000011
 21
61.200000000000387
 31
0.0
  0
LINE
  5
96
  8
0
 10
205.00000000000011
 20
61.200000000000387
 30
0.0
 11
204.39999999999901
 21
61.800000000001148
 31
0.0
  0
LINE
  5
97
  8
3
 10
204.57899999998651
 20
61.621000000013787
 30
0.0
 11
204.39999999999901
 21
61.621000000013787
 31
0.0
  0
LINE
  5
98
  8
3
 10
204.57899999998651
 20
58.37899999998632
 30
0.0
 11
204.39999999999901
 21
58.37899999998632
 31
0.0
  0
LINE
  5
99
  8
0
 10
205.00000000000011
 20
58.79999999999967
 30
0.0
 11
204.39999999999901
 21
58.199999999998909
 31
0.0
  0
LINE
  5
9A
  8
0
 10
201.9999999999992
 20
55.000000000000107
 30
0.0
 11
201.50000000000011
 21
55.000000000000107
 31
0.0
  0
LINE
  5
9B
  8
0
 10
201.9999999999992
 20
64.999999999999943
 30
0.0
 11
201.50000000000011
 21
64.999999999999943
 31
0.0
  0
LINE
  5
9C
  8
0
 10
201.9999999999992
 20
55.000000000000107
 30
0.0
 11
201.9999999999992
 21
64.999999999999943
 31
0.0
  0
ARC
  5
9D
  8
0
 10
200.50000000000011
 20
34.900000000000041
 30
0.0
 40
1.0
 50
270.0
 51
0.0
  0
ARC
  5
9E
  8
0
 10
200.50000000000011
 20
85.100000000000037
 30
0.0
 40
1.0
 50
0.0
 51
90.000000000000099
  0
ARC
  5
9F
  8
0
 10
181.0
 20
85.950000000011684
 30
0.0
 40
1.0
 50
90.0
 51
180.0
  0
ARC
  5
A0
  8
0
 10
181.0
 20
34.049999999988358
 30
0.0
 40
1.0
 50
180.0
 51
270.0
  0
LINE
  5
A1
  8
0
 10
200.50000000000011
 20
33.900000000000041
 30
0.0
 11
200.0
 21
33.900000000000041
 31
0.0
  0
LINE
  5
A2
  8
0
 10
200.50000000000011
 20
86.100000000000023
 30
0.0
 11
200.0
 21
86.100000000000023
 31
0.0
  0
LINE
  5
A3
  8
0
 10
201.50000000000011
 20
34.900000000000041
 30
0.0
 11
201.50000000000011
 21
85.100000000000037
 31
0.0
  0
LINE
  5
A4
  8
0
 10
200.0
 20
33.049999999988358
 30
0.0
 11
200.0
 21
86.950000000011698
 31
0.0
  0
LINE
  5
A5
  8
0
 10
181.0
 20
33.049999999988358
 30
0.0
 11
200.0
 21
33.049999999988358
 31
0.0
  0
LINE
  5
A6
  8
0
 10
180.0
 20
85.950000000011684
 30
0.0
 11
180.0
 21
34.049999999988358
 31
0.0
  0
LINE
  5
A7
  8
0
 10
200.0
 20
86.950000000011698
 30
0.0
 11
181.0
 21
86.950000000011698
 31
0.0
  0
LINE
  5
A8
  8
1
 10
210.0
 20
60.000000000000057
 30
0.0
 11
175.0000000000029
 21
60.000000000000057
 31
0.0
  0
ARC
  5
A9
  8
0
 10
80.000000000000057
 20
140.0
 30
0.0
 40
2.5
 50
107.4526535302864
 51
72.547346470478814
  0
LINE
  5
AA
  8
0
 10
69.549513664584055
 20
133.10077329658711
 30
0.0
 11
78.309400339807382
 21
138.1582962265978
 31
0.0
  0
LINE
  5
AB
  8
0
 10
68.799851240551064
 20
134.39922670353761
 30
0.0
 11
69.549513664584055
 21
133.10077329658711
 31
0.0
  0
LINE
  5
AC
  8
0
 10
77.559737915839918
 20
139.45674963358621
 30
0.0
 11
68.799851240551064
 21
134.39922670353761
 31
0.0
  0
LINE
  5
C2
  8
0
 10
80.749793978015816
 20
156.49999999985391
 30
0.0
 11
80.749793978015873
 21
142.38491278468331
 31
0.0
  0
LINE
  5
C3
  8
0
 10
79.250206021952408
 20
142.38491278467191
 30
0.0
 11
79.250206021952408
 21
156.49999999985391
 31
0.0
  0
LINE
  5
C4
  8
0
 10
79.250206021952408
 20
156.49999999985391
 30
0.0
 11
80.749793978015816
 21
156.49999999985391
 31
0.0
  0
TEXT
  5
C5
  8
0
 10
91.390701688237257
 20
146.25000000001171
 30
0.0
 40
2.0
  1
10
 72
     1
 11
92.557368354903929
 21
146.25000000001171
 31
0.0
  0
ARC
  5
C6
  8
0
 10
79.649999999999977
 20
164.125
 30
0.0
 40
0.25
 50
0.0000000000022391
 51
90.000000000002245
  0
ARC
  5
C7
  8
0
 10
80.349999999999966
 20
164.125
 30
0.0
 40
0.25
 50
90.000000000002245
 51
180.00000000000219
  0
ARC
  5
C8
  8
0
 10
80.350000000000009
 20
164.82499999999999
 30
0.0
 40
0.25
 50
180.00000000000219
 51
270.00000000000222
  0
ARC
  5
C9
  8
0
 10
79.650000000000063
 20
164.82499999999999
 30
0.0
 40
0.25
 50
270.00000000000267
 51
0.0000000000054324
  0
LINE
  5
CA
  8
0
 10
80.899999999996325
 20
164.375
 30
0.0
 11
80.349999999999966
 21
164.375
 31
0.0
  0
LINE
  5
CB
  8
0
 10
80.899999999996325
 20
164.57499999999999
 30
0.0
 11
80.350000000000009
 21
164.57499999999999
 31
0.0
  0
ARC
  5
CC
  8
0
 10
80.899999999996282
 20
164.47499999999999
 30
0.0
 40
0.0999999999999659
 50
270.00000000002439
 51
89.999999999967415
  0
LINE
  5
CD
  8
0
 10
79.900000000000006
 20
163.57500000000371
 30
0.0
 11
79.899999999999977
 21
164.125
 31
0.0
  0
LINE
  5
CE
  8
0
 10
80.099999999999994
 20
163.5750000000036
 30
0.0
 11
80.099999999999966
 21
164.125
 31
0.0
  0
ARC
  5
CF
  8
0
 10
80.000000000000028
 20
163.57500000000371
 30
0.0
 40
0.0999999999999659
 50
180.00000000002439
 51
359.99999999996749
  0
LINE
  5
D0
  8
0
 10
79.100000000003661
 20
164.57499999999999
 30
0.0
 11
79.650000000000063
 21
164.57499999999999
 31
0.0
  0
LINE
  5
D1
  8
0
 10
79.100000000003632
 20
164.375
 30
0.0
 11
79.649999999999977
 21
164.375
 31
0.0
  0
ARC
  5
D2
  8
0
 10
79.100000000003689
 20
164.47499999999991
 30
0.0
 40
0.0999999999999659
 50
90.000000000024414
 51
269.99999999996737
  0
ARC
  5
D3
  8
0
 10
79.999999999999972
 20
165.37499999999631
 30
0.0
 40
0.0999999999999659
 50
0.0000000000244267
 51
179.9999999999674
  0
LINE
  5
D4
  8
0
 10
79.900000000000006
 20
165.37499999999631
 30
0.0
 11
79.900000000000063
 21
164.82499999999999
 31
0.0
  0
LINE
  5
D5
  8
0
 10
80.099999999999994
 20
165.37499999999631
 30
0.0
 11
80.100000000000037
 21
164.82499999999999
 31
0.0
  0
LINE
  5
D6
  8
1
 10
83.0
 20
164.47499999999991
 30
0.0
 11
77.0
 21
164.47499999999991
 31
0.0
  0
CIRCLE
  5
D7
  8
0
 10
80.0
 20
164.47499999999991
 30
0.0
 40
1.5
  0
TEXT
  5
D8
  8
0
 10
81.150000000000077
 20
131.54999999999981
 30
0.0
 40
0.75
  1
12
 72
     1
 11
81.650000000000063
 21
131.54999999999981
 31
0.0
  0
TEXT
  5
D9
  8
0
 10
81.525000000000063
 20
132.79999999999981
 30
0.0
 40
0.75
  1
1
 72
     1
 11
81.650000000000063
 21
132.79999999999981
 31
0.0
  0
LINE
  5
DA
  8
0
 10
81.150000000000077
 20
132.54999999999981
 30
0.0
 11
82.150000000000063
 21
132.54999999999981
 31
0.0
  0
TEXT
  5
DB
  8
0
 10
77.250000000000057
 20
132.04999999999981
 30
0.0
 40
1.0
  1
D50L
 72
     1
 11
79.000000000000057
 21
132.04999999999981
 31
0.0
  0
TEXT
  5
DC
  8
0
 10
86.249999999992042
 20
151.5573683548825
 30
0.0
 40
2.0
  1
11
 72
     1
 11
87.249999999992028
 21
151.5573683548825
 31
0.0
  0
TEXT
  5
DD
  8
0
 10
93.833333333355583
 20
139.0
 30
0.0
 40
2.0
  1
9
 72
     1
 11
94.500000000022254
 21
139.0
 31
0.0
  0
TEXT
  5
DE
  8
0
 10
91.890701688213568
 20
131.7499999999896
 30
0.0
 40
2.0
  1
8
 72
     1
 11
92.557368354880253
 21
131.7499999999896
 31
0.0
  0
TEXT
  5
DF
  8
0
 10
86.583333333325371
 20
126.4426316450953
 30
0.0
 40
2.0
  1
7
 72
     1
 11
87.249999999992028
 21
126.4426316450953
 31
0.0
  0
TEXT
  5
E0
  8
0
 10
79.333333333333385
 20
124.4999999999559
 30
0.0
 40
2.0
  1
6
 72
     1
 11
80.000000000000057
 21
124.4999999999559
 31
0.0
  0
TEXT
  5
E1
  8
0
 10
72.083333333303287
 20
126.4426316450953
 30
0.0
 40
2.0
  1
5
 72
     1
 11
72.749999999969958
 21
126.4426316450953
 31
0.0
  0
TEXT
  5
E2
  8
0
 10
66.775964978426913
 20
131.7499999999896
 30
0.0
 40
2.0
  1
4
 72
     1
 11
67.442631645093599
 21
131.7499999999896
 31
0.0
  0
TEXT
  5
E3
  8
0
 10
64.833333333311188
 20
139.0
 30
0.0
 40
2.0
  1
3
 72
     1
 11
65.499999999977859
 21
139.0
 31
0.0
  0
TEXT
  5
E4
  8
0
 10
66.775964978429457
 20
146.25000000001171
 30
0.0
 40
2.0
  1
2
 72
     1
 11
67.442631645096128
 21
146.25000000001171
 31
0.0
  0
TEXT
  5
E5
  8
0
 10
72.41666666663663
 20
151.5573683548825
 30
0.0
 40
2.0
  1
1
 72
     1
 11
72.749999999969958
 21
151.5573683548825
 31
0.0
  0
LINE
  5
E6
  8
3
 10
92.727922061364623
 20
152.72792206134321
 30
0.0
 11
94.495689014331006
 21
154.49568901430951
 31
0.0
  0
LINE
  5
E7
  8
0
 10
90.250000000032443
 20
157.7535207775409
 30
0.0
 11
88.250000000031903
 21
154.28941916240211
 31
0.0
  0
LINE
  5
E8
  8
3
 10
97.386664873234082
 20
144.65874281178901
 30
0.0
 11
99.801479438956804
 21
145.30579042454531
 31
0.0
  0
LINE
  5
E9
  8
0
 10
97.753520777621361
 20
150.24999999990879
 30
0.0
 11
94.289419162482673
 21
148.2499999999082
 31
0.0
  0
LINE
  5
EA
  8
3
 10
97.386664873234125
 20
135.34125718805009
 30
0.0
 11
99.801479438956804
 21
134.69420957529371
 31
0.0
  0
LINE
  5
EB
  8
0
 10
100.5000000000216
 20
139.99999999986051
 30
0.0
 11
96.500000000020592
 21
139.99999999986051
 31
0.0
  0
LINE
  5
EC
  8
3
 10
92.727922061364666
 20
127.2720779384959
 30
0.0
 11
94.495689014331006
 21
125.5043109855295
 31
0.0
  0
LINE
  5
ED
  8
0
 10
97.753520777562358
 20
129.74999999982811
 30
0.0
 11
94.289419162423656
 21
131.7499999998287
 31
0.0
  0
LINE
  5
EE
  8
3
 10
84.658742811810484
 20
122.6133351266264
 30
0.0
 11
85.305790424566794
 21
120.1985205609037
 31
0.0
  0
LINE
  5
EF
  8
0
 10
90.249999999930282
 20
122.2464792222392
 30
0.0
 11
88.249999999929727
 21
125.7105808373779
 31
0.0
  0
LINE
  5
F0
  8
3
 10
75.341257188071594
 20
122.6133351266264
 30
0.0
 11
74.694209575315284
 21
120.1985205609037
 31
0.0
  0
LINE
  5
F1
  8
0
 10
79.999999999882036
 20
119.49999999983891
 30
0.0
 11
79.999999999882036
 21
123.49999999984
 31
0.0
  0
LINE
  5
F2
  8
3
 10
67.272077938517441
 20
127.2720779384959
 30
0.0
 11
65.504310985551044
 21
125.5043109855295
 31
0.0
  0
LINE
  5
F3
  8
0
 10
69.749999999849649
 20
122.24647922229821
 30
0.0
 11
71.749999999850175
 21
125.71058083743689
 31
0.0
  0
LINE
  5
F4
  8
3
 10
62.613335126647968
 20
135.34125718805001
 30
0.0
 11
60.19852056092526
 21
134.69420957529371
 31
0.0
  0
LINE
  5
F5
  8
0
 10
62.246479222260682
 20
129.74999999993031
 30
0.0
 11
65.710580837399391
 21
131.74999999993079
 31
0.0
  0
LINE
  5
F6
  8
3
 10
62.613335126647939
 20
144.6587428117889
 30
0.0
 11
60.19852056092526
 21
145.30579042454519
 31
0.0
  0
LINE
  5
F7
  8
0
 10
59.499999999860393
 20
139.99999999997851
 30
0.0
 11
63.499999999861473
 21
139.99999999997851
 31
0.0
  0
LINE
  5
F8
  8
3
 10
67.272077938517384
 20
152.72792206134309
 30
0.0
 11
65.504310985551029
 21
154.49568901430951
 31
0.0
  0
LINE
  5
F9
  8
0
 10
62.246479222319692
 20
150.25000000001091
 30
0.0
 11
65.710580837458394
 21
148.25000000001029
 31
0.0
  0
LINE
  5
FA
  8
3
 10
75.341257188071552
 20
157.3866648732126
 30
0.0
 11
74.694209575315256
 21
159.80147943893519
 31
0.0
  0
LINE
  5
FB
  8
0
 10
69.749999999951754
 20
157.75352077759979
 30
0.0
 11
71.749999999952308
 21
154.28941916246109
 31
0.0
  0
LINE
  5
FC
  8
0
 10
80.0
 20
160.5000000000002
 30
0.0
 11
80.0
 21
156.49999999999909
 31
0.0
  0
LINE
  5
FD
  8
3
 10
84.658742811810441
 20
157.3866648732126
 30
0.0
 11
85.305790424566766
 21
159.8014794389353
 31
0.0
  0
CIRCLE
  5
FE
  8
0
 10
80.0
 20
140.0
 30
0.0
 40
22.0
  0
CIRCLE
  5
FF
  8
0
 10
80.0
 20
140.0
 30
0.0
 40
18.0
  0
CIRCLE
  5
100
  8
0
 10
80.0
 20
140.0
 30
0.0
 40
20.5
  0
CIRCLE
  5
101
  8
0
 10
80.0
 20
140.0
 30
0.0
 40
26.949999999999999
  0
LINE
  5
102
  8
1
 10
80.0
 20
171.94999999999601
 30
0.0
 11
80.0
 21
108.050000000004
 31
0.0
  0
LINE
  5
103
  8
1
 10
48.050000000004268
 20
140.0
 30
0.0
 11
111.9499999999957
 21
140.0
 31
0.0
  0
LINE
  5
193
  8
0
 10
80.749793978015816
 20
148.671875
 30
0.0
 11
81.171875000000057
 21
148.671875
 31
0.0
  0
ARC
  5
194
  8
0
 10
80.937500000000057
 20
148.98437510536709
 30
0.0
 40
0.2343750000000237
 50
359.99997424174347
 51
143.21412543763799
  0
LINE
  5
195
  8
0
 10
81.171875000000057
 20
148.671875
 30
0.0
 11
81.171875000000057
 21
148.984375
 31
0.0
  0
ARC
  5
19B
  8
0
 10
83.515625000000028
 20
148.75
 30
0.0
 40
1.2499999999999709
 50
0.0
 51
180.0
  0
ARC
  5
19C
  8
0
 10
83.515625000000028
 20
148.75
 30
0.0
 40
1.2499999999999709
 50
180.0
 51
0.0
  0
ARC
  5
19D
  8
0
 10
83.515625000000057
 20
148.75
 30
0.0
 40
0.46875
 50
180.0
 51
0.0
  0
ARC
  5
19E
  8
0
 10
83.515625000000057
 20
148.75
 30
0.0
 40
0.46875
 50
0.0
 51
180.0
  0
ARC
  5
19F
  8
0
 10
78.593750000000057
 20
148.984375
 30
0.0
 40
1.0156250000000031
 50
49.732527561957241
 51
127.97987244485191
  0
ARC
  5
1A0
  8
0
 10
77.343750000000057
 20
148.984375
 30
0.0
 40
1.0156250000000011
 50
52.020127555148093
 51
180.0
  0
LINE
  5
1A1
  8
0
 10
76.328125000000057
 20
148.984375
 30
0.0
 11
76.328125000000057
 21
147.5
 31
0.0
  0
LINE
  5
1A2
  8
0
 10
76.328125000000057
 20
147.5
 30
0.0
 11
77.109375000000057
 21
147.5
 31
0.0
  0
LINE
  5
1A3
  8
0
 10
77.109375000000057
 20
147.5
 30
0.0
 11
77.109375000000057
 21
148.984375
 31
0.0
  0
ARC
  5
1A4
  8
0
 10
77.343750000000057
 20
148.984375
 30
0.0
 40
0.234375
 50
0.0
 51
180.0
  0
LINE
  5
1A5
  8
0
 10
77.578125000000057
 20
148.984375
 30
0.0
 11
77.578125000000057
 21
147.5
 31
0.0
  0
LINE
  5
1A6
  8
0
 10
77.578125000000057
 20
147.5
 30
0.0
 11
78.359375000000057
 21
147.5
 31
0.0
  0
LINE
  5
1A7
  8
0
 10
78.359375000000057
 20
147.5
 30
0.0
 11
78.359375000000057
 21
148.984375
 31
0.0
  0
ARC
  5
1A8
  8
0
 10
78.593750000000057
 20
148.984375
 30
0.0
 40
0.234375
 50
0.0
 51
180.0
  0
LINE
  5
1A9
  8
0
 10
78.828125000000057
 20
148.984375
 30
0.0
 11
78.828125000000057
 21
147.5
 31
0.0
  0
LINE
  5
1AA
  8
0
 10
78.828125000000057
 20
147.5
 30
0.0
 11
79.25020602195238
 21
147.5
 31
0.0
  0
LINE
  5
1AB
  8
0
 10
76.015625000000057
 20
150.0
 30
0.0
 11
75.234375000000057
 21
150.0
 31
0.0
  0
LINE
  5
1AC
  8
0
 10
75.234375000000057
 20
150.0
 30
0.0
 11
75.234375000000057
 21
147.5
 31
0.0
  0
LINE
  5
1AD
  8
0
 10
75.234375000000057
 20
147.5
 30
0.0
 11
76.015625000000057
 21
147.5
 31
0.0
  0
LINE
  5
1AE
  8
0
 10
76.015625000000057
 20
147.5
 30
0.0
 11
76.015625000000057
 21
150.0
 31
0.0
  0
LINE
  5
1AF
  8
0
 10
80.749793978015816
 20
148.046875
 30
0.0
 11
81.171875000000057
 21
148.046875
 31
0.0
  0
LINE
  5
1B0
  8
0
 10
81.171875000000057
 20
148.046875
 30
0.0
 11
81.171875000000057
 21
147.5
 31
0.0
  0
LINE
  5
1B1
  8
0
 10
81.171875000000057
 20
147.5
 30
0.0
 11
81.953125000000057
 21
147.5
 31
0.0
  0
LINE
  5
1B2
  8
0
 10
81.953125000000057
 20
147.5
 30
0.0
 11
81.953125000000057
 21
148.984375
 31
0.0
  0
ARC
  5
1B3
  8
0
 10
80.937500000000057
 20
148.98437521931041
 30
0.0
 40
1.0156250000000231
 50
359.99998762775232
 51
100.65053540820421
  0
TEXT
  5
260
  8
0
 62
     3
 10
0.0
 20
0.0
 30
0.0
 40
10.0
  1
D50L1/12
  7
STANDARD1
  0
ENDSEC
  0
EOF
