  0
SECTION
  2
HEADER
  9
$ACADVER
  1
AC1009
  9
$INSBASE
 10
0.0
 20
0.0
 30
0.0
  9
$EXTMIN
 10
0.0
 20
-2.960436562073669
 30
0.0
  9
$EXTMAX
 10
89.475964702492774
 20
59.790693257900678
 30
0.0
  9
$LIMMIN
 10
0.0
 20
0.0
  9
$LIMMAX
 10
390.0
 20
270.0
  9
$ORTHOMODE
 70
     1
  9
$REGENMODE
 70
     1
  9
$FILLMODE
 70
     1
  9
$QTEXTMODE
 70
     0
  9
$MIRRTEXT
 70
     1
  9
$DRAGMODE
 70
     2
  9
$LTSCALE
 40
5.0
  9
$OSMODE
 70
  3071
  9
$ATTMODE
 70
     1
  9
$TEXTSIZE
 40
2.5
  9
$TRACEWID
 40
1.0
  9
$TEXTSTYLE
  7
STANDARD
  9
$CLAYER
  8
4
  9
$CELTYPE
  6
BYLAYER
  9
$CECOLOR
 62
   256
  9
$DIMSCALE
 40
1.1999999999999991
  9
$DIMASZ
 40
3.0
  9
$DIMEXO
 40
1.0
  9
$DIMDLI
 40
6.0
  9
$DIMRND
 40
0.0
  9
$DIMDLE
 40
0.0
  9
$DIMEXE
 40
1.0
  9
$DIMTP
 40
495.0
  9
$DIMTM
 40
0.0
  9
$DIMTXT
 40
3.2000000000000002
  9
$DIMCEN
 40
0.0
  9
$DIMTSZ
 40
0.0
  9
$DIMTOL
 70
     0
  9
$DIMLIM
 70
     0
  9
$DIMTIH
 70
     0
  9
$DIMTOH
 70
     0
  9
$DIMSE1
 70
     0
  9
$DIMSE2
 70
     0
  9
$DIMTAD
 70
     1
  9
$DIMZIN
 70
     8
  9
$DIMBLK
  1

  9
$DIMASO
 70
     0
  9
$DIMSHO
 70
     1
  9
$DIMPOST
  1

  9
$DIMAPOST
  1

  9
$DIMALT
 70
     0
  9
$DIMALTD
 70
     2
  9
$DIMALTF
 40
25.399999999999999
  9
$DIMLFAC
 40
1.0
  9
$DIMTOFL
 70
     1
  9
$DIMTVP
 40
0.0
  9
$DIMTIX
 70
     1
  9
$DIMSOXD
 70
     0
  9
$DIMSAH
 70
     0
  9
$DIMBLK1
  1

  9
$DIMBLK2
  1

  9
$DIMSTYLE
  2
ITM
  9
$DIMCLRD
 70
   256
  9
$DIMCLRE
 70
   256
  9
$DIMCLRT
 70
   256
  9
$DIMTFAC
 40
1.0
  9
$DIMGAP
 40
1.0
  9
$LUNITS
 70
     2
  9
$LUPREC
 70
     2
  9
$SKETCHINC
 40
1.0
  9
$FILLETRAD
 40
1.0
  9
$AUNITS
 70
     0
  9
$AUPREC
 70
     0
  9
$MENU
  1
.
  9
$ELEVATION
 40
0.0
  9
$PELEVATION
 40
0.0
  9
$THICKNESS
 40
0.0
  9
$LIMCHECK
 70
     0
  9
$BLIPMODE
 70
     0
  9
$CHAMFERA
 40
1.1999999999999991
  9
$CHAMFERB
 40
1.1999999999999991
  9
$SKPOLY
 70
     0
  9
$TDCREATE
 40
2453354.0921258219
  9
$TDUPDATE
 40
2456602.6129037272
  9
$TDINDWG
 40
513.38319313659997
  9
$TDUSRTIMER
 40
2456598.422482905
  9
$USRTIMER
 70
     1
  9
$ANGBASE
 50
0.0
  9
$ANGDIR
 70
     0
  9
$PDMODE
 70
     0
  9
$PDSIZE
 40
0.0
  9
$PLINEWID
 40
0.0
  9
$COORDS
 70
     1
  9
$SPLFRAME
 70
     0
  9
$SPLINETYPE
 70
     6
  9
$SPLINESEGS
 70
     8
  9
$ATTDIA
 70
     0
  9
$ATTREQ
 70
     1
  9
$HANDLING
 70
     1
  9
$HANDSEED
  5
1AF
  9
$SURFTAB1
 70
     6
  9
$SURFTAB2
 70
     6
  9
$SURFTYPE
 70
     6
  9
$SURFU
 70
     6
  9
$SURFV
 70
     6
  9
$UCSNAME
  2

  9
$UCSORG
 10
0.0
 20
0.0
 30
0.0
  9
$UCSXDIR
 10
1.0
 20
0.0
 30
0.0
  9
$UCSYDIR
 10
0.0
 20
1.0
 30
0.0
  9
$PUCSNAME
  2

  9
$PUCSORG
 10
0.0
 20
0.0
 30
0.0
  9
$PUCSXDIR
 10
1.0
 20
0.0
 30
0.0
  9
$PUCSYDIR
 10
0.0
 20
1.0
 30
0.0
  9
$USERI1
 70
     4
  9
$USERI2
 70
     1
  9
$USERI3
 70
     1
  9
$USERI4
 70
     0
  9
$USERI5
 70
     0
  9
$USERR1
 40
1.0
  9
$USERR2
 40
3.0
  9
$USERR3
 40
3.2000000000000002
  9
$USERR4
 40
3.0
  9
$USERR5
 40
10.0
  9
$WORLDVIEW
 70
     1
  9
$SHADEDGE
 70
     3
  9
$SHADEDIF
 70
    70
  9
$TILEMODE
 70
     1
  9
$MAXACTVP
 70
    16
  9
$PLIMCHECK
 70
     0
  9
$PEXTMIN
 10
0.0
 20
0.0
 30
0.0
  9
$PEXTMAX
 10
0.0
 20
0.0
 30
0.0
  9
$PLIMMIN
 10
0.0
 20
0.0
  9
$PLIMMAX
 10
12.0
 20
9.0
  9
$UNITMODE
 70
     0
  9
$VISRETAIN
 70
     0
  9
$PLINEGEN
 70
     0
  9
$PSLTSCALE
 70
     1
  0
ENDSEC
  0
SECTION
  2
TABLES
  0
TABLE
  2
VPORT
 70
     1
  0
VPORT
  2
*ACTIVE
 70
     0
 10
0.0
 20
0.0
 11
1.0
 21
1.0
 12
189.23927384216381
 22
43.28669579926509
 13
0.0
 23
0.0
 14
5.0
 24
5.0
 15
10.0
 25
10.0
 16
0.0
 26
0.0
 36
1.0
 17
0.0
 27
0.0
 37
0.0
 40
211.99230895595159
 41
1.831871345029239
 42
50.0
 43
0.0
 44
0.0
 50
0.0
 51
0.0
 71
    16
 72
   500
 73
     1
 74
     1
 75
     0
 76
     0
 77
     0
 78
     1
  0
ENDTAB
  0
TABLE
  2
LTYPE
 70
     4
  0
LTYPE
  2
CONTINUOUS
 70
     0
  3
Solid line
 72
    65
 73
     0
 40
0.0
  0
LTYPE
  2
CENTER
 70
     0
  3
____ _ ____ _ ____ _ ____ _ ____ _ ____ _ ____
 72
    65
 73
     4
 40
2.0
 49
1.25
 49
-0.25
 49
0.25
 49
-0.25
  0
LTYPE
  2
HIDDEN
 70
     0
  3
_ _ _ _ _ _ _ _ _ _ _ _ _ _ _ _ _ _ _ _ _ _ _
 72
    65
 73
     2
 40
0.375
 49
0.25
 49
-0.125
  0
LTYPE
  2
PHANTOM2
 70
     0
  3
___ _ _ ___ _ _ ___ _ _ ___ _ _
 72
    65
 73
     6
 40
1.25
 49
0.625
 49
-0.125
 49
0.125
 49
-0.125
 49
0.125
 49
-0.125
  0
ENDTAB
  0
TABLE
  2
LAYER
 70
     5
  0
LAYER
  2
0
 70
     0
 62
     7
  6
CONTINUOUS
  0
LAYER
  2
1
 70
     0
 62
     1
  6
CENTER
  0
LAYER
  2
WAKU
 70
     0
 62
     5
  6
CONTINUOUS
  0
LAYER
  2
4
 70
     0
 62
     4
  6
CONTINUOUS
  0
LAYER
  2
2
 70
     0
 62
     2
  6
HIDDEN
  0
ENDTAB
  0
TABLE
  2
STYLE
 70
     3
  0
STYLE
  2
STANDARD
 70
     0
 40
0.0
 41
1.0
 50
0.0
 71
     0
 42
2.5
  3
ROMANS
  4
EXTFONT
  0
STYLE
  2
K
 70
     0
 40
0.0
 41
0.75
 50
0.0
 71
     0
 42
3.2000000000000002
  3
ROMANS.shx
  4
EXTFONT.shx
  0
STYLE
  2
STANDARD1
 70
     0
 40
0.0
 41
1.0
 50
0.0
 71
     0
 42
3.0
  3
txt
  4

  0
ENDTAB
  0
TABLE
  2
VIEW
 70
     0
  0
ENDTAB
  0
TABLE
  2
UCS
 70
     0
  0
ENDTAB
  0
TABLE
  2
APPID
 70
     3
  0
APPID
  2
ACAD
 70
     0
  0
APPID
  2
ACAD_MLEADERVER
 70
     0
  0
APPID
  2
ACAD_NAV_VCDISPLAY
 70
     0
  0
ENDTAB
  0
TABLE
  2
DIMSTYLE
 70
     2
  0
DIMSTYLE
  2
ITM
 70
     0
  3

  4

  5

  6

  7

 40
0.0
 41
2.5
 42
1.0
 43
6.0
 44
1.0
 45
0.0
 46
0.0
 47
495.0
 48
0.0
140
3.0
141
0.0
142
0.0
143
25.399999999999999
144
1.0
145
0.0
146
1.0
147
1.0
 71
     0
 72
     0
 73
     0
 74
     0
 75
     0
 76
     0
 77
     3
 78
     8
170
     0
171
     2
172
     1
173
     0
174
     0
175
     0
176
     0
177
     0
178
     0
  0
DIMSTYLE
  2
STANDARD
 70
     0
  3

  4

  5

  6

  7

 40
1.0
 41
0.18
 42
0.0625
 43
0.38
 44
0.18
 45
0.0
 46
0.0
 47
0.0
 48
0.0
140
0.18
141
0.09
142
0.0
143
25.399999999999999
144
1.0
145
0.0
146
1.0
147
0.09
 71
     0
 72
     0
 73
     1
 74
     1
 75
     0
 76
     0
 77
     0
 78
     0
170
     0
171
     2
172
     0
173
     0
174
     0
175
     0
176
     0
177
     0
178
     0
  0
ENDTAB
  0
ENDSEC
  0
SECTION
  2
BLOCKS
  0
BLOCK
  8
0
  2
$MODEL_SPACE
 70
     0
 10
0.0
 20
0.0
 30
0.0
  3
$MODEL_SPACE
  1

  0
ENDBLK
  5
9
  8
0
  0
BLOCK
 67
     1
  8
0
  2
$PAPER_SPACE
 70
     0
 10
0.0
 20
0.0
 30
0.0
  3
$PAPER_SPACE
  1

  0
ENDBLK
  5
E
 67
     1
  8
0
  0
BLOCK
  8
0
  2
ARROW1
 70
     0
 10
0.0
 20
0.0
 30
0.0
  3
ARROW1
  1

  0
SOLID
  5
29
  8
WAKU
  6
CONTINUOUS
 62
     4
 10
-1.0
 20
0.1666666666666714
 30
0.0
 11
-1.0
 21
-0.1666666666666714
 31
0.0
 12
0.0
 22
0.0
 32
0.0
 13
0.0
 23
0.0
 33
0.0
  0
ENDBLK
  5
2B
  8
0
  0
ENDSEC
  0
SECTION
  2
ENTITIES
  0
LINE
  5
2D
  8
0
 10
77.345964702492722
 20
54.854539733700577
 30
0.0
 11
77.345964702492722
 21
24.854539733700591
 31
0.0
  0
LINE
  5
2E
  8
0
 10
87.905964702492696
 20
54.854539733700591
 30
0.0
 11
87.905964702492696
 21
24.854539733700602
 31
0.0
  0
LINE
  5
2F
  8
0
 10
77.345964702492722
 20
24.854539733700591
 30
0.0
 11
87.905964702492696
 21
24.854539733700591
 31
0.0
  0
LINE
  5
30
  8
0
 10
88.125964702492695
 20
25.07453973370059
 30
0.0
 11
87.905964702492696
 21
24.854539733700591
 31
0.0
  0
LINE
  5
31
  8
0
 10
77.125964702492752
 20
25.07453973370059
 30
0.0
 11
77.345964702492722
 21
24.854539733700591
 31
0.0
  0
CIRCLE
  5
32
  8
2
 10
82.625964702492695
 20
32.354539733700591
 30
0.0
 40
1.8999999999999999
  0
LINE
  5
35
  8
2
 10
85.425964702492763
 20
30.87453973370059
 30
0.0
 11
85.425964702492763
 21
33.854539733700591
 31
0.0
  0
LINE
  5
36
  8
2
 10
79.82596470249274
 20
30.87453973370059
 30
0.0
 11
79.82596470249274
 21
33.854539733700591
 31
0.0
  0
LINE
  5
37
  8
2
 10
79.82596470249274
 20
30.87453973370059
 30
0.0
 11
80.525964702492786
 21
30.174539733700581
 31
0.0
  0
LINE
  5
38
  8
2
 10
79.125964702492752
 20
30.584590240039489
 30
0.0
 11
80.030989955662221
 21
29.679564986870009
 31
0.0
  0
LINE
  5
39
  8
2
 10
80.030989955662221
 20
29.679564986870009
 30
0.0
 11
80.525964702492786
 21
30.174539733700581
 31
0.0
  0
LINE
  5
3A
  8
2
 10
85.425964702492763
 20
30.87453973370059
 30
0.0
 11
84.725964702492703
 21
30.174539733700581
 31
0.0
  0
LINE
  5
3B
  8
2
 10
86.125964702492695
 20
30.584590240039489
 30
0.0
 11
85.220939449323268
 21
29.679564986870009
 31
0.0
  0
LINE
  5
3C
  8
2
 10
85.220939449323268
 20
29.679564986870009
 30
0.0
 11
84.725964702492703
 21
30.174539733700581
 31
0.0
  0
LINE
  5
3D
  8
2
 10
79.125964702492752
 20
35.854539733700591
 30
0.0
 11
86.125964702492695
 21
35.854539733700591
 31
0.0
  0
LINE
  5
3E
  8
2
 10
79.125964702492723
 20
33.854539733700591
 30
0.0
 11
81.459774323523675
 21
33.854539733700591
 31
0.0
  0
LINE
  5
3F
  8
2
 10
83.792155081461772
 20
33.854539733700591
 30
0.0
 11
86.125964702492681
 21
33.854539733700591
 31
0.0
  0
LINE
  5
40
  8
2
 10
79.235964702492765
 20
28.854539733700591
 30
0.0
 11
86.01596470249271
 21
28.854539733700591
 31
0.0
  0
LINE
  5
41
  8
2
 10
79.845964702492779
 20
30.854539733700591
 30
0.0
 11
81.459774323523675
 21
30.854539733700591
 31
0.0
  0
LINE
  5
42
  8
2
 10
83.792155081461772
 20
30.854539733700591
 30
0.0
 11
85.405964702492781
 21
30.854539733700591
 31
0.0
  0
LINE
  5
43
  8
2
 10
79.125964702492752
 20
29.854539733700591
 30
0.0
 11
77.125964702492752
 21
28.699839195321399
 31
0.0
  0
LINE
  5
44
  8
2
 10
86.125964702492695
 20
29.854539733700591
 30
0.0
 11
88.125964702492695
 21
28.699839195321299
 31
0.0
  0
LINE
  5
45
  8
2
 10
79.235964702492765
 20
28.854539733700591
 30
0.0
 11
79.125964702492752
 21
28.96453973370059
 31
0.0
  0
LINE
  5
46
  8
2
 10
86.01596470249271
 20
28.854539733700591
 30
0.0
 11
86.125964702492695
 21
28.96453973370059
 31
0.0
  0
LINE
  5
47
  8
0
 10
77.125964702492752
 20
54.634539733700592
 30
0.0
 11
77.345964702492722
 21
54.854539733700591
 31
0.0
  0
LINE
  5
48
  8
0
 10
88.125964702492695
 20
54.634539733700592
 30
0.0
 11
87.905964702492696
 21
54.854539733700591
 31
0.0
  0
LINE
  5
49
  8
0
 10
77.345964702492722
 20
54.854539733700591
 30
0.0
 11
87.905964702492696
 21
54.854539733700591
 31
0.0
  0
LINE
  5
4A
  8
2
 10
86.01596470249271
 20
50.854539733700591
 30
0.0
 11
86.125964702492695
 21
50.744539733700591
 31
0.0
  0
LINE
  5
4B
  8
2
 10
79.235964702492765
 20
50.854539733700591
 30
0.0
 11
79.125964702492752
 21
50.744539733700591
 31
0.0
  0
LINE
  5
4C
  8
2
 10
86.125964702492695
 20
49.854539733700591
 30
0.0
 11
88.125964702492695
 21
51.009240272079872
 31
0.0
  0
LINE
  5
4D
  8
2
 10
79.125964702492752
 20
49.854539733700591
 30
0.0
 11
77.125964702492752
 21
51.009240272079779
 31
0.0
  0
LINE
  5
4E
  8
2
 10
86.125964702492695
 20
28.964539733700569
 30
0.0
 11
86.125964702492695
 21
50.744539733700591
 31
0.0
  0
LINE
  5
4F
  8
2
 10
79.125964702492752
 20
28.96453973370059
 30
0.0
 11
79.125964702492752
 21
50.744539733700591
 31
0.0
  0
LINE
  5
50
  8
2
 10
83.792155081461772
 20
48.854539733700591
 30
0.0
 11
85.405964702492781
 21
48.854539733700591
 31
0.0
  0
LINE
  5
51
  8
2
 10
79.845964702492779
 20
48.854539733700591
 30
0.0
 11
81.459774323523675
 21
48.854539733700591
 31
0.0
  0
LINE
  5
52
  8
2
 10
79.235964702492765
 20
50.854539733700591
 30
0.0
 11
86.01596470249271
 21
50.854539733700591
 31
0.0
  0
LINE
  5
53
  8
0
 10
88.125964702492695
 20
54.634539733700592
 30
0.0
 11
88.125964702492709
 21
25.074539733700611
 31
0.0
  0
LINE
  5
54
  8
0
 10
77.125964702492752
 20
54.634539733700592
 30
0.0
 11
77.125964702492752
 21
25.0745397337006
 31
0.0
  0
LINE
  5
55
  8
1
 10
89.475964702492774
 20
39.854539733700591
 30
0.0
 11
75.775964702492743
 21
39.854539733700591
 31
0.0
  0
LINE
  5
58
  8
2
 10
83.792155081461772
 20
45.854539733700591
 30
0.0
 11
86.125964702492681
 21
45.854539733700591
 31
0.0
  0
LINE
  5
59
  8
2
 10
79.125964702492723
 20
45.854539733700591
 30
0.0
 11
81.459774323523675
 21
45.854539733700591
 31
0.0
  0
LINE
  5
5A
  8
2
 10
79.125964702492752
 20
43.854539733700591
 30
0.0
 11
86.125964702492695
 21
43.854539733700598
 31
0.0
  0
LINE
  5
5B
  8
2
 10
85.220939449323268
 20
50.029514480531169
 30
0.0
 11
84.725964702492703
 21
49.534539733700591
 31
0.0
  0
LINE
  5
5C
  8
2
 10
86.125964702492695
 20
49.124489227361693
 30
0.0
 11
85.220939449323268
 21
50.029514480531169
 31
0.0
  0
LINE
  5
5D
  8
2
 10
85.425964702492763
 20
48.834539733700588
 30
0.0
 11
84.725964702492703
 21
49.534539733700591
 31
0.0
  0
LINE
  5
5E
  8
2
 10
80.030989955662221
 20
50.029514480531169
 30
0.0
 11
80.525964702492786
 21
49.534539733700591
 31
0.0
  0
LINE
  5
5F
  8
2
 10
79.125964702492752
 20
49.124489227361693
 30
0.0
 11
80.030989955662221
 21
50.029514480531169
 31
0.0
  0
LINE
  5
60
  8
2
 10
79.82596470249274
 20
48.834539733700588
 30
0.0
 11
80.525964702492786
 21
49.534539733700591
 31
0.0
  0
LINE
  5
61
  8
2
 10
79.82596470249274
 20
48.834539733700588
 30
0.0
 11
79.82596470249274
 21
45.854539733700591
 31
0.0
  0
LINE
  5
62
  8
2
 10
85.425964702492763
 20
48.834539733700588
 30
0.0
 11
85.425964702492763
 21
45.854539733700591
 31
0.0
  0
CIRCLE
  5
63
  8
2
 10
82.625964702492695
 20
47.354539733700577
 30
0.0
 40
1.8999999999999999
  0
CIRCLE
  5
64
  8
0
 10
32.283132276258328
 20
39.85453973370069
 30
0.0
 40
9.269949493661187
  0
LINE
  5
65
  8
1
 10
52.219285800458323
 20
39.854539733700591
 30
0.0
 11
12.34697875205833
 21
39.854539733700591
 31
0.0
  0
CIRCLE
  5
66
  8
0
 10
32.283132276258328
 20
39.854539733700591
 30
0.0
 40
15.0
  0
CIRCLE
  5
67
  8
0
 10
32.283132276258328
 20
39.854539733700591
 30
0.0
 40
4.0
  0
CIRCLE
  5
68
  8
0
 10
32.283132276258328
 20
39.854539733700591
 30
0.0
 40
6.0
  0
CIRCLE
  5
69
  8
0
 10
32.283132276258328
 20
39.854539733700591
 30
0.0
 40
10.0
  0
CIRCLE
  5
6A
  8
0
 10
32.283132276258328
 20
39.854539733700591
 30
0.0
 40
11.15470053837921
  0
CIRCLE
  5
6B
  8
0
 10
32.283132276258328
 20
39.854539733700591
 30
0.0
 40
14.77999999999999
  0
LINE
  5
6C
  8
1
 10
32.283132276258328
 20
19.918386209500689
 30
0.0
 11
32.283132276258328
 21
59.790693257900678
 31
0.0
  0
TEXT
  5
112
  8
0
 62
     3
 10
0.0
 20
0.0
 30
0.0
 40
10.0
  1
CTG-BR30
  7
STANDARD1
  0
ENDSEC
  0
EOF
