  0
SECTION
  2
HEADER
  9
$ACADVER
  1
AC1009
  9
$INSBASE
 10
0.0
 20
0.0
 30
0.0
  9
$EXTMIN
 10
0.0
 20
-1.4802182810368341
 30
0.0
  9
$EXTMAX
 10
145.44237899999999
 20
111.182722
 30
0.0
  9
$LIMMIN
 10
0.0
 20
0.0
  9
$LIMMAX
 10
187.5
 20
135.0
  9
$ORTHOMODE
 70
     1
  9
$REGENMODE
 70
     1
  9
$FILLMODE
 70
     1
  9
$QTEXTMODE
 70
     0
  9
$MIRRTEXT
 70
     0
  9
$DRAGMODE
 70
     2
  9
$LTSCALE
 40
5.0
  9
$OSMODE
 70
  3071
  9
$ATTMODE
 70
     1
  9
$TEXTSIZE
 40
1.5
  9
$TRACEWID
 40
0.05
  9
$TEXTSTYLE
  7
07500
  9
$CLAYER
  8
0
  9
$CELTYPE
  6
BYLAYER
  9
$CECOLOR
 62
   256
  9
$DIMSCALE
 40
0.5
  9
$DIMASZ
 40
3.0
  9
$DIMEXO
 40
2.0
  9
$DIMDLI
 40
10.0
  9
$DIMRND
 40
0.0
  9
$DIMDLE
 40
0.0
  9
$DIMEXE
 40
2.0
  9
$DIMTP
 40
0.0
  9
$DIMTM
 40
0.0
  9
$DIMTXT
 40
3.2000000000000002
  9
$DIMCEN
 40
0.09
  9
$DIMTSZ
 40
0.0
  9
$DIMTOL
 70
     0
  9
$DIMLIM
 70
     0
  9
$DIMTIH
 70
     0
  9
$DIMTOH
 70
     0
  9
$DIMSE1
 70
     0
  9
$DIMSE2
 70
     0
  9
$DIMTAD
 70
     1
  9
$DIMZIN
 70
     0
  9
$DIMBLK
  1

  9
$DIMASO
 70
     0
  9
$DIMSHO
 70
     0
  9
$DIMPOST
  1

  9
$DIMAPOST
  1

  9
$DIMALT
 70
     0
  9
$DIMALTD
 70
     2
  9
$DIMALTF
 40
25.399999999999999
  9
$DIMLFAC
 40
1.0
  9
$DIMTOFL
 70
     1
  9
$DIMTVP
 40
1.6000000000000001
  9
$DIMTIX
 70
     1
  9
$DIMSOXD
 70
     0
  9
$DIMSAH
 70
     0
  9
$DIMBLK1
  1

  9
$DIMBLK2
  1

  9
$DIMSTYLE
  2
STANDARD
  9
$DIMCLRD
 70
     0
  9
$DIMCLRE
 70
     0
  9
$DIMCLRT
 70
     0
  9
$DIMTFAC
 40
1.0
  9
$DIMGAP
 40
0.09
  9
$LUNITS
 70
     2
  9
$LUPREC
 70
     4
  9
$SKETCHINC
 40
0.1
  9
$FILLETRAD
 40
0.0
  9
$AUNITS
 70
     0
  9
$AUPREC
 70
     0
  9
$MENU
  1
E:\r13\win\SUPPORT\ACAD
  9
$ELEVATION
 40
0.0
  9
$PELEVATION
 40
0.0
  9
$THICKNESS
 40
0.0
  9
$LIMCHECK
 70
     0
  9
$BLIPMODE
 70
     0
  9
$CHAMFERA
 40
0.0
  9
$CHAMFERB
 40
0.0
  9
$SKPOLY
 70
     0
  9
$TDCREATE
 40
2449840.5948148151
  9
$TDUPDATE
 40
2456598.501835926
  9
$TDINDWG
 40
0.0104471991
  9
$TDUSRTIMER
 40
0.0104471991
  9
$USRTIMER
 70
     1
  9
$ANGBASE
 50
0.0
  9
$ANGDIR
 70
     0
  9
$PDMODE
 70
     0
  9
$PDSIZE
 40
0.0
  9
$PLINEWID
 40
0.0
  9
$COORDS
 70
     1
  9
$SPLFRAME
 70
     0
  9
$SPLINETYPE
 70
     6
  9
$SPLINESEGS
 70
     8
  9
$ATTDIA
 70
     0
  9
$ATTREQ
 70
     1
  9
$HANDLING
 70
     1
  9
$HANDSEED
  5
2D0
  9
$SURFTAB1
 70
     6
  9
$SURFTAB2
 70
     6
  9
$SURFTYPE
 70
     6
  9
$SURFU
 70
     6
  9
$SURFV
 70
     6
  9
$UCSNAME
  2

  9
$UCSORG
 10
0.0
 20
0.0
 30
0.0
  9
$UCSXDIR
 10
1.0
 20
0.0
 30
0.0
  9
$UCSYDIR
 10
0.0
 20
1.0
 30
0.0
  9
$PUCSNAME
  2

  9
$PUCSORG
 10
0.0
 20
0.0
 30
0.0
  9
$PUCSXDIR
 10
1.0
 20
0.0
 30
0.0
  9
$PUCSYDIR
 10
0.0
 20
1.0
 30
0.0
  9
$USERI1
 70
     0
  9
$USERI2
 70
     1
  9
$USERI3
 70
     0
  9
$USERI4
 70
     0
  9
$USERI5
 70
     0
  9
$USERR1
 40
0.0
  9
$USERR2
 40
0.0
  9
$USERR3
 40
0.0
  9
$USERR4
 40
0.0
  9
$USERR5
 40
0.0
  9
$WORLDVIEW
 70
     1
  9
$SHADEDGE
 70
     3
  9
$SHADEDIF
 70
    70
  9
$TILEMODE
 70
     1
  9
$MAXACTVP
 70
    16
  9
$PLIMCHECK
 70
     0
  9
$PEXTMIN
 10
1.0000000000000000E+020
 20
1.0000000000000000E+020
 30
1.0000000000000000E+020
  9
$PEXTMAX
 10
-1.0000000000000000E+020
 20
-1.0000000000000000E+020
 30
-1.0000000000000000E+020
  9
$PLIMMIN
 10
0.0
 20
0.0
  9
$PLIMMAX
 10
12.0
 20
9.0
  9
$UNITMODE
 70
     0
  9
$VISRETAIN
 70
     0
  9
$PLINEGEN
 70
     0
  9
$PSLTSCALE
 70
     0
  0
ENDSEC
  0
SECTION
  2
TABLES
  0
TABLE
  2
VPORT
 70
     1
  0
VPORT
  2
*ACTIVE
 70
     0
 10
0.0
 20
0.0
 11
1.0
 21
1.0
 12
97.52905416604365
 22
66.75636307133405
 13
0.0
 23
0.0
 14
5.0
 24
5.0
 15
5.0
 25
5.0
 16
0.0
 26
0.0
 36
1.0
 17
0.0
 27
0.0
 37
0.0
 40
137.71137496815999
 41
1.831871345029239
 42
50.0
 43
0.0
 44
0.0
 50
0.0
 51
0.0
 71
     0
 72
   100
 73
     1
 74
     0
 75
     0
 76
     0
 77
     0
 78
     0
  0
ENDTAB
  0
TABLE
  2
LTYPE
 70
     4
  0
LTYPE
  2
CONTINUOUS
 70
     0
  3
Solid Line
 72
    65
 73
     0
 40
0.0
  0
LTYPE
  2
CENTER
 70
     0
  3
____ _ ____ _ ____ _ ____ _ ____ _ ____ _ ____
 72
    65
 73
     4
 40
2.0
 49
1.25
 49
-0.25
 49
0.25
 49
-0.25
  0
LTYPE
  2
HIDDEN
 70
     0
  3
_ _ _ _ _ _ _ _ _ _ _ _ _ _ _ _ _ _ _ _ _ _ _
 72
    65
 73
     2
 40
0.375
 49
0.25
 49
-0.125
  0
LTYPE
  2
PHANTOM2
 70
     0
  3
___ _ _ ___ _ _ ___ _ _ ___ _ _
 72
    65
 73
     6
 40
1.25
 49
0.625
 49
-0.125
 49
0.125
 49
-0.125
 49
0.125
 49
-0.125
  0
ENDTAB
  0
TABLE
  2
LAYER
 70
     4
  0
LAYER
  2
0
 70
     0
 62
     7
  6
CONTINUOUS
  0
LAYER
  2
1
 70
     0
 62
     1
  6
CENTER
  0
LAYER
  2
2
 70
     0
 62
     2
  6
HIDDEN
  0
LAYER
  2
3
 70
     0
 62
     3
  6
CONTINUOUS
  0
ENDTAB
  0
TABLE
  2
STYLE
 70
     3
  0
STYLE
  2
STANDARD
 70
     0
 40
0.0
 41
1.0
 50
0.0
 71
     0
 42
1.6000000000000001
  3
TXT
  4
BIGFONT
  0
STYLE
  2
07500
 70
     0
 40
0.0
 41
0.75
 50
0.0
 71
     0
 42
1.5
  3
TXT
  4
BIGFONT
  0
STYLE
  2
STANDARD1
 70
     0
 40
0.0
 41
1.0
 50
0.0
 71
     0
 42
3.0
  3
txt
  4

  0
ENDTAB
  0
TABLE
  2
VIEW
 70
     1
  0
VIEW
  2
ALL
 70
     0
 40
135.0
 10
110.49579799999999
 20
67.5
 41
0.0
 11
0.0
 21
0.0
 31
1.0
 12
0.0
 22
0.0
 32
0.0
 42
0.0
 43
0.0
 44
0.0
 50
0.0
 71
     0
  0
ENDTAB
  0
TABLE
  2
UCS
 70
     0
  0
ENDTAB
  0
TABLE
  2
APPID
 70
     4
  0
APPID
  2
ACAD
 70
     0
  0
APPID
  2
ACAD_MLEADERVER
 70
     0
  0
APPID
  2
ACAD_NAV_VCDISPLAY
 70
     0
  0
APPID
  2
ACAD_EXEMPT_FROM_CAD_STANDARDS
 70
     0
  0
ENDTAB
  0
TABLE
  2
DIMSTYLE
 70
     1
  0
DIMSTYLE
  2
STANDARD
 70
     0
  3

  4

  5

  6

  7

 40
1.0
 41
0.18
 42
0.0625
 43
0.38
 44
0.18
 45
0.0
 46
0.0
 47
0.0
 48
0.0
140
0.18
141
0.09
142
0.0
143
25.399999999999999
144
1.0
145
0.0
146
1.0
147
0.09
 71
     0
 72
     0
 73
     1
 74
     1
 75
     0
 76
     0
 77
     0
 78
     0
170
     0
171
     2
172
     0
173
     0
174
     0
175
     0
176
     0
177
     0
178
     0
  0
ENDTAB
  0
ENDSEC
  0
SECTION
  2
BLOCKS
  0
BLOCK
  8
0
  2
$MODEL_SPACE
 70
     0
 10
0.0
 20
0.0
 30
0.0
  3
$MODEL_SPACE
  1

  0
ENDBLK
  5
13A
  8
0
  0
BLOCK
 67
     1
  8
0
  2
$PAPER_SPACE
 70
     0
 10
0.0
 20
0.0
 30
0.0
  3
$PAPER_SPACE
  1

  0
ENDBLK
  5
138
 67
     1
  8
0
  0
ENDSEC
  0
SECTION
  2
ENTITIES
  0
LINE
  5
36
  8
1
 10
80.442379000000003
 20
69.056567999999999
 30
0.0
 11
105.442379
 21
69.056567999999999
 31
0.0
  0
LINE
  5
37
  8
1
 10
92.942379000000003
 20
81.556567999999999
 30
0.0
 11
92.942379000000003
 21
56.556567999999999
 31
0.0
  0
LINE
  5
38
  8
0
 10
142.94237899999999
 20
78.056567999999999
 30
0.0
 11
142.94237899999999
 21
60.056567999999999
 31
0.0
  0
LINE
  5
39
  8
0
 10
134.46637899999999
 20
79.056567999999999
 30
0.0
 11
136.06737899999999
 21
79.056567999999999
 31
0.0
  0
LINE
  5
3A
  8
0
 10
134.46637899999999
 20
59.056567999999999
 30
0.0
 11
141.94237899999999
 21
59.056567999999999
 31
0.0
  0
LINE
  5
3B
  8
1
 10
138.44237899999999
 20
81.556567999999999
 30
0.0
 11
138.44237899999999
 21
75.756568000000001
 31
0.0
  0
LINE
  5
3C
  8
0
 10
140.81737899999999
 20
79.056567999999999
 30
0.0
 11
140.81737899999999
 21
78.256568000000001
 31
0.0
  0
LINE
  5
3D
  8
0
 10
136.06737899999999
 20
78.256568000000001
 30
0.0
 11
140.81737899999999
 21
78.256568000000001
 31
0.0
  0
LINE
  5
3E
  8
0
 10
136.06737899999999
 20
79.056567999999999
 30
0.0
 11
136.06737899999999
 21
78.256568000000001
 31
0.0
  0
LINE
  5
3F
  8
0
 10
140.81737899999999
 20
79.056567999999999
 30
0.0
 11
141.94237899999999
 21
79.056567999999999
 31
0.0
  0
LINE
  5
40
  8
1
 10
130.44237899999999
 20
69.056567999999999
 30
0.0
 11
145.44237899999999
 21
69.056567999999999
 31
0.0
  0
LINE
  5
41
  8
0
 10
134.46637899999999
 20
79.056567999999999
 30
0.0
 11
134.46637899999999
 21
59.056567999999999
 31
0.0
  0
LINE
  5
42
  8
2
 10
136.117379
 20
76.994067999999999
 30
0.0
 11
136.117379
 21
61.119067999999999
 31
0.0
  0
LINE
  5
43
  8
2
 10
134.46637899999999
 20
76.994067999999999
 30
0.0
 11
136.117379
 21
76.994067999999999
 31
0.0
  0
LINE
  5
44
  8
2
 10
134.46637899999999
 20
61.119067999999999
 30
0.0
 11
136.117379
 21
61.119067999999999
 31
0.0
  0
LINE
  5
45
  8
2
 10
96.861563000000004
 20
78.256568000000001
 30
0.0
 11
89.023195999999999
 21
78.256568000000001
 31
0.0
  0
LINE
  5
46
  8
0
 10
132.94237899999999
 20
62.960568000000002
 30
0.0
 11
134.46637899999999
 21
64.48456800000001
 31
0.0
  0
LINE
  5
47
  8
0
 10
134.46637899999999
 20
64.48456800000001
 30
0.0
 11
132.94237899999999
 21
66.008568000000011
 31
0.0
  0
LINE
  5
48
  8
0
 10
134.46637899999999
 20
67.532568000000012
 30
0.0
 11
132.94237899999999
 21
69.056567999999999
 31
0.0
  0
LINE
  5
49
  8
0
 10
132.94237899999999
 20
66.008568000000011
 30
0.0
 11
134.46637899999999
 21
67.532568000000012
 31
0.0
  0
LINE
  5
4A
  8
0
 10
132.94237899999999
 20
69.056567999999999
 30
0.0
 11
134.46637899999999
 21
70.580568
 31
0.0
  0
LINE
  5
4B
  8
0
 10
134.46637899999999
 20
61.436568000000008
 30
0.0
 11
132.94237899999999
 21
62.960568000000002
 31
0.0
  0
LINE
  5
4C
  8
3
 10
99.430891000000017
 20
73.628562000000002
 30
0.0
 11
86.453868
 21
73.628562000000002
 31
0.0
  0
LINE
  5
4D
  8
3
 10
100.732203
 20
70.580562
 30
0.0
 11
85.152556000000004
 21
70.580562
 31
0.0
  0
LINE
  5
4E
  8
3
 10
95.164900000000003
 20
76.676562000000004
 30
0.0
 11
90.719858000000002
 21
76.676562000000004
 31
0.0
  0
LINE
  5
4F
  8
3
 10
100.73220000000001
 20
67.532561999999999
 30
0.0
 11
85.152557999999999
 21
67.532561999999999
 31
0.0
  0
LINE
  5
50
  8
3
 10
94.466379000000003
 20
76.846390999999997
 30
0.0
 11
94.466379000000003
 21
61.266745999999998
 31
0.0
  0
LINE
  5
51
  8
3
 10
91.418379000000002
 20
76.84639
 30
0.0
 11
91.418379000000002
 21
61.266745999999998
 31
0.0
  0
LINE
  5
52
  8
3
 10
88.370379
 20
75.545074999999997
 30
0.0
 11
88.370379
 21
62.568061999999991
 31
0.0
  0
LINE
  5
53
  8
3
 10
85.322378999999998
 20
71.279066
 30
0.0
 11
85.322378999999998
 21
66.834070999999994
 31
0.0
  0
LINE
  5
54
  8
3
 10
94.607306999999992
 20
76.817491000000004
 30
0.0
 11
85.181456999999995
 21
67.391639999999995
 31
0.0
  0
LINE
  5
55
  8
3
 10
96.820177000000015
 20
75.982359999999986
 30
0.0
 11
86.016586999999987
 21
65.178770999999983
 31
0.0
  0
LINE
  5
56
  8
3
 10
91.625961000000004
 20
76.884143999999992
 30
0.0
 11
85.114802999999995
 21
70.372986999999995
 31
0.0
  0
LINE
  5
57
  8
3
 10
98.555042
 20
74.669225999999995
 30
0.0
 11
87.329722000000004
 21
63.443905000000008
 31
0.0
  0
LINE
  5
58
  8
3
 10
91.277448000000007
 20
76.817490000000006
 30
0.0
 11
100.703301
 21
67.391637000000003
 31
0.0
  0
LINE
  5
59
  8
3
 10
89.064580000000007
 20
75.982359000000002
 30
0.0
 11
99.868170000000006
 21
65.178768999999988
 31
0.0
  0
LINE
  5
5A
  8
3
 10
87.329715000000007
 20
74.669224
 30
0.0
 11
98.555035000000004
 21
63.443904000000003
 31
0.0
  0
LINE
  5
5B
  8
3
 10
86.016582999999997
 20
72.934356999999991
 30
0.0
 11
96.82016800000001
 21
62.130770999999989
 31
0.0
  0
LINE
  5
5C
  8
3
 10
85.181453999999988
 20
70.721485000000001
 30
0.0
 11
94.607295999999977
 21
61.295643000000013
 31
0.0
  0
CIRCLE
  5
5D
  8
2
 10
92.942379000000003
 20
69.056567999999999
 30
0.0
 40
3.0
  0
CIRCLE
  5
5E
  8
2
 10
92.942379000000003
 20
69.056567999999999
 30
0.0
 40
2.458499999999999
  0
LINE
  5
5F
  8
0
 10
132.94237899999999
 20
72.104567000000003
 30
0.0
 11
134.46637899999999
 21
73.628566000000006
 31
0.0
  0
LINE
  5
60
  8
0
 10
134.46637899999999
 20
70.580566000000005
 30
0.0
 11
132.94237899999999
 21
72.104567000000003
 31
0.0
  0
LINE
  5
61
  8
2
 10
142.483879
 20
72.056567999999984
 30
0.0
 11
137.14237900000001
 21
72.056567999999984
 31
0.0
  0
LINE
  5
62
  8
2
 10
141.94237899999999
 20
71.515067999999985
 30
0.0
 11
136.117379
 21
71.515067999999985
 31
0.0
  0
LINE
  5
63
  8
2
 10
141.94237899999999
 20
66.598068000000012
 30
0.0
 11
136.117379
 21
66.598068000000012
 31
0.0
  0
LINE
  5
64
  8
2
 10
142.483879
 20
66.056567999999999
 30
0.0
 11
137.14237900000001
 21
66.056567999999999
 31
0.0
  0
LINE
  5
65
  8
2
 10
142.94237899999999
 20
72.515067999999999
 30
0.0
 11
141.94237899999999
 21
71.515067999999985
 31
0.0
  0
LINE
  5
66
  8
2
 10
141.94237899999999
 20
66.598068000000012
 30
0.0
 11
142.94237899999999
 21
65.598068000000012
 31
0.0
  0
LINE
  5
67
  8
3
 10
89.064580000000007
 20
62.130777000000002
 30
0.0
 11
99.868170000000006
 21
72.934366999999995
 31
0.0
  0
LINE
  5
68
  8
3
 10
86.453873000000016
 20
64.48456800000001
 30
0.0
 11
99.430886000000015
 21
64.48456800000001
 31
0.0
  0
LINE
  5
69
  8
3
 10
97.514370999999997
 20
62.568055000000008
 30
0.0
 11
97.514370999999997
 21
75.54508100000001
 31
0.0
  0
CIRCLE
  5
6A
  8
0
 10
92.942379000000003
 20
69.056567999999999
 30
0.0
 40
10.0
  0
CIRCLE
  5
6B
  8
0
 10
92.942379000000003
 20
69.056567999999999
 30
0.0
 40
7.9375
  0
LINE
  5
6C
  8
0
 10
134.46637899999999
 20
73.628565000000009
 30
0.0
 11
132.94237899999999
 21
75.152565999999993
 31
0.0
  0
LINE
  5
6D
  8
0
 10
132.94237899999999
 20
75.152565999999993
 30
0.0
 11
134.46637899999999
 21
76.676564999999997
 31
0.0
  0
LINE
  5
6E
  8
3
 10
94.258786000000001
 20
76.884146000000001
 30
0.0
 11
100.76995700000001
 21
70.372974999999997
 31
0.0
  0
LINE
  5
6F
  8
3
 10
91.277438000000004
 20
61.295648
 30
0.0
 11
100.703299
 21
70.721509999999995
 31
0.0
  0
LINE
  5
70
  8
3
 10
94.258762000000004
 20
61.228985999999999
 30
0.0
 11
100.769961
 21
67.740184999999997
 31
0.0
  0
LINE
  5
71
  8
3
 10
85.114806000000002
 20
67.740131999999974
 30
0.0
 11
91.625943000000007
 21
61.228994999999991
 31
0.0
  0
LINE
  5
72
  8
3
 10
100.562381
 20
66.834039000000004
 30
0.0
 11
100.562381
 21
71.279081000000005
 31
0.0
  0
LINE
  5
73
  8
3
 10
90.719858000000002
 20
61.436557999999998
 30
0.0
 11
95.164900000000003
 21
61.436557999999998
 31
0.0
  0
LINE
  5
74
  8
0
 10
141.94237899999999
 20
79.056567999999999
 30
0.0
 11
141.94237899999999
 21
59.056567999999999
 31
0.0
  0
LINE
  5
75
  8
0
 10
141.94237899999999
 20
79.056567999999999
 30
0.0
 11
142.94237899999999
 21
78.056567999999999
 31
0.0
  0
LINE
  5
76
  8
0
 10
142.94237899999999
 20
60.056567999999999
 30
0.0
 11
141.94237899999999
 21
59.056567999999999
 31
0.0
  0
LINE
  5
77
  8
0
 10
83.942379000000003
 20
29.430415000000011
 30
0.0
 11
82.942379000000003
 21
30.430415000000011
 31
0.0
  0
LINE
  5
78
  8
0
 10
102.942379
 20
30.430415000000011
 30
0.0
 11
101.942379
 21
29.430415000000011
 31
0.0
  0
LINE
  5
79
  8
0
 10
102.942379
 20
30.430415000000011
 30
0.0
 11
82.942379000000003
 21
30.430415000000011
 31
0.0
  0
LINE
  5
7A
  8
0
 10
99.038376999999997
 20
39.430415000000011
 30
0.0
 11
100.562376
 21
37.906415000000003
 31
0.0
  0
LINE
  5
7B
  8
0
 10
97.514375999999999
 20
37.906415000000003
 30
0.0
 11
99.038376999999997
 21
39.430415000000011
 31
0.0
  0
LINE
  5
7C
  8
2
 10
90.483878999999988
 20
30.430415000000011
 30
0.0
 11
89.483879000000002
 21
29.430415000000011
 31
0.0
  0
LINE
  5
7D
  8
2
 10
96.400879000000003
 20
29.430415000000011
 30
0.0
 11
95.400879000000003
 21
30.430415000000011
 31
0.0
  0
LINE
  5
7E
  8
2
 10
89.942378999999988
 20
29.888915000000001
 30
0.0
 11
89.942378999999988
 21
35.230415000000001
 31
0.0
  0
LINE
  5
7F
  8
2
 10
90.483878999999988
 20
30.430415000000011
 30
0.0
 11
90.483878999999988
 21
36.255414999999999
 31
0.0
  0
LINE
  5
80
  8
2
 10
95.400879000000003
 20
30.430415000000011
 30
0.0
 11
95.400879000000003
 21
36.255414999999999
 31
0.0
  0
LINE
  5
81
  8
2
 10
95.942379000000017
 20
29.888915000000001
 30
0.0
 11
95.942378999999988
 21
35.230415000000001
 31
0.0
  0
LINE
  5
82
  8
0
 10
94.466377000000008
 20
37.906415000000003
 30
0.0
 11
95.990378000000007
 21
39.430415000000011
 31
0.0
  0
LINE
  5
83
  8
0
 10
95.990378000000007
 20
39.430415000000011
 30
0.0
 11
97.514376999999996
 21
37.906415000000003
 31
0.0
  0
LINE
  5
84
  8
0
 10
85.322378999999998
 20
37.906415000000003
 30
0.0
 11
86.846378999999999
 21
39.430415000000011
 31
0.0
  0
LINE
  5
85
  8
0
 10
92.942379000000003
 20
39.430415000000011
 30
0.0
 11
94.466379000000003
 21
37.906415000000003
 31
0.0
  0
LINE
  5
86
  8
0
 10
89.894379000000001
 20
39.430415000000011
 30
0.0
 11
91.418379000000002
 21
37.906415000000003
 31
0.0
  0
LINE
  5
87
  8
0
 10
91.418379000000002
 20
37.906415000000003
 30
0.0
 11
92.942379000000003
 21
39.430415000000011
 31
0.0
  0
LINE
  5
88
  8
0
 10
88.370379
 20
37.906415000000003
 30
0.0
 11
89.894379000000001
 21
39.430415000000011
 31
0.0
  0
LINE
  5
89
  8
0
 10
86.846378999999999
 20
39.430415000000011
 30
0.0
 11
88.370379
 21
37.906415000000003
 31
0.0
  0
LINE
  5
8A
  8
2
 10
85.004879000000017
 20
37.906415000000003
 30
0.0
 11
85.004879000000017
 21
36.255414999999999
 31
0.0
  0
LINE
  5
8B
  8
2
 10
100.879879
 20
37.906415000000003
 30
0.0
 11
100.879879
 21
36.255414999999999
 31
0.0
  0
LINE
  5
8C
  8
2
 10
100.879879
 20
36.255414999999999
 30
0.0
 11
85.004879000000017
 21
36.255414999999999
 31
0.0
  0
LINE
  5
8D
  8
0
 10
102.942379
 20
37.906415000000003
 30
0.0
 11
82.942379000000003
 21
37.906415000000003
 31
0.0
  0
LINE
  5
8E
  8
1
 10
92.942379000000003
 20
41.930415000000004
 30
0.0
 11
92.942379000000003
 21
26.930415
 31
0.0
  0
LINE
  5
8F
  8
0
 10
82.942379000000003
 20
37.906415000000003
 30
0.0
 11
82.942379000000003
 21
30.430415000000011
 31
0.0
  0
LINE
  5
90
  8
0
 10
102.942379
 20
37.906415000000003
 30
0.0
 11
102.942379
 21
30.430415000000011
 31
0.0
  0
LINE
  5
91
  8
0
 10
101.942379
 20
29.430415000000011
 30
0.0
 11
83.942379000000003
 21
29.430415000000011
 31
0.0
  0
LINE
  5
92
  8
0
 10
101.942379
 20
108.682722
 30
0.0
 11
83.942379000000003
 21
108.682722
 31
0.0
  0
LINE
  5
93
  8
0
 10
102.942379
 20
100.206722
 30
0.0
 11
102.942379
 21
107.682722
 31
0.0
  0
LINE
  5
94
  8
0
 10
82.942379000000003
 20
100.206722
 30
0.0
 11
82.942379000000003
 21
107.682722
 31
0.0
  0
LINE
  5
95
  8
1
 10
92.942379000000003
 20
96.182721999999984
 30
0.0
 11
92.942379000000003
 21
111.182722
 31
0.0
  0
LINE
  5
96
  8
0
 10
102.942379
 20
100.206722
 30
0.0
 11
82.942379000000003
 21
100.206722
 31
0.0
  0
LINE
  5
97
  8
2
 10
100.879879
 20
101.857722
 30
0.0
 11
85.004879000000017
 21
101.857722
 31
0.0
  0
LINE
  5
98
  8
2
 10
100.879879
 20
100.206722
 30
0.0
 11
100.879879
 21
101.857722
 31
0.0
  0
LINE
  5
99
  8
2
 10
85.004879000000017
 20
100.206722
 30
0.0
 11
85.004879000000017
 21
101.857722
 31
0.0
  0
LINE
  5
9A
  8
0
 10
86.846378999999999
 20
98.682721999999984
 30
0.0
 11
88.370379
 21
100.206722
 31
0.0
  0
LINE
  5
9B
  8
0
 10
88.370379
 20
100.206722
 30
0.0
 11
89.894379000000001
 21
98.682721999999984
 31
0.0
  0
LINE
  5
9C
  8
0
 10
91.418379000000002
 20
100.206722
 30
0.0
 11
92.942379000000003
 21
98.682721999999984
 31
0.0
  0
LINE
  5
9D
  8
0
 10
89.894379000000001
 20
98.682721999999984
 30
0.0
 11
91.418379000000002
 21
100.206722
 31
0.0
  0
LINE
  5
9E
  8
0
 10
92.942379000000003
 20
98.682721999999984
 30
0.0
 11
94.466379000000003
 21
100.206722
 31
0.0
  0
LINE
  5
9F
  8
0
 10
85.322378999999998
 20
100.206722
 30
0.0
 11
86.846378999999999
 21
98.682721999999984
 31
0.0
  0
LINE
  5
A0
  8
0
 10
95.990378000000007
 20
98.682721999999984
 30
0.0
 11
97.514376999999996
 21
100.206722
 31
0.0
  0
LINE
  5
A1
  8
0
 10
94.466377000000008
 20
100.206722
 30
0.0
 11
95.990378000000007
 21
98.682721999999984
 31
0.0
  0
LINE
  5
A2
  8
2
 10
95.942379000000017
 20
108.224222
 30
0.0
 11
95.942378999999988
 21
102.882722
 31
0.0
  0
LINE
  5
A3
  8
2
 10
95.400879000000003
 20
107.682722
 30
0.0
 11
95.400879000000003
 21
101.857722
 31
0.0
  0
LINE
  5
A4
  8
2
 10
90.483878999999988
 20
107.682722
 30
0.0
 11
90.483878999999988
 21
101.857722
 31
0.0
  0
LINE
  5
A5
  8
2
 10
89.942378999999988
 20
108.224222
 30
0.0
 11
89.942378999999988
 21
102.882722
 31
0.0
  0
LINE
  5
A6
  8
2
 10
96.400879000000003
 20
108.682722
 30
0.0
 11
95.400879000000003
 21
107.682722
 31
0.0
  0
LINE
  5
A7
  8
2
 10
90.483878999999988
 20
107.682722
 30
0.0
 11
89.483879000000002
 21
108.682722
 31
0.0
  0
LINE
  5
A8
  8
0
 10
97.514375999999999
 20
100.206722
 30
0.0
 11
99.038376999999997
 21
98.682721999999984
 31
0.0
  0
LINE
  5
A9
  8
0
 10
99.038376999999997
 20
98.682721999999984
 30
0.0
 11
100.562376
 21
100.206722
 31
0.0
  0
LINE
  5
AA
  8
0
 10
102.942379
 20
107.682722
 30
0.0
 11
82.942379000000003
 21
107.682722
 31
0.0
  0
LINE
  5
AB
  8
0
 10
102.942379
 20
107.682722
 30
0.0
 11
101.942379
 21
108.682722
 31
0.0
  0
LINE
  5
AC
  8
0
 10
83.942379000000003
 20
108.682722
 30
0.0
 11
82.942379000000003
 21
107.682722
 31
0.0
  0
LINE
  5
AD
  8
0
 10
96.861563000000004
 20
101.932722
 30
0.0
 11
96.861563000000004
 21
106.432722
 31
0.0
  0
LINE
  5
AE
  8
0
 10
89.023195999999999
 20
101.932722
 30
0.0
 11
89.023195999999999
 21
106.432722
 31
0.0
  0
LINE
  5
AF
  8
0
 10
89.023195999999999
 20
101.932722
 30
0.0
 11
96.861563000000004
 21
101.932722
 31
0.0
  0
LINE
  5
B0
  8
0
 10
89.023195999999999
 20
106.432722
 30
0.0
 11
96.861563000000004
 21
106.432722
 31
0.0
  0
LINE
  5
214
  8
2
 10
137.14237900000001
 20
72.056567999999984
 30
0.0
 11
137.14237900000001
 21
66.056567999999999
 31
0.0
  0
LINE
  5
217
  8
2
 10
95.942379000000017
 20
35.230415000000001
 30
0.0
 11
89.942378999999974
 21
35.230415000000008
 31
0.0
  0
LINE
  5
218
  8
2
 10
95.942378999999974
 20
102.882722
 30
0.0
 11
89.942378999999988
 21
102.882722
 31
0.0
  0
TEXT
  5
278
  8
0
 62
     3
 10
0.0
 20
0.0
 30
0.0
 40
5.0
  1
CT-200
  7
STANDARD1
  0
ENDSEC
  0
EOF
