  0
SECTION
  2
HEADER
  9
$ACADVER
  1
AC1009
  9
$INSBASE
 10
0.0
 20
0.0
 30
0.0
  9
$EXTMIN
 10
0.0
 20
-2.960436562073669
 30
0.0
  9
$EXTMAX
 10
102.5
 20
246.50000020861631
 30
0.0
  9
$LIMMIN
 10
0.0
 20
0.0
  9
$LIMMAX
 10
187.5
 20
135.0
  9
$ORTHOMODE
 70
     1
  9
$REGENMODE
 70
     1
  9
$FILLMODE
 70
     1
  9
$QTEXTMODE
 70
     0
  9
$MIRRTEXT
 70
     0
  9
$DRAGMODE
 70
     2
  9
$LTSCALE
 40
5.0
  9
$OSMODE
 70
    37
  9
$ATTMODE
 70
     1
  9
$TEXTSIZE
 40
4.0
  9
$TRACEWID
 40
0.05
  9
$TEXTSTYLE
  7
STANDARD
  9
$CLAYER
  8
0
  9
$CELTYPE
  6
BYLAYER
  9
$CECOLOR
 62
   256
  9
$DIMSCALE
 40
1.0
  9
$DIMASZ
 40
3.0
  9
$DIMEXO
 40
2.0
  9
$DIMDLI
 40
0.38
  9
$DIMRND
 40
0.0
  9
$DIMDLE
 40
0.0
  9
$DIMEXE
 40
2.0
  9
$DIMTP
 40
0.0
  9
$DIMTM
 40
0.0
  9
$DIMTXT
 40
3.2000000000000002
  9
$DIMCEN
 40
0.0
  9
$DIMTSZ
 40
0.0
  9
$DIMTOL
 70
     0
  9
$DIMLIM
 70
     0
  9
$DIMTIH
 70
     0
  9
$DIMTOH
 70
     0
  9
$DIMSE1
 70
     0
  9
$DIMSE2
 70
     0
  9
$DIMTAD
 70
     1
  9
$DIMZIN
 70
     8
  9
$DIMBLK
  1

  9
$DIMASO
 70
     0
  9
$DIMSHO
 70
     0
  9
$DIMPOST
  1

  9
$DIMAPOST
  1

  9
$DIMALT
 70
     0
  9
$DIMALTD
 70
     2
  9
$DIMALTF
 40
25.399999999999999
  9
$DIMLFAC
 40
1.0
  9
$DIMTOFL
 70
     1
  9
$DIMTVP
 40
1.6000000000000001
  9
$DIMTIX
 70
     0
  9
$DIMSOXD
 70
     0
  9
$DIMSAH
 70
     0
  9
$DIMBLK1
  1

  9
$DIMBLK2
  1

  9
$DIMSTYLE
  2
STANDARD
  9
$DIMCLRD
 70
     0
  9
$DIMCLRE
 70
     0
  9
$DIMCLRT
 70
     0
  9
$DIMTFAC
 40
1.0
  9
$DIMGAP
 40
0.5
  9
$LUNITS
 70
     2
  9
$LUPREC
 70
     1
  9
$SKETCHINC
 40
0.1
  9
$FILLETRAD
 40
0.0
  9
$AUNITS
 70
     0
  9
$AUPREC
 70
     1
  9
$MENU
  1
E:\r13\win\SUPPORT\ACAD
  9
$ELEVATION
 40
0.0
  9
$PELEVATION
 40
0.0
  9
$THICKNESS
 40
0.0
  9
$LIMCHECK
 70
     0
  9
$BLIPMODE
 70
     0
  9
$CHAMFERA
 40
1.1999999999999991
  9
$CHAMFERB
 40
1.1999999999999991
  9
$SKPOLY
 70
     0
  9
$TDCREATE
 40
2449933.4048958332
  9
$TDUPDATE
 40
2457711.4088924299
  9
$TDINDWG
 40
0.7033648611
  9
$TDUSRTIMER
 40
0.7033648611
  9
$USRTIMER
 70
     1
  9
$ANGBASE
 50
0.0
  9
$ANGDIR
 70
     0
  9
$PDMODE
 70
     0
  9
$PDSIZE
 40
0.0
  9
$PLINEWID
 40
0.0
  9
$COORDS
 70
     1
  9
$SPLFRAME
 70
     0
  9
$SPLINETYPE
 70
     6
  9
$SPLINESEGS
 70
     8
  9
$ATTDIA
 70
     0
  9
$ATTREQ
 70
     1
  9
$HANDLING
 70
     1
  9
$HANDSEED
  5
8DF4
  9
$SURFTAB1
 70
     6
  9
$SURFTAB2
 70
     6
  9
$SURFTYPE
 70
     6
  9
$SURFU
 70
     6
  9
$SURFV
 70
     6
  9
$UCSNAME
  2

  9
$UCSORG
 10
0.0
 20
0.0
 30
0.0
  9
$UCSXDIR
 10
1.0
 20
0.0
 30
0.0
  9
$UCSYDIR
 10
0.0
 20
1.0
 30
0.0
  9
$PUCSNAME
  2

  9
$PUCSORG
 10
0.0
 20
0.0
 30
0.0
  9
$PUCSXDIR
 10
1.0
 20
0.0
 30
0.0
  9
$PUCSYDIR
 10
0.0
 20
1.0
 30
0.0
  9
$USERI1
 70
     0
  9
$USERI2
 70
     1
  9
$USERI3
 70
     0
  9
$USERI4
 70
     0
  9
$USERI5
 70
     0
  9
$USERR1
 40
0.0
  9
$USERR2
 40
0.0
  9
$USERR3
 40
0.0
  9
$USERR4
 40
0.0
  9
$USERR5
 40
0.0
  9
$WORLDVIEW
 70
     1
  9
$SHADEDGE
 70
     3
  9
$SHADEDIF
 70
    70
  9
$TILEMODE
 70
     1
  9
$MAXACTVP
 70
    16
  9
$PLIMCHECK
 70
     0
  9
$PEXTMIN
 10
1.0000000000000000E+020
 20
1.0000000000000000E+020
 30
1.0000000000000000E+020
  9
$PEXTMAX
 10
-1.0000000000000000E+020
 20
-1.0000000000000000E+020
 30
-1.0000000000000000E+020
  9
$PLIMMIN
 10
0.0
 20
0.0
  9
$PLIMMAX
 10
12.0
 20
9.0
  9
$UNITMODE
 70
     0
  9
$VISRETAIN
 70
     0
  9
$PLINEGEN
 70
     0
  9
$PSLTSCALE
 70
     0
  0
ENDSEC
  0
SECTION
  2
TABLES
  0
TABLE
  2
VPORT
 70
     1
  0
VPORT
  2
*ACTIVE
 70
     0
 10
0.0
 20
0.0
 11
1.0
 21
1.0
 12
272.43945053469889
 22
150.0
 13
0.0
 23
0.0
 14
5.0
 24
5.0
 15
5.0
 25
5.0
 16
0.0
 26
0.0
 36
1.0
 17
0.0
 27
0.0
 37
0.0
 40
300.0391258879792
 41
1.816239316239316
 42
50.0
 43
0.0
 44
0.0
 50
0.0
 51
0.0
 71
     0
 72
   500
 73
     1
 74
     0
 75
     0
 76
     0
 77
     0
 78
     2
  0
ENDTAB
  0
TABLE
  2
LTYPE
 70
     3
  0
LTYPE
  2
CONTINUOUS
 70
     0
  3
Solid Line
 72
    65
 73
     0
 40
0.0
  0
LTYPE
  2
CENTER
 70
     0
  3
____ _ ____ _ ____ _ ____ _ ____ _ ____ _ ____
 72
    65
 73
     4
 40
2.0
 49
1.25
 49
-0.25
 49
0.25
 49
-0.25
  0
LTYPE
  2
PHANTOM2
 70
     0
  3
___ _ _ ___ _ _ ___ _ _ ___ _ _
 72
    65
 73
     6
 40
1.25
 49
0.625
 49
-0.125
 49
0.125
 49
-0.125
 49
0.125
 49
-0.125
  0
ENDTAB
  0
TABLE
  2
LAYER
 70
     4
  0
LAYER
  2
0
 70
     0
 62
     7
  6
CONTINUOUS
  0
LAYER
  2
1
 70
     0
 62
     1
  6
CENTER
  0
LAYER
  2
DEFPOINTS
 70
     0
 62
     7
  6
CONTINUOUS
  0
LAYER
  2
3
 70
     0
 62
     3
  6
CONTINUOUS
  0
ENDTAB
  0
TABLE
  2
STYLE
 70
     2
  0
STYLE
  2
STANDARD
 70
     0
 40
0.0
 41
1.0
 50
0.0
 71
     0
 42
4.0
  3
SIMPLEX
  4
BIGFONT
  0
STYLE
  2
STANDARD1
 70
     0
 40
0.0
 41
1.0
 50
0.0
 71
     0
 42
3.0
  3
txt
  4

  0
ENDTAB
  0
TABLE
  2
VIEW
 70
     1
  0
VIEW
  2
ALL
 70
     0
 40
175.0
 10
143.1020066889632
 20
87.5
 41
286.2040133779264
 11
0.0
 21
0.0
 31
1.0
 12
0.0
 22
0.0
 32
0.0
 42
50.0
 43
0.0
 44
0.0
 50
0.0
 71
     0
  0
ENDTAB
  0
TABLE
  2
UCS
 70
     0
  0
ENDTAB
  0
TABLE
  2
APPID
 70
     7
  0
APPID
  2
ACAD
 70
     0
  0
APPID
  2
ACAD_DSTYLE_DIMJAG
 70
     0
  0
APPID
  2
ACAD_DSTYLE_DIMTALN
 70
     0
  0
APPID
  2
ACAD_EXEMPT_FROM_CAD_STANDARDS
 70
     0
  0
APPID
  2
ACAD_DSTYLE_DIMRADIAL_EXTENSION
 70
     0
  0
APPID
  2
ACAD_MLEADERVER
 70
     0
  0
APPID
  2
ACAD_NAV_VCDISPLAY
 70
     0
  0
ENDTAB
  0
TABLE
  2
DIMSTYLE
 70
     1
  0
DIMSTYLE
  2
STANDARD
 70
     0
  3

  4

  5

  6

  7

 40
1.0
 41
0.18
 42
0.0625
 43
0.38
 44
0.18
 45
0.0
 46
0.0
 47
0.0
 48
0.0
140
0.18
141
0.09
142
0.0
143
25.399999999999999
144
1.0
145
0.0
146
1.0
147
0.09
 71
     0
 72
     0
 73
     1
 74
     1
 75
     0
 76
     0
 77
     0
 78
     0
170
     0
171
     2
172
     0
173
     0
174
     0
175
     0
176
     0
177
     0
178
     0
  0
ENDTAB
  0
ENDSEC
  0
SECTION
  2
BLOCKS
  0
BLOCK
  8
0
  2
$MODEL_SPACE
 70
     0
 10
0.0
 20
0.0
 30
0.0
  3
$MODEL_SPACE
  1

  0
ENDBLK
  5
8A
  8
0
  0
BLOCK
 67
     1
  8
0
  2
$PAPER_SPACE
 70
     0
 10
0.0
 20
0.0
 30
0.0
  3
$PAPER_SPACE
  1

  0
ENDBLK
  5
88
 67
     1
  8
0
  0
ENDSEC
  0
SECTION
  2
ENTITIES
  0
LINE
  5
7255
  8
0
 10
97.499999850988516
 20
134.00000018998981
 30
0.0
 11
97.499999850988516
 21
147.99999922513959
 31
0.0
  0
LINE
  5
7256
  8
0
 10
42.500000149011719
 20
147.99999922513959
 30
0.0
 11
42.500000149011719
 21
134.00000018998981
 31
0.0
  0
LINE
  5
7257
  8
0
 10
97.400000020861754
 20
130.5000000237487
 30
0.0
 11
97.400000020861754
 21
134.00000018998981
 31
0.0
  0
LINE
  5
7258
  8
0
 10
42.599999979138481
 20
134.00000018998981
 30
0.0
 11
42.599999979138481
 21
130.5000000237487
 31
0.0
  0
LINE
  5
7259
  8
0
 10
42.599999979138481
 20
130.5000000237487
 30
0.0
 11
43.0999991297723
 21
130.0
 31
0.0
  0
LINE
  5
725A
  8
0
 10
96.900000870227927
 20
130.0
 30
0.0
 11
97.400000020861754
 21
130.5000000237487
 31
0.0
  0
LINE
  5
725B
  8
0
 10
42.500000149011719
 20
147.99999922513959
 30
0.0
 11
42.91333414614212
 21
147.99999922513959
 31
0.0
  0
LINE
  5
725C
  8
0
 10
42.91333414614212
 20
147.99999922513959
 30
0.0
 11
42.91333414614212
 21
153.4999991953373
 31
0.0
  0
LINE
  5
725E
  8
0
 10
65.250000152737016
 20
147.99999922513959
 30
0.0
 11
65.250000152736902
 21
154.0000002086162
 31
0.0
  0
LINE
  5
725F
  8
0
 10
74.749999847263211
 20
147.99999922513959
 30
0.0
 11
74.749999847263084
 21
154.0000002086162
 31
0.0
  0
LINE
  5
7261
  8
0
 10
97.086665853858108
 20
147.99999922513959
 30
0.0
 11
97.086665853858108
 21
153.4999991953373
 31
0.0
  0
LINE
  5
7262
  8
0
 10
97.086665853858108
 20
147.99999922513959
 30
0.0
 11
97.499999850988516
 21
147.99999922513959
 31
0.0
  0
LINE
  5
7263
  8
0
 10
97.499999850988516
 20
134.00000018998981
 30
0.0
 11
42.500000149011719
 21
134.00000018998981
 31
0.0
  0
LINE
  5
7264
  8
0
 10
65.250000152737016
 20
147.99999922513959
 30
0.0
 11
74.749999847263211
 21
147.99999922513959
 31
0.0
  0
LINE
  5
7265
  8
0
 10
42.599999979138481
 20
130.5000000237487
 30
0.0
 11
97.400000020861754
 21
130.5000000237487
 31
0.0
  0
LINE
  5
7266
  8
0
 10
96.900000870227927
 20
130.0
 30
0.0
 11
43.0999991297723
 21
130.0
 31
0.0
  0
LINE
  5
7267
  8
0
 10
42.91333414614212
 20
153.4999991953373
 30
0.0
 11
43.51533547043811
 21
154.0000002086162
 31
0.0
  0
LINE
  5
7268
  8
0
 10
43.51533547043811
 20
154.0000002086162
 30
0.0
 11
96.484664529562224
 21
154.0000002086162
 31
0.0
  0
LINE
  5
726C
  8
0
 10
96.484664529562124
 20
154.0000002086162
 30
0.0
 11
97.086665853858108
 21
153.4999991953373
 31
0.0
  0
ARC
  5
7274
  8
0
 10
70.0
 20
214.0000002086162
 30
0.0
 40
15.300000000000001
 50
185.0
 51
174.99999967955699
  0
CIRCLE
  5
7277
  8
0
 10
70.0
 20
214.0000002086162
 30
0.0
 40
14.699999999999999
  0
CIRCLE
  5
727A
  8
0
 10
70.0
 20
214.0000002086162
 30
0.0
 40
11.833833883331589
  0
CIRCLE
  5
727B
  8
0
 10
70.0
 20
214.0000002086162
 30
0.0
 40
8.7000000000000028
  0
LINE
  5
7281
  8
0
 10
65.250000152736902
 20
241.08666606247419
 30
0.0
 11
65.250000152736902
 21
236.5000011026859
 31
0.0
  0
LINE
  5
729A
  8
0
 10
74.749999847263084
 20
236.5000011026859
 30
0.0
 11
74.749999847263084
 21
241.08666606247419
 31
0.0
  0
ARC
  5
729B
  8
0
 10
69.999999999999773
 20
236.5000002086162
 30
0.0
 40
4.7500000000000142
 50
180.0
 51
0.0
  0
CIRCLE
  5
729C
  8
0
 10
85.379572490807377
 20
229.37957269942359
 30
0.0
 40
3.5
  0
CIRCLE
  5
729D
  8
0
 10
70.0
 20
214.0000002086162
 30
0.0
 40
16.000000000000011
  0
ARC
  5
729E
  8
0
 10
92.5
 20
214.0000002086164
 30
0.0
 40
4.7500000000000284
 50
90.0
 51
270.0
  0
LINE
  5
72A2
  8
0
 10
47.499999105930321
 20
218.7500000558793
 30
0.0
 11
42.913334146141999
 21
218.7500000558793
 31
0.0
  0
LINE
  5
72A3
  8
0
 10
97.086665853857994
 20
218.7500000558793
 30
0.0
 11
92.500000894069672
 21
218.7500000558793
 31
0.0
  0
ARC
  5
72A5
  8
0
 10
47.5
 20
214.0000002086162
 30
0.0
 40
4.75
 50
270.0
 51
90.0
  0
LINE
  5
72A9
  8
0
 10
42.913334146141999
 20
209.2500003613531
 30
0.0
 11
47.499999105930321
 21
209.2500003613531
 31
0.0
  0
LINE
  5
72AA
  8
0
 10
92.500000894069672
 20
209.2500003613531
 30
0.0
 11
97.086665853857994
 21
209.2500003613531
 31
0.0
  0
CIRCLE
  5
72AE
  8
0
 10
54.620427509192609
 20
198.62042771780881
 30
0.0
 40
3.5
  0
ARC
  5
72AF
  8
0
 10
70.000000000000114
 20
191.50000020861609
 30
0.0
 40
4.7500000000000142
 50
0.0
 51
180.0
  0
LINE
  5
72B2
  8
0
 10
65.250000152736902
 20
191.4999993145465
 30
0.0
 11
65.250000152736902
 21
186.91333435475821
 31
0.0
  0
LINE
  5
72B3
  8
0
 10
74.749999847263084
 20
186.91333435475821
 30
0.0
 11
74.749999847263084
 21
191.4999993145465
 31
0.0
  0
CIRCLE
  5
72B6
  8
0
 10
69.999999999999773
 20
236.5000002086162
 30
0.0
 40
2.7499999999999849
  0
CIRCLE
  5
72BB
  8
0
 10
47.5
 20
214.0000002086162
 30
0.0
 40
2.75
  0
CIRCLE
  5
72BC
  8
0
 10
92.5
 20
214.0000002086164
 30
0.0
 40
2.75
  0
CIRCLE
  5
72BF
  8
0
 10
70.000000000000114
 20
191.5000002086162
 30
0.0
 40
2.75
  0
CIRCLE
  5
72C2
  8
0
 10
70.0
 20
214.0000002086162
 30
0.0
 40
8.0
  0
CIRCLE
  5
72DA
  8
0
 10
70.0
 20
70.0
 30
0.0
 40
27.399999999999991
  0
CIRCLE
  5
72E2
  8
0
 10
69.999999999999773
 20
47.5
 30
0.0
 40
2.75
  0
CIRCLE
  5
72E4
  8
0
 10
70.0
 20
70.0
 30
0.0
 40
11.47223195752167
  0
CIRCLE
  5
72E5
  8
0
 10
47.5
 20
70.0
 30
0.0
 40
2.75
  0
CIRCLE
  5
72E6
  8
0
 10
92.5
 20
69.999999999999886
 30
0.0
 40
2.75
  0
CIRCLE
  5
72E8
  8
0
 10
70.000000000000114
 20
92.5
 30
0.0
 40
2.7500000000000142
  0
CIRCLE
  5
72EA
  8
0
 10
70.0
 20
70.0
 30
0.0
 40
27.5
  0
CIRCLE
  5
72EB
  8
0
 10
70.0
 20
70.0
 30
0.0
 40
8.0000000000000142
  0
LINE
  5
8880
  8
1
 10
70.000000000000114
 20
159.0000002086162
 30
0.0
 11
70.000000000000114
 21
125.0
 31
0.0
  0
CIRCLE
  5
888A
  8
3
 10
54.620427509192609
 20
85.379572490807377
 30
0.0
 40
3.0
  0
CIRCLE
  5
888B
  8
0
 10
54.620427509192609
 20
85.379572490807377
 30
0.0
 40
2.458499999999999
  0
CIRCLE
  5
888C
  8
3
 10
85.379572490807377
 20
54.620427509192631
 30
0.0
 40
3.0
  0
CIRCLE
  5
888D
  8
0
 10
85.379572490807377
 20
54.620427509192631
 30
0.0
 40
2.458499999999999
  0
LINE
  5
888E
  8
1
 10
70.0
 20
102.5
 30
0.0
 11
70.0
 21
37.5
 31
0.0
  0
LINE
  5
888F
  8
1
 10
102.5
 20
70.0
 30
0.0
 11
37.5
 21
70.0
 31
0.0
  0
CIRCLE
  5
8891
  8
1
 10
70.0
 20
70.0
 30
0.0
 40
22.5
  0
LINE
  5
8892
  8
1
 10
51.084893603259843
 20
88.915106396740157
 30
0.0
 11
58.155961415125368
 21
81.844038584874696
 31
0.0
  0
LINE
  5
8895
  8
1
 10
81.844038584874625
 20
58.155961415125368
 30
0.0
 11
88.915106396740271
 21
51.084893603260007
 31
0.0
  0
CIRCLE
  5
88DD
  8
0
 10
70.0
 20
214.0000002086162
 30
0.0
 40
27.5
  0
LINE
  5
890A
  8
0
 10
54.758221544325352
 20
215.3334831213578
 30
0.0
 11
54.060885384678841
 21
215.39449208416039
 31
0.0
  0
LINE
  5
890B
  8
0
 10
54.758221544325352
 20
212.6665172958746
 30
0.0
 11
54.060885384678841
 21
212.60550833307201
 31
0.0
  0
CIRCLE
  5
8952
  8
3
 10
54.620427509192609
 20
198.62042771780881
 30
0.0
 40
3.0
  0
CIRCLE
  5
8953
  8
0
 10
54.620427509192609
 20
198.62042771780881
 30
0.0
 40
2.458499999999999
  0
CIRCLE
  5
8954
  8
3
 10
85.379572490807377
 20
229.37957269942359
 30
0.0
 40
3.0
  0
CIRCLE
  5
8955
  8
0
 10
85.379572490807377
 20
229.37957269942359
 30
0.0
 40
2.458499999999999
  0
LINE
  5
8956
  8
1
 10
70.0
 20
246.50000020861631
 30
0.0
 11
70.0
 21
181.5000002086162
 31
0.0
  0
LINE
  5
8957
  8
1
 10
102.5
 20
214.0000002086162
 30
0.0
 11
37.5
 21
214.0000002086162
 31
0.0
  0
LINE
  5
899C
  8
1
 10
88.915106396740157
 20
232.9151066053563
 30
0.0
 11
81.844038584874625
 21
225.8440387934908
 31
0.0
  0
LINE
  5
899F
  8
1
 10
58.155961415125368
 20
202.15596162374149
 30
0.0
 11
51.084893603259957
 21
195.08489381187599
 31
0.0
  0
CIRCLE
  5
89A0
  8
1
 10
70.0
 20
214.0000002086162
 30
0.0
 40
22.5
  0
TEXT
  5
89AB
  8
0
 62
     3
 10
0.0
 20
0.0
 30
0.0
 40
10.0
  1
CP735-1656L
  7
STANDARD1
  0
CIRCLE
  5
8B9A
  8
1
 10
70.0
 20
214.0000002086162
 30
0.0
 40
21.749999999999979
  0
CIRCLE
  5
8B9D
  8
1
 10
70.0
 20
70.0
 30
0.0
 40
21.749999999999979
  0
ENDSEC
  0
EOF
