  0
SECTION
  2
HEADER
  9
$ACADVER
  1
AC1009
  9
$INSBASE
 10
0.0
 20
0.0
 30
0.0
  9
$EXTMIN
 10
0.0
 20
-1.4802182810368341
 30
0.0
  9
$EXTMAX
 10
119.0
 20
70.750000000000085
 30
0.0
  9
$LIMMIN
 10
0.0
 20
0.0
  9
$LIMMAX
 10
12.0
 20
9.0
  9
$ORTHOMODE
 70
     1
  9
$REGENMODE
 70
     1
  9
$FILLMODE
 70
     1
  9
$QTEXTMODE
 70
     0
  9
$MIRRTEXT
 70
     0
  9
$DRAGMODE
 70
     2
  9
$LTSCALE
 40
5.0
  9
$OSMODE
 70
    37
  9
$ATTMODE
 70
     1
  9
$TEXTSIZE
 40
0.2
  9
$TRACEWID
 40
0.05
  9
$TEXTSTYLE
  7
STANDARD
  9
$CLAYER
  8
0
  9
$CELTYPE
  6
BYLAYER
  9
$CECOLOR
 62
   256
  9
$DIMSCALE
 40
1.0
  9
$DIMASZ
 40
0.18
  9
$DIMEXO
 40
0.0625
  9
$DIMDLI
 40
0.38
  9
$DIMRND
 40
0.0
  9
$DIMDLE
 40
0.0
  9
$DIMEXE
 40
0.18
  9
$DIMTP
 40
0.0
  9
$DIMTM
 40
0.0
  9
$DIMTXT
 40
2.6000000000000001
  9
$DIMCEN
 40
0.09
  9
$DIMTSZ
 40
0.0
  9
$DIMTOL
 70
     0
  9
$DIMLIM
 70
     0
  9
$DIMTIH
 70
     0
  9
$DIMTOH
 70
     0
  9
$DIMSE1
 70
     0
  9
$DIMSE2
 70
     0
  9
$DIMTAD
 70
     1
  9
$DIMZIN
 70
     8
  9
$DIMBLK
  1

  9
$DIMASO
 70
     1
  9
$DIMSHO
 70
     1
  9
$DIMPOST
  1

  9
$DIMAPOST
  1

  9
$DIMALT
 70
     0
  9
$DIMALTD
 70
     2
  9
$DIMALTF
 40
25.399999999999999
  9
$DIMLFAC
 40
1.0
  9
$DIMTOFL
 70
     0
  9
$DIMTVP
 40
0.0
  9
$DIMTIX
 70
     0
  9
$DIMSOXD
 70
     0
  9
$DIMSAH
 70
     0
  9
$DIMBLK1
  1

  9
$DIMBLK2
  1

  9
$DIMSTYLE
  2
STANDARD
  9
$DIMCLRD
 70
     0
  9
$DIMCLRE
 70
     0
  9
$DIMCLRT
 70
     0
  9
$DIMTFAC
 40
1.0
  9
$DIMGAP
 40
0.09
  9
$LUNITS
 70
     2
  9
$LUPREC
 70
     4
  9
$SKETCHINC
 40
0.1
  9
$FILLETRAD
 40
0.0
  9
$AUNITS
 70
     0
  9
$AUPREC
 70
     0
  9
$MENU
  1
.
  9
$ELEVATION
 40
0.0
  9
$PELEVATION
 40
0.0
  9
$THICKNESS
 40
0.0
  9
$LIMCHECK
 70
     0
  9
$BLIPMODE
 70
     0
  9
$CHAMFERA
 40
0.0
  9
$CHAMFERB
 40
0.0
  9
$SKPOLY
 70
     0
  9
$TDCREATE
 40
2453083.4120647679
  9
$TDUPDATE
 40
2457872.4981047688
  9
$TDINDWG
 40
0.7173485764000001
  9
$TDUSRTIMER
 40
0.7173484606
  9
$USRTIMER
 70
     1
  9
$ANGBASE
 50
0.0
  9
$ANGDIR
 70
     0
  9
$PDMODE
 70
     0
  9
$PDSIZE
 40
0.0
  9
$PLINEWID
 40
0.0
  9
$COORDS
 70
     1
  9
$SPLFRAME
 70
     0
  9
$SPLINETYPE
 70
     6
  9
$SPLINESEGS
 70
     8
  9
$ATTDIA
 70
     0
  9
$ATTREQ
 70
     1
  9
$HANDLING
 70
     1
  9
$HANDSEED
  5
7848
  9
$SURFTAB1
 70
     6
  9
$SURFTAB2
 70
     6
  9
$SURFTYPE
 70
     6
  9
$SURFU
 70
     6
  9
$SURFV
 70
     6
  9
$UCSNAME
  2

  9
$UCSORG
 10
0.0
 20
0.0
 30
0.0
  9
$UCSXDIR
 10
1.0
 20
0.0
 30
0.0
  9
$UCSYDIR
 10
0.0
 20
1.0
 30
0.0
  9
$PUCSNAME
  2

  9
$PUCSORG
 10
0.0
 20
0.0
 30
0.0
  9
$PUCSXDIR
 10
1.0
 20
0.0
 30
0.0
  9
$PUCSYDIR
 10
0.0
 20
1.0
 30
0.0
  9
$USERI1
 70
     0
  9
$USERI2
 70
     1
  9
$USERI3
 70
     0
  9
$USERI4
 70
     0
  9
$USERI5
 70
     0
  9
$USERR1
 40
0.0
  9
$USERR2
 40
0.0
  9
$USERR3
 40
0.0
  9
$USERR4
 40
0.0
  9
$USERR5
 40
0.0
  9
$WORLDVIEW
 70
     1
  9
$SHADEDGE
 70
     3
  9
$SHADEDIF
 70
    70
  9
$TILEMODE
 70
     1
  9
$MAXACTVP
 70
    64
  9
$PLIMCHECK
 70
     0
  9
$PEXTMIN
 10
0.0
 20
0.0
 30
0.0
  9
$PEXTMAX
 10
0.0
 20
0.0
 30
0.0
  9
$PLIMMIN
 10
0.0
 20
0.0
  9
$PLIMMAX
 10
12.0
 20
9.0
  9
$UNITMODE
 70
     0
  9
$VISRETAIN
 70
     1
  9
$PLINEGEN
 70
     0
  9
$PSLTSCALE
 70
     1
  0
ENDSEC
  0
SECTION
  2
TABLES
  0
TABLE
  2
VPORT
 70
     1
  0
VPORT
  2
*ACTIVE
 70
     0
 10
0.0
 20
0.0
 11
1.0
 21
1.0
 12
116.7032784764568
 22
34.634891027655733
 13
0.0
 23
0.0
 14
0.5
 24
0.5
 15
0.5
 25
0.5
 16
0.0
 26
0.0
 36
1.0
 17
0.0
 27
0.0
 37
0.0
 40
90.008460911748585
 41
2.6019575856443709
 42
50.0
 43
0.0
 44
0.0
 50
0.0
 51
0.0
 71
     0
 72
  1000
 73
     1
 74
     2
 75
     0
 76
     0
 77
     0
 78
     0
  0
ENDTAB
  0
TABLE
  2
LTYPE
 70
     4
  0
LTYPE
  2
CONTINUOUS
 70
     0
  3
Solid Line
 72
    65
 73
     0
 40
0.0
  0
LTYPE
  2
CENTER
 70
     0
  3
____ _ ____ _ ____ _ ____ _ ____ _ ____ _ ____
 72
    65
 73
     4
 40
2.0
 49
1.25
 49
-0.25
 49
0.25
 49
-0.25
  0
LTYPE
  2
PHANTOM2
 70
     0
  3
___ _ _ ___ _ _ ___ _ _ ___ _ _
 72
    65
 73
     6
 40
1.25
 49
0.625
 49
-0.125
 49
0.125
 49
-0.125
 49
0.125
 49
-0.125
  0
LTYPE
  2
HIDDEN
 70
     0
  3
__ __ __ __ __ __ __ __ __ __ __ __ __ __ __ __
 72
    65
 73
     2
 40
0.375
 49
0.25
 49
-0.125
  0
ENDTAB
  0
TABLE
  2
LAYER
 70
     4
  0
LAYER
  2
0
 70
     0
 62
     7
  6
CONTINUOUS
  0
LAYER
  2
1
 70
     0
 62
     1
  6
CENTER
  0
LAYER
  2
DEFPOINTS
 70
     0
 62
     7
  6
CONTINUOUS
  0
LAYER
  2
2
 70
     0
 62
     2
  6
HIDDEN
  0
ENDTAB
  0
TABLE
  2
STYLE
 70
     2
  0
STYLE
  2
STANDARD
 70
     0
 40
0.0
 41
1.0
 50
0.0
 71
     0
 42
0.2
  3
simplex.shx
  4
bigfont.shx
  0
STYLE
  2
STANDARD1
 70
     0
 40
0.0
 41
1.0
 50
0.0
 71
     0
 42
3.0
  3
txt
  4

  0
ENDTAB
  0
TABLE
  2
VIEW
 70
     0
  0
ENDTAB
  0
TABLE
  2
UCS
 70
     0
  0
ENDTAB
  0
TABLE
  2
APPID
 70
     5
  0
APPID
  2
ACAD
 70
     0
  0
APPID
  2
ACAD_MLEADERVER
 70
     0
  0
APPID
  2
ACAD_NAV_VCDISPLAY
 70
     0
  0
APPID
  2
ACAD_EXEMPT_FROM_CAD_STANDARDS
 70
     0
  0
APPID
  2
ACAD_DSTYLE_DIMRADIAL_EXTENSION
 70
     0
  0
ENDTAB
  0
TABLE
  2
DIMSTYLE
 70
     1
  0
DIMSTYLE
  2
STANDARD
 70
     0
  3

  4

  5

  6

  7

 40
1.0
 41
0.18
 42
0.0625
 43
0.38
 44
0.18
 45
0.0
 46
0.0
 47
0.0
 48
0.0
140
2.6000000000000001
141
0.09
142
0.0
143
25.399999999999999
144
1.0
145
0.0
146
1.0
147
0.09
 71
     0
 72
     0
 73
     0
 74
     0
 75
     0
 76
     0
 77
     1
 78
     8
170
     0
171
     2
172
     0
173
     0
174
     0
175
     0
176
     0
177
     0
178
     0
  0
ENDTAB
  0
ENDSEC
  0
SECTION
  2
BLOCKS
  0
BLOCK
  8
0
  2
$MODEL_SPACE
 70
     0
 10
0.0
 20
0.0
 30
0.0
  3
$MODEL_SPACE
  1

  0
ENDBLK
  5
21
  8
0
  0
BLOCK
 67
     1
  8
0
  2
$PAPER_SPACE
 70
     0
 10
0.0
 20
0.0
 30
0.0
  3
$PAPER_SPACE
  1

  0
ENDBLK
  5
5B
 67
     1
  8
0
  0
ENDSEC
  0
SECTION
  2
ENTITIES
  0
TEXT
  5
1F01
  8
0
 62
     3
 10
0.0
 20
0.0
 30
0.0
 40
5.0
  1
CP157-16001L
  7
STANDARD1
  0
LINE
  5
76E3
  8
0
 10
42.699999999999918
 20
65.750000000583682
 30
0.0
 11
42.499999999999929
 21
65.550000000583665
 31
0.0
  0
LINE
  5
76E4
  8
0
 10
42.50000000000005
 20
34.450000000583671
 30
0.0
 11
42.700000000000038
 21
34.250000000583682
 31
0.0
  0
LINE
  5
76E5
  8
0
 10
43.371853610960173
 20
65.750000000583682
 30
0.0
 11
42.699999999999918
 21
65.750000000583682
 31
0.0
  0
LINE
  5
76E6
  8
0
 10
42.700000000000038
 20
34.250000000583682
 30
0.0
 11
43.371853610960308
 21
34.250000000583682
 31
0.0
  0
LINE
  5
76E7
  8
0
 10
43.371853610960308
 20
34.250000000583682
 30
0.0
 11
50.326912067451019
 21
36.244330920665142
 31
0.0
  0
LINE
  5
76E8
  8
0
 10
50.326912067450913
 20
63.755669080502273
 30
0.0
 11
43.371853610960173
 21
65.750000000583682
 31
0.0
  0
ARC
  5
76E9
  8
0
 10
49.499999999999957
 20
60.871883992687302
 30
0.0
 40
3.0
 50
0.0
 51
74.000000000000114
  0
ARC
  5
76EA
  8
0
 10
49.500000000000021
 20
39.128116008480092
 30
0.0
 40
3.0000000000000142
 50
286.00000000000131
 51
0.0
  0
POLYLINE
  5
76EB
  8
0
 66
     1
 10
0.0
 20
0.0
 30
0.0
 70
   128
  0
VERTEX
  5
7840
  8
0
 10
42.49999999999995
 20
60.712701665962939
 30
0.0
  0
VERTEX
  5
7841
  8
0
 10
42.478036128806401
 20
60.707685888422382
 30
0.0
  0
VERTEX
  5
7842
  8
0
 10
42.399999999999949
 20
60.700000000583671
 30
0.0
  0
SEQEND
  5
7843
  8
0
  0
POLYLINE
  5
76EC
  8
0
 66
     1
 10
0.0
 20
0.0
 30
0.0
 70
   128
  0
VERTEX
  5
7844
  8
0
 10
42.40000000000002
 20
39.30000000058368
 30
0.0
  0
VERTEX
  5
7845
  8
0
 10
42.47803612880648
 20
39.292314112744982
 30
0.0
  0
VERTEX
  5
7846
  8
0
 10
42.500000000000028
 20
39.287298335204419
 30
0.0
  0
SEQEND
  5
7847
  8
0
  0
LINE
  5
76ED
  8
0
 10
36.499999999999979
 20
61.000000000583647
 30
0.0
 11
34.999999999999957
 21
60.133974596799213
 31
0.0
  0
LINE
  5
76EE
  8
0
 10
35.000000000000028
 20
39.866025404368102
 30
0.0
 11
36.50000000000005
 21
39.000000000583661
 31
0.0
  0
LINE
  5
76EF
  8
0
 10
41.49999999999995
 20
61.000000000583668
 30
0.0
 11
36.499999999999979
 21
61.000000000583647
 31
0.0
  0
LINE
  5
76F0
  8
0
 10
36.50000000000005
 20
39.000000000583661
 30
0.0
 11
41.500000000000028
 21
39.000000000583668
 31
0.0
  0
LINE
  5
76F1
  8
0
 10
41.500000000000028
 20
39.000000000583668
 30
0.0
 11
41.800000000000033
 21
39.30000000058368
 31
0.0
  0
LINE
  5
76F2
  8
0
 10
41.799999999999962
 20
60.700000000583671
 30
0.0
 11
41.49999999999995
 21
61.000000000583668
 31
0.0
  0
LINE
  5
76F3
  8
0
 10
42.399999999999949
 20
60.700000000583671
 30
0.0
 11
41.799999999999962
 21
60.700000000583671
 31
0.0
  0
LINE
  5
76F4
  8
0
 10
41.800000000000033
 20
39.30000000058368
 30
0.0
 11
42.40000000000002
 21
39.30000000058368
 31
0.0
  0
LINE
  5
76F5
  8
0
 10
42.699999999999918
 20
65.750000000583682
 30
0.0
 11
42.700000000000038
 21
34.250000000583682
 31
0.0
  0
LINE
  5
76F6
  8
0
 10
42.50000000000005
 20
34.450000000583671
 30
0.0
 11
42.499999999999929
 21
65.550000000583665
 31
0.0
  0
LINE
  5
76F7
  8
0
 10
43.371853610960173
 20
65.750000000583682
 30
0.0
 11
43.371853610960308
 21
34.250000000583682
 31
0.0
  0
LINE
  5
76F8
  8
0
 10
52.49999999999995
 20
60.871883991520058
 30
0.0
 11
52.500000000000028
 21
39.128116008480113
 31
0.0
  0
LINE
  5
76F9
  8
0
 10
36.499999999999979
 20
61.000000000583647
 30
0.0
 11
36.50000000000005
 21
39.000000000583661
 31
0.0
  0
LINE
  5
76FA
  8
0
 10
35.000000000000028
 20
39.866025404368102
 30
0.0
 11
34.999999999999957
 21
60.133974596799213
 31
0.0
  0
LINE
  5
76FB
  8
0
 10
41.49999999999995
 20
61.000000000583668
 30
0.0
 11
41.500000000000028
 21
39.000000000583668
 31
0.0
  0
LINE
  5
76FC
  8
0
 10
41.799999999999962
 20
60.700000000583671
 30
0.0
 11
41.800000000000033
 21
39.30000000058368
 31
0.0
  0
LINE
  5
76FD
  8
0
 10
50.326912067451019
 20
36.244330920665142
 30
0.0
 11
50.326912067450913
 21
63.755669080502209
 31
0.0
  0
LINE
  5
76FF
  8
2
 10
42.79999999999994
 20
61.200000000583671
 30
0.0
 11
42.79999999999994
 21
61.10000000058367
 31
0.0
  0
LINE
  5
7704
  8
2
 10
42.500000000000028
 20
38.500000000583682
 30
0.0
 11
42.800000000000033
 21
38.80000000058368
 31
0.0
  0
LINE
  5
7705
  8
2
 10
42.79999999999994
 20
61.200000000583671
 30
0.0
 11
42.49999999999995
 21
61.500000000583668
 31
0.0
  0
ARC
  5
7706
  8
2
 10
42.399999999999949
 20
61.10000000058367
 30
0.0
 40
0.3999999999999948
 50
284.47751218592992
 51
0.0
  0
ARC
  5
7707
  8
2
 10
42.40000000000002
 20
38.900000000583681
 30
0.0
 40
0.4000000000000121
 50
0.0
 51
75.522487814070246
  0
CIRCLE
  5
7714
  8
0
 10
98.250000000000014
 20
50.000000000000128
 30
0.0
 40
9.0
  0
CIRCLE
  5
7715
  8
0
 10
98.250000000000014
 20
50.000000000000128
 30
0.0
 40
7.0000002161000552
  0
CIRCLE
  5
7716
  8
0
 10
98.250000000000014
 20
50.000000000000099
 30
0.0
 40
15.75
  0
CIRCLE
  5
7717
  8
0
 10
98.250000000000014
 20
50.000000000000128
 30
0.0
 40
10.8718839921036
  0
CIRCLE
  5
7718
  8
0
 10
98.250000000000014
 20
50.000000000000128
 30
0.0
 40
13.755669079918571
  0
LINE
  5
7719
  8
2
 10
42.800000000000018
 20
38.900000000583681
 30
0.0
 11
42.800000000000033
 21
38.80000000058368
 31
0.0
  0
LINE
  5
771C
  8
1
 10
57.5
 20
50.000000000000099
 30
0.0
 11
30.0
 21
50.0
 31
0.0
  0
LINE
  5
7721
  8
1
 10
77.5
 20
50.000000000000099
 30
0.0
 11
119.0
 21
50.000000000000099
 31
0.0
  0
LINE
  5
7726
  8
1
 10
98.250000000000014
 20
70.750000000000085
 30
0.0
 11
98.250000000000014
 21
29.250000000000099
 31
0.0
  0
LINE
  5
77A1
  8
2
 10
35.000000391199983
 20
41.000000387400092
 30
0.0
 11
37.000000253400003
 21
42.999999783900073
 31
0.0
  0
LINE
  5
77A2
  8
2
 10
37.000000253400003
 20
42.999999783900073
 30
0.0
 11
50.50000060349997
 21
42.999999783900073
 31
0.0
  0
LINE
  5
77A3
  8
2
 10
50.50000060349997
 20
42.999999783900073
 30
0.0
 11
52.5
 21
41.000000387400092
 31
0.0
  0
LINE
  5
77A4
  8
2
 10
37.000000253400003
 20
57.000000216100069
 30
0.0
 11
35.000000391199983
 21
58.999999612600071
 31
0.0
  0
LINE
  5
77A5
  8
2
 10
37.000000253400003
 20
42.999999783900073
 30
0.0
 11
37.000000253400003
 21
57.000000216100069
 31
0.0
  0
LINE
  5
77A6
  8
2
 10
50.50000060349997
 20
57.000000216100069
 30
0.0
 11
37.000000253400003
 21
57.000000216100069
 31
0.0
  0
LINE
  5
77A7
  8
2
 10
50.50000060349997
 20
42.999999783900073
 30
0.0
 11
50.50000060349997
 21
57.000000216100069
 31
0.0
  0
LINE
  5
77A8
  8
2
 10
52.5
 20
58.999999612600071
 30
0.0
 11
50.50000060349997
 21
57.000000216100069
 31
0.0
  0
LINE
  5
77A9
  8
2
 10
51.49999983610001
 20
58.000000380000067
 30
0.0
 11
36.000000089399997
 21
58.000000380000067
 31
0.0
  0
LINE
  5
77AA
  8
2
 10
36.000000089399997
 20
41.999999620000047
 30
0.0
 11
51.49999983610001
 21
41.999999620000047
 31
0.0
  0
ENDSEC
  0
EOF
