  0
SECTION
  2
HEADER
  9
$ACADVER
  1
AC1009
  9
$INSBASE
 10
0.0
 20
0.0
 30
0.0
  9
$EXTMIN
 10
0.0
 20
-1.4802182810368341
 30
0.0
  9
$EXTMAX
 10
82.500000078299976
 20
58.749999999999972
 30
0.0
  9
$LIMMIN
 10
0.0
 20
0.0
  9
$LIMMAX
 10
12.0
 20
9.0
  9
$ORTHOMODE
 70
     1
  9
$REGENMODE
 70
     1
  9
$FILLMODE
 70
     1
  9
$QTEXTMODE
 70
     0
  9
$MIRRTEXT
 70
     0
  9
$DRAGMODE
 70
     2
  9
$LTSCALE
 40
5.0
  9
$OSMODE
 70
    37
  9
$ATTMODE
 70
     1
  9
$TEXTSIZE
 40
0.2
  9
$TRACEWID
 40
0.05
  9
$TEXTSTYLE
  7
STANDARD
  9
$CLAYER
  8
0
  9
$CELTYPE
  6
BYLAYER
  9
$CECOLOR
 62
   256
  9
$DIMSCALE
 40
1.0
  9
$DIMASZ
 40
0.18
  9
$DIMEXO
 40
0.0625
  9
$DIMDLI
 40
0.38
  9
$DIMRND
 40
0.0
  9
$DIMDLE
 40
0.0
  9
$DIMEXE
 40
0.18
  9
$DIMTP
 40
0.0
  9
$DIMTM
 40
0.0
  9
$DIMTXT
 40
2.6000000000000001
  9
$DIMCEN
 40
0.09
  9
$DIMTSZ
 40
0.0
  9
$DIMTOL
 70
     0
  9
$DIMLIM
 70
     0
  9
$DIMTIH
 70
     0
  9
$DIMTOH
 70
     0
  9
$DIMSE1
 70
     0
  9
$DIMSE2
 70
     0
  9
$DIMTAD
 70
     1
  9
$DIMZIN
 70
     8
  9
$DIMBLK
  1

  9
$DIMASO
 70
     1
  9
$DIMSHO
 70
     1
  9
$DIMPOST
  1

  9
$DIMAPOST
  1

  9
$DIMALT
 70
     0
  9
$DIMALTD
 70
     2
  9
$DIMALTF
 40
25.399999999999999
  9
$DIMLFAC
 40
1.0
  9
$DIMTOFL
 70
     0
  9
$DIMTVP
 40
0.0
  9
$DIMTIX
 70
     0
  9
$DIMSOXD
 70
     0
  9
$DIMSAH
 70
     0
  9
$DIMBLK1
  1

  9
$DIMBLK2
  1

  9
$DIMSTYLE
  2
STANDARD
  9
$DIMCLRD
 70
     0
  9
$DIMCLRE
 70
     0
  9
$DIMCLRT
 70
     0
  9
$DIMTFAC
 40
1.0
  9
$DIMGAP
 40
0.09
  9
$LUNITS
 70
     2
  9
$LUPREC
 70
     4
  9
$SKETCHINC
 40
0.1
  9
$FILLETRAD
 40
0.0
  9
$AUNITS
 70
     0
  9
$AUPREC
 70
     0
  9
$MENU
  1
.
  9
$ELEVATION
 40
0.0
  9
$PELEVATION
 40
0.0
  9
$THICKNESS
 40
0.0
  9
$LIMCHECK
 70
     0
  9
$BLIPMODE
 70
     0
  9
$CHAMFERA
 40
0.0
  9
$CHAMFERB
 40
0.0
  9
$SKPOLY
 70
     0
  9
$TDCREATE
 40
2453083.4120647679
  9
$TDUPDATE
 40
2458247.571911227
  9
$TDINDWG
 40
0.7142803588
  9
$TDUSRTIMER
 40
0.7142802431000001
  9
$USRTIMER
 70
     1
  9
$ANGBASE
 50
0.0
  9
$ANGDIR
 70
     0
  9
$PDMODE
 70
     0
  9
$PDSIZE
 40
0.0
  9
$PLINEWID
 40
0.0
  9
$COORDS
 70
     1
  9
$SPLFRAME
 70
     0
  9
$SPLINETYPE
 70
     6
  9
$SPLINESEGS
 70
     8
  9
$ATTDIA
 70
     0
  9
$ATTREQ
 70
     1
  9
$HANDLING
 70
     1
  9
$HANDSEED
  5
78A8
  9
$SURFTAB1
 70
     6
  9
$SURFTAB2
 70
     6
  9
$SURFTYPE
 70
     6
  9
$SURFU
 70
     6
  9
$SURFV
 70
     6
  9
$UCSNAME
  2

  9
$UCSORG
 10
0.0
 20
0.0
 30
0.0
  9
$UCSXDIR
 10
1.0
 20
0.0
 30
0.0
  9
$UCSYDIR
 10
0.0
 20
1.0
 30
0.0
  9
$PUCSNAME
  2

  9
$PUCSORG
 10
0.0
 20
0.0
 30
0.0
  9
$PUCSXDIR
 10
1.0
 20
0.0
 30
0.0
  9
$PUCSYDIR
 10
0.0
 20
1.0
 30
0.0
  9
$USERI1
 70
     0
  9
$USERI2
 70
     1
  9
$USERI3
 70
     0
  9
$USERI4
 70
     0
  9
$USERI5
 70
     0
  9
$USERR1
 40
0.0
  9
$USERR2
 40
0.0
  9
$USERR3
 40
0.0
  9
$USERR4
 40
0.0
  9
$USERR5
 40
0.0
  9
$WORLDVIEW
 70
     1
  9
$SHADEDGE
 70
     3
  9
$SHADEDIF
 70
    70
  9
$TILEMODE
 70
     1
  9
$MAXACTVP
 70
    64
  9
$PLIMCHECK
 70
     0
  9
$PEXTMIN
 10
0.0
 20
0.0
 30
0.0
  9
$PEXTMAX
 10
0.0
 20
0.0
 30
0.0
  9
$PLIMMIN
 10
0.0
 20
0.0
  9
$PLIMMAX
 10
12.0
 20
9.0
  9
$UNITMODE
 70
     0
  9
$VISRETAIN
 70
     1
  9
$PLINEGEN
 70
     0
  9
$PSLTSCALE
 70
     1
  0
ENDSEC
  0
SECTION
  2
TABLES
  0
TABLE
  2
VPORT
 70
     1
  0
VPORT
  2
*ACTIVE
 70
     0
 10
0.0
 20
0.0
 11
1.0
 21
1.0
 12
79.153380179860591
 22
28.634828791506951
 13
0.0
 23
0.0
 14
0.5
 24
0.5
 15
0.5
 25
0.5
 16
0.0
 26
0.0
 36
1.0
 17
0.0
 27
0.0
 37
0.0
 40
61.047096595714081
 41
2.6019575856443709
 42
50.0
 43
0.0
 44
0.0
 50
0.0
 51
0.0
 71
     0
 72
  1000
 73
     1
 74
     2
 75
     0
 76
     0
 77
     0
 78
     0
  0
ENDTAB
  0
TABLE
  2
LTYPE
 70
     4
  0
LTYPE
  2
CONTINUOUS
 70
     0
  3
Solid Line
 72
    65
 73
     0
 40
0.0
  0
LTYPE
  2
CENTER
 70
     0
  3
____ _ ____ _ ____ _ ____ _ ____ _ ____ _ ____
 72
    65
 73
     4
 40
2.0
 49
1.25
 49
-0.25
 49
0.25
 49
-0.25
  0
LTYPE
  2
PHANTOM2
 70
     0
  3
___ _ _ ___ _ _ ___ _ _ ___ _ _
 72
    65
 73
     6
 40
1.25
 49
0.625
 49
-0.125
 49
0.125
 49
-0.125
 49
0.125
 49
-0.125
  0
LTYPE
  2
HIDDEN
 70
     0
  3
__ __ __ __ __ __ __ __ __ __ __ __ __ __ __ __
 72
    65
 73
     2
 40
0.375
 49
0.25
 49
-0.125
  0
ENDTAB
  0
TABLE
  2
LAYER
 70
     4
  0
LAYER
  2
0
 70
     0
 62
     7
  6
CONTINUOUS
  0
LAYER
  2
1
 70
     0
 62
     1
  6
CENTER
  0
LAYER
  2
DEFPOINTS
 70
     0
 62
     7
  6
CONTINUOUS
  0
LAYER
  2
2
 70
     0
 62
     2
  6
HIDDEN
  0
ENDTAB
  0
TABLE
  2
STYLE
 70
     2
  0
STYLE
  2
STANDARD
 70
     0
 40
0.0
 41
1.0
 50
0.0
 71
     0
 42
0.2
  3
simplex.shx
  4
bigfont.shx
  0
STYLE
  2
STANDARD1
 70
     0
 40
0.0
 41
1.0
 50
0.0
 71
     0
 42
3.0
  3
txt
  4

  0
ENDTAB
  0
TABLE
  2
VIEW
 70
     0
  0
ENDTAB
  0
TABLE
  2
UCS
 70
     0
  0
ENDTAB
  0
TABLE
  2
APPID
 70
     5
  0
APPID
  2
ACAD
 70
     0
  0
APPID
  2
ACAD_MLEADERVER
 70
     0
  0
APPID
  2
ACAD_NAV_VCDISPLAY
 70
     0
  0
APPID
  2
ACAD_EXEMPT_FROM_CAD_STANDARDS
 70
     0
  0
APPID
  2
ACAD_DSTYLE_DIMRADIAL_EXTENSION
 70
     0
  0
ENDTAB
  0
TABLE
  2
DIMSTYLE
 70
     1
  0
DIMSTYLE
  2
STANDARD
 70
     0
  3

  4

  5

  6

  7

 40
1.0
 41
0.18
 42
0.0625
 43
0.38
 44
0.18
 45
0.0
 46
0.0
 47
0.0
 48
0.0
140
2.6000000000000001
141
0.09
142
0.0
143
25.399999999999999
144
1.0
145
0.0
146
1.0
147
0.09
 71
     0
 72
     0
 73
     0
 74
     0
 75
     0
 76
     0
 77
     1
 78
     8
170
     0
171
     2
172
     0
173
     0
174
     0
175
     0
176
     0
177
     0
178
     0
  0
ENDTAB
  0
ENDSEC
  0
SECTION
  2
BLOCKS
  0
BLOCK
  8
0
  2
$MODEL_SPACE
 70
     0
 10
0.0
 20
0.0
 30
0.0
  3
$MODEL_SPACE
  1

  0
ENDBLK
  5
21
  8
0
  0
BLOCK
 67
     1
  8
0
  2
$PAPER_SPACE
 70
     0
 10
0.0
 20
0.0
 30
0.0
  3
$PAPER_SPACE
  1

  0
ENDBLK
  5
5B
 67
     1
  8
0
  0
ENDSEC
  0
SECTION
  2
ENTITIES
  0
TEXT
  5
1F01
  8
0
 62
     3
 10
0.0
 20
0.0
 30
0.0
 40
5.0
  1
CP157-06001S
  7
STANDARD1
  0
CIRCLE
  5
76A1
  8
0
 10
73.75000007829999
 20
49.999999999999993
 30
0.0
 40
3.5
  0
CIRCLE
  5
76A2
  8
0
 10
73.75000007829999
 20
49.999999999999993
 30
0.0
 40
2.5
  0
CIRCLE
  5
76A3
  8
0
 10
73.75000007829999
 20
49.999999999999993
 30
0.0
 40
5.749999999999992
  0
CIRCLE
  5
76A4
  8
0
 10
73.75000007829999
 20
49.999999999999993
 30
0.0
 40
4.4762414319134214
  0
CIRCLE
  5
76A5
  8
0
 10
73.75000007829999
 20
49.999999999999993
 30
0.0
 40
4.9568722798825879
  0
LINE
  5
76A7
  8
0
 10
38.199999883200007
 20
55.750000011199987
 30
0.0
 11
37.999999888300003
 21
55.549999885299982
 31
0.0
  0
LINE
  5
76A8
  8
0
 10
37.999999888300003
 20
44.450000114699989
 30
0.0
 11
38.199999883200007
 21
44.249999988799992
 31
0.0
  0
LINE
  5
76A9
  8
0
 10
38.871853500200011
 20
55.750000011199987
 30
0.0
 11
38.199999883200007
 21
55.750000011199987
 31
0.0
  0
LINE
  5
76AA
  8
0
 10
38.199999883200007
 20
44.249999988799992
 30
0.0
 11
38.871853500200011
 21
44.249999988799992
 31
0.0
  0
LINE
  5
76AB
  8
0
 10
38.871853500200011
 20
44.249999988799992
 30
0.0
 11
41.6378185079
 21
45.043127797499992
 31
0.0
  0
LINE
  5
76AC
  8
0
 10
41.6378185079
 20
54.956872202499987
 30
0.0
 11
38.871853500200011
 21
55.750000011199987
 31
0.0
  0
ARC
  5
76AD
  8
0
 10
41.499999888299989
 20
54.476241431899972
 30
0.0
 40
0.4999999999999964
 50
0.0
 51
74.000000000000114
  0
ARC
  5
76AE
  8
0
 10
41.499999888299989
 20
45.523758568099993
 30
0.0
 40
0.5000000000000046
 50
285.99999999999989
 51
0.0
  0
LINE
  5
76AF
  8
0
 10
33.199999660300008
 20
54.000000190000002
 30
0.0
 11
33.0
 21
53.80000006409999
 31
0.0
  0
LINE
  5
76B0
  8
0
 10
33.0
 20
46.199999935899989
 30
0.0
 11
33.199999660300008
 21
45.999999809999977
 31
0.0
  0
LINE
  5
76B1
  8
0
 10
37.999999888300003
 20
54.000000190000002
 30
0.0
 11
33.199999660300008
 21
54.000000190000002
 31
0.0
  0
LINE
  5
76B2
  8
0
 10
33.199999660300008
 20
45.999999809999977
 30
0.0
 11
37.999999888300003
 21
45.999999809999977
 31
0.0
  0
LINE
  5
76B3
  8
0
 10
38.199999883200007
 20
55.750000011199987
 30
0.0
 11
38.199999883200007
 21
44.249999988799992
 31
0.0
  0
LINE
  5
76B4
  8
0
 10
37.999999888300003
 20
44.450000114699989
 30
0.0
 11
37.999999888300003
 21
55.549999885299982
 31
0.0
  0
LINE
  5
76B5
  8
0
 10
38.871853500200011
 20
55.750000011199987
 30
0.0
 11
38.871853500200011
 21
44.249999988799992
 31
0.0
  0
LINE
  5
76B6
  8
0
 10
42.000000078299998
 20
54.476241301699979
 30
0.0
 11
42.000000078299998
 21
45.523758698299979
 31
0.0
  0
LINE
  5
76B7
  8
0
 10
33.199999660300008
 20
54.000000190000002
 30
0.0
 11
33.199999660300008
 21
45.999999809999977
 31
0.0
  0
LINE
  5
76B8
  8
0
 10
33.0
 20
46.199999935899989
 30
0.0
 11
33.0
 21
53.80000006409999
 31
0.0
  0
LINE
  5
76B9
  8
0
 10
41.6378185079
 20
45.043127797499992
 30
0.0
 11
41.6378185079
 21
54.956872202499987
 31
0.0
  0
LINE
  5
7758
  8
2
 10
33.999999698250008
 20
47.50000005587497
 30
0.0
 11
33.0
 21
46.49999989197498
 31
0.0
  0
LINE
  5
7759
  8
2
 10
40.999999914299998
 20
47.50000005587497
 30
0.0
 11
33.999999698250008
 21
47.50000005587497
 31
0.0
  0
LINE
  5
775A
  8
2
 10
42.000000078200003
 20
46.49999989197498
 30
0.0
 11
40.999999914299998
 21
47.50000005587497
 31
0.0
  0
LINE
  5
775B
  8
2
 10
33.0
 20
53.500000108024992
 30
0.0
 11
33.999999698250008
 21
52.499999944124973
 31
0.0
  0
LINE
  5
775C
  8
2
 10
40.999999914299998
 20
52.499999944124973
 30
0.0
 11
42.000000078200003
 21
53.500000108024992
 31
0.0
  0
LINE
  5
775D
  8
2
 10
33.999999698250008
 20
52.499999944124973
 30
0.0
 11
40.999999914299998
 21
52.499999944124973
 31
0.0
  0
LINE
  5
775E
  8
2
 10
40.999999914299998
 20
47.50000005587497
 30
0.0
 11
40.999999914299998
 21
52.499999944124973
 31
0.0
  0
LINE
  5
775F
  8
2
 10
33.999999698250008
 20
52.499999944124973
 30
0.0
 11
33.999999698250008
 21
47.50000005587497
 31
0.0
  0
LINE
  5
7760
  8
2
 10
33.500000081950013
 20
46.999999973924972
 30
0.0
 11
41.499999996250011
 21
46.999999973924972
 31
0.0
  0
LINE
  5
7761
  8
2
 10
41.499999996250011
 20
53.000000026074979
 30
0.0
 11
33.500000081950013
 21
53.000000026074979
 31
0.0
  0
LINE
  5
7769
  8
1
 10
30.0
 20
50.0
 30
0.0
 11
45.00000007829999
 21
50.0
 31
0.0
  0
LINE
  5
7772
  8
1
 10
65.000000078300005
 20
50.000000000000007
 30
0.0
 11
82.500000078299976
 21
50.000000000000007
 31
0.0
  0
LINE
  5
7773
  8
1
 10
73.75000007829999
 20
58.749999999999972
 30
0.0
 11
73.75000007829999
 21
41.25
 31
0.0
  0
ENDSEC
  0
EOF
