  0
SECTION
  2
HEADER
  9
$ACADVER
  1
AC1009
  9
$INSBASE
 10
0.0
 20
0.0
 30
0.0
  9
$EXTMIN
 10
0.0
 20
-2.960436562073669
 30
0.0
  9
$EXTMAX
 10
253.39137044204901
 20
261.19963791738053
 30
0.0
  9
$LIMMIN
 10
0.0
 20
0.0
  9
$LIMMAX
 10
375.0
 20
270.0
  9
$ORTHOMODE
 70
     1
  9
$REGENMODE
 70
     1
  9
$FILLMODE
 70
     1
  9
$QTEXTMODE
 70
     0
  9
$MIRRTEXT
 70
     0
  9
$DRAGMODE
 70
     2
  9
$LTSCALE
 40
10.0
  9
$OSMODE
 70
    37
  9
$ATTMODE
 70
     1
  9
$TEXTSIZE
 40
6.0
  9
$TRACEWID
 40
0.05
  9
$TEXTSTYLE
  7
STANDARD
  9
$CLAYER
  8
0
  9
$CELTYPE
  6
BYLAYER
  9
$CECOLOR
 62
   256
  9
$DIMSCALE
 40
1.0
  9
$DIMASZ
 40
3.0
  9
$DIMEXO
 40
2.0
  9
$DIMDLI
 40
0.3799999999999999
  9
$DIMRND
 40
0.0
  9
$DIMDLE
 40
0.0
  9
$DIMEXE
 40
2.0
  9
$DIMTP
 40
0.0
  9
$DIMTM
 40
0.0
  9
$DIMTXT
 40
3.2000000000000002
  9
$DIMCEN
 40
0.09
  9
$DIMTSZ
 40
0.0
  9
$DIMTOL
 70
     0
  9
$DIMLIM
 70
     0
  9
$DIMTIH
 70
     0
  9
$DIMTOH
 70
     0
  9
$DIMSE1
 70
     0
  9
$DIMSE2
 70
     0
  9
$DIMTAD
 70
     1
  9
$DIMZIN
 70
     9
  9
$DIMBLK
  1

  9
$DIMASO
 70
     0
  9
$DIMSHO
 70
     0
  9
$DIMPOST
  1

  9
$DIMAPOST
  1

  9
$DIMALT
 70
     0
  9
$DIMALTD
 70
     2
  9
$DIMALTF
 40
25.399999999999999
  9
$DIMLFAC
 40
1.0
  9
$DIMTOFL
 70
     0
  9
$DIMTVP
 40
0.0
  9
$DIMTIX
 70
     0
  9
$DIMSOXD
 70
     0
  9
$DIMSAH
 70
     0
  9
$DIMBLK1
  1

  9
$DIMBLK2
  1

  9
$DIMSTYLE
  2
STANDARD
  9
$DIMCLRD
 70
     0
  9
$DIMCLRE
 70
     0
  9
$DIMCLRT
 70
     0
  9
$DIMTFAC
 40
1.0
  9
$DIMGAP
 40
0.09
  9
$LUNITS
 70
     2
  9
$LUPREC
 70
     2
  9
$SKETCHINC
 40
0.1
  9
$FILLETRAD
 40
20.0
  9
$AUNITS
 70
     0
  9
$AUPREC
 70
     2
  9
$MENU
  1
E:\r13\win\SUPPORT\ACAD
  9
$ELEVATION
 40
0.0
  9
$PELEVATION
 40
0.0
  9
$THICKNESS
 40
0.0
  9
$LIMCHECK
 70
     0
  9
$BLIPMODE
 70
     0
  9
$CHAMFERA
 40
0.0
  9
$CHAMFERB
 40
0.0
  9
$SKPOLY
 70
     0
  9
$TDCREATE
 40
2449840.6320370371
  9
$TDUPDATE
 40
2456931.6995626511
  9
$TDINDWG
 40
2.2984303240999999
  9
$TDUSRTIMER
 40
2.2984303240999999
  9
$USRTIMER
 70
     1
  9
$ANGBASE
 50
0.0
  9
$ANGDIR
 70
     0
  9
$PDMODE
 70
     0
  9
$PDSIZE
 40
0.0
  9
$PLINEWID
 40
0.0
  9
$COORDS
 70
     1
  9
$SPLFRAME
 70
     0
  9
$SPLINETYPE
 70
     6
  9
$SPLINESEGS
 70
     8
  9
$ATTDIA
 70
     0
  9
$ATTREQ
 70
     1
  9
$HANDLING
 70
     1
  9
$HANDSEED
  5
1E4AD
  9
$SURFTAB1
 70
     6
  9
$SURFTAB2
 70
     6
  9
$SURFTYPE
 70
     6
  9
$SURFU
 70
     6
  9
$SURFV
 70
     6
  9
$UCSNAME
  2

  9
$UCSORG
 10
0.0
 20
0.0
 30
0.0
  9
$UCSXDIR
 10
1.0
 20
0.0
 30
0.0
  9
$UCSYDIR
 10
0.0
 20
1.0
 30
0.0
  9
$PUCSNAME
  2

  9
$PUCSORG
 10
0.0
 20
0.0
 30
0.0
  9
$PUCSXDIR
 10
1.0
 20
0.0
 30
0.0
  9
$PUCSYDIR
 10
0.0
 20
1.0
 30
0.0
  9
$USERI1
 70
     0
  9
$USERI2
 70
     1
  9
$USERI3
 70
     0
  9
$USERI4
 70
     0
  9
$USERI5
 70
     0
  9
$USERR1
 40
0.0
  9
$USERR2
 40
0.0
  9
$USERR3
 40
0.0
  9
$USERR4
 40
0.0
  9
$USERR5
 40
0.0
  9
$WORLDVIEW
 70
     1
  9
$SHADEDGE
 70
     3
  9
$SHADEDIF
 70
    70
  9
$TILEMODE
 70
     1
  9
$MAXACTVP
 70
    16
  9
$PLIMCHECK
 70
     0
  9
$PEXTMIN
 10
1.0000000000000000E+020
 20
1.0000000000000000E+020
 30
1.0000000000000000E+020
  9
$PEXTMAX
 10
-1.0000000000000000E+020
 20
-1.0000000000000000E+020
 30
-1.0000000000000000E+020
  9
$PLIMMIN
 10
0.0
 20
0.0
  9
$PLIMMAX
 10
12.0
 20
9.0
  9
$UNITMODE
 70
     0
  9
$VISRETAIN
 70
     0
  9
$PLINEGEN
 70
     0
  9
$PSLTSCALE
 70
     0
  0
ENDSEC
  0
SECTION
  2
TABLES
  0
TABLE
  2
VPORT
 70
     1
  0
VPORT
  2
*ACTIVE
 70
     0
 10
0.0
 20
0.0
 11
1.0
 21
1.0
 12
314.18636995827541
 22
180.0
 13
0.0
 23
0.0
 14
10.0
 24
10.0
 15
10.0
 25
10.0
 16
0.0
 26
0.0
 36
1.0
 17
0.0
 27
0.0
 37
0.0
 40
360.0
 41
1.7454798331015291
 42
50.0
 43
0.0
 44
0.0
 50
0.0
 51
0.0
 71
     0
 72
   500
 73
     1
 74
     0
 75
     0
 76
     0
 77
     0
 78
     0
  0
ENDTAB
  0
TABLE
  2
LTYPE
 70
     4
  0
LTYPE
  2
CONTINUOUS
 70
     0
  3
Solid Line
 72
    65
 73
     0
 40
0.0
  0
LTYPE
  2
CENTER
 70
     0
  3
____ _ ____ _ ____ _ ____ _ ____ _ ____ _ ____
 72
    65
 73
     4
 40
2.0
 49
1.25
 49
-0.25
 49
0.25
 49
-0.25
  0
LTYPE
  2
PHANTOM
 70
     0
  3
_____ _ _ _____ _ _ _____ _ _ _____ _ _ ____
 72
    65
 73
     6
 40
2.5
 49
1.25
 49
-0.25
 49
0.25
 49
-0.25
 49
0.25
 49
-0.25
  0
LTYPE
  2
PHANTOM2
 70
     0
  3
___ _ _ ___ _ _ ___ _ _ ___ _ _
 72
    65
 73
     6
 40
1.25
 49
0.625
 49
-0.125
 49
0.125
 49
-0.125
 49
0.125
 49
-0.125
  0
ENDTAB
  0
TABLE
  2
LAYER
 70
     4
  0
LAYER
  2
0
 70
     0
 62
     7
  6
CONTINUOUS
  0
LAYER
  2
1
 70
     0
 62
     1
  6
CENTER
  0
LAYER
  2
DEFPOINTS
 70
     0
 62
     7
  6
CONTINUOUS
  0
LAYER
  2
5
 70
     0
 62
     3
  6
PHANTOM
  0
ENDTAB
  0
TABLE
  2
STYLE
 70
     2
  0
STYLE
  2
STANDARD
 70
     0
 40
0.0
 41
1.0
 50
0.0
 71
     0
 42
6.0
  3
TXT
  4
BIGFONT
  0
STYLE
  2
STANDARD1
 70
     0
 40
0.0
 41
1.0
 50
0.0
 71
     0
 42
3.0
  3
txt
  4

  0
ENDTAB
  0
TABLE
  2
VIEW
 70
     2
  0
VIEW
  2
ALL
 70
     0
 40
270.0
 10
213.25689075630251
 20
135.0
 41
0.0
 11
0.0
 21
0.0
 31
1.0
 12
0.0
 22
0.0
 32
0.0
 42
0.0
 43
0.0
 44
0.0
 50
0.0
 71
     0
  0
VIEW
  2
OLE1
 70
     0
 40
15.6789342459856
 10
-163.26597565361169
 20
683.38318995238819
 41
19.906097890736621
 11
0.0
 21
0.0
 31
1.0
 12
0.0
 22
0.0
 32
0.0
 42
50.0
 43
0.0
 44
0.0
 50
0.0
 71
     0
  0
ENDTAB
  0
TABLE
  2
UCS
 70
     0
  0
ENDTAB
  0
TABLE
  2
APPID
 70
    13
  0
APPID
  2
ACAD
 70
     0
  0
APPID
  2
ACAD_EXEMPT_FROM_CAD_STANDARDS
 70
     0
  0
APPID
  2
ACAD_MLEADERVER
 70
     0
  0
APPID
  2
ACAD_DSTYLE_DIMJAG
 70
     0
  0
APPID
  2
ACAD_DSTYLE_DIMTALN
 70
     0
  0
APPID
  2
ACAD_PSEXT
 70
     0
  0
APPID
  2
ACAD_DSTYLE_DIMBREAK
 70
     0
  0
APPID
  2
ACAECLAYERSTANDARD
 70
     0
  0
APPID
  2
ACCMTRANSPARENCY
 70
     0
  0
APPID
  2
GRADIENTCOLOR1ACI
 70
     0
  0
APPID
  2
GRADIENTCOLOR2ACI
 70
     0
  0
APPID
  2
ACAD_DSTYLE_DIMRADIAL_EXTENSION
 70
     0
  0
APPID
  2
ACAD_NAV_VCDISPLAY
 70
     0
  0
ENDTAB
  0
TABLE
  2
DIMSTYLE
 70
     1
  0
DIMSTYLE
  2
STANDARD
 70
     0
  3

  4

  5

  6

  7

 40
1.0
 41
0.18
 42
0.0625
 43
0.38
 44
0.18
 45
0.0
 46
0.0
 47
0.0
 48
0.0
140
0.18
141
0.09
142
0.0
143
25.399999999999999
144
1.0
145
0.0
146
1.0
147
0.09
 71
     0
 72
     0
 73
     1
 74
     1
 75
     0
 76
     0
 77
     0
 78
     0
170
     0
171
     2
172
     0
173
     0
174
     0
175
     0
176
     0
177
     0
178
     0
  0
ENDTAB
  0
ENDSEC
  0
SECTION
  2
BLOCKS
  0
BLOCK
  8
0
  2
$MODEL_SPACE
 70
     0
 10
0.0
 20
0.0
 30
0.0
  3
$MODEL_SPACE
  1

  0
ENDBLK
  5
126
  8
0
  0
BLOCK
 67
     1
  8
0
  2
$PAPER_SPACE
 70
     0
 10
0.0
 20
0.0
 30
0.0
  3
$PAPER_SPACE
  1

  0
ENDBLK
  5
124
 67
     1
  8
0
  0
ENDSEC
  0
SECTION
  2
ENTITIES
  0
TEXT
  5
1B133
  8
0
 62
     3
 10
0.0
 20
0.0
 30
0.0
 40
10.0
  1
CP150-08040
  7
STANDARD1
  0
CIRCLE
  5
1C3F8
  8
0
 10
99.999999999999943
 20
133.5
 30
0.0
 40
4.000000000000008
  0
LINE
  5
1C3FB
  8
0
 10
119.8999997228384
 20
132.99999982118601
 30
0.0
 11
119.8999997228384
 21
139.0000008046627
 31
0.0
  0
LINE
  5
1C3FC
  8
0
 10
80.100000277161627
 20
139.0000008046627
 30
0.0
 11
80.100000277161627
 21
132.99999982118601
 31
0.0
  0
ARC
  5
1C3FD
  8
0
 10
81.100000000000023
 20
139.0
 30
0.0
 40
1.0
 50
90.0
 51
180.0
  0
ARC
  5
1C3FE
  8
0
 10
118.90000000000001
 20
139.0
 30
0.0
 40
1.0
 50
0.0
 51
90.0
  0
LINE
  5
1C3FF
  8
0
 10
132.18094259500501
 20
106.5865865908563
 30
0.0
 11
132.18094259500501
 21
109.20000020414589
 31
0.0
  0
ARC
  5
1C400
  8
0
 10
131.38094323107879
 20
109.2
 30
0.0
 40
0.7999999999999972
 50
0.0
 51
90.0
  0
LINE
  5
1C401
  8
0
 10
67.819057404994965
 20
109.20000020414589
 30
0.0
 11
67.819057404994965
 21
106.5810675732791
 31
0.0
  0
ARC
  5
1C402
  8
0
 10
68.619056768921126
 20
109.2
 30
0.0
 40
0.7999999999999972
 50
90.0
 51
180.0
  0
ARC
  5
1C405
  8
0
 10
81.100000000000023
 20
133.0
 30
0.0
 40
1.0
 50
180.0
 51
249.75409515280069
  0
CIRCLE
  5
1C407
  8
0
 10
99.999999999999943
 20
133.5
 30
0.0
 40
2.75
  0
CIRCLE
  5
1C408
  8
0
 10
99.999999999999943
 20
133.5
 30
0.0
 40
2.5499999999999972
  0
LINE
  5
1C409
  8
0
 10
101.1547005269676
 20
133.500000834465
 30
0.0
 11
100.57735026348379
 21
134.49999913573259
 31
0.0
  0
LINE
  5
1C40A
  8
0
 10
100.57735026348379
 20
134.49999913573259
 30
0.0
 11
99.422649736516121
 21
134.49999913573259
 31
0.0
  0
LINE
  5
1C40B
  8
0
 10
99.422649736516121
 20
134.49999913573259
 30
0.0
 11
98.845299473032298
 21
133.500000834465
 31
0.0
  0
LINE
  5
1C40C
  8
0
 10
98.845299473032298
 20
133.500000834465
 30
0.0
 11
99.422649736516121
 21
132.4999988079071
 31
0.0
  0
LINE
  5
1C40D
  8
0
 10
99.422649736516121
 20
132.4999988079071
 30
0.0
 11
100.57735026348379
 21
132.4999988079071
 31
0.0
  0
LINE
  5
1C40E
  8
0
 10
100.57735026348379
 20
132.4999988079071
 30
0.0
 11
101.1547005269676
 21
133.500000834465
 31
0.0
  0
LINE
  5
1C40F
  8
0
 10
102.0000000949948
 20
118.84529925882811
 30
0.0
 11
102.0000000949948
 21
121.15469984710209
 31
0.0
  0
LINE
  5
1C412
  8
0
 10
97.999999905005041
 20
121.15469984710209
 30
0.0
 11
97.999999905005041
 21
118.84529925882811
 31
0.0
  0
CIRCLE
  5
1C415
  8
0
 10
99.999999999999943
 20
120.0
 30
0.0
 40
2.6000000000000081
  0
CIRCLE
  5
1C416
  8
0
 10
99.999999999999943
 20
120.0
 30
0.0
 40
4.0
  0
CIRCLE
  5
1C417
  8
0
 10
99.999999999999943
 20
120.0
 30
0.0
 40
3.4999999999999849
  0
CIRCLE
  5
1C423
  8
0
 10
99.999999999999943
 20
133.5
 30
0.0
 40
3.0000000000000142
  0
CIRCLE
  5
1C42E
  8
0
 10
100.00000529667869
 20
120.0000005737441
 30
0.0
 40
4.5000008270670033
  0
LINE
  5
1C43D
  8
0
 10
80.766346678137765
 20
112.89552822709079
 30
0.0
 11
80.766346678137765
 21
132.99999982118601
 31
0.0
  0
LINE
  5
1C441
  8
0
 10
81.1000004410744
 20
139.9999991059303
 30
0.0
 11
118.8999995589256
 21
139.9999991059303
 31
0.0
  0
LINE
  5
1C448
  8
0
 10
108.3977416815392
 20
112.89552822709079
 30
0.0
 11
119.23365332186211
 21
112.89552822709069
 31
0.0
  0
LINE
  5
1C473
  8
0
 10
132.4999988079071
 20
106.50000013411039
 30
0.0
 11
132.07458928227419
 21
106.50000013411039
 31
0.0
  0
LINE
  5
1C474
  8
0
 10
132.4999988079071
 20
106.50000013411039
 30
0.0
 11
132.4999988079071
 21
100.5000000237487
 31
0.0
  0
LINE
  5
1C477
  8
0
 10
132.4999988079071
 20
100.5000000237487
 30
0.0
 11
132.00000151991841
 21
100.0
 31
0.0
  0
LINE
  5
1C478
  8
0
 10
132.00000151991841
 20
100.0
 30
0.0
 11
67.999998480081544
 21
100.0
 31
0.0
  0
LINE
  5
1C47B
  8
0
 10
68.640327453613281
 20
109.9999997764826
 30
0.0
 11
95.417906586332165
 21
109.9999997764826
 31
0.0
  0
LINE
  5
1C47D
  8
0
 10
67.500001192092896
 20
100.5000000237487
 30
0.0
 11
67.500001192092896
 21
106.50000013411039
 31
0.0
  0
LINE
  5
1C47E
  8
0
 10
67.925410717725754
 20
106.50000013411039
 30
0.0
 11
67.500001192092896
 21
106.50000013411039
 31
0.0
  0
LINE
  5
1C480
  8
0
 10
67.500001192092896
 20
100.5000000237487
 30
0.0
 11
67.999998480081544
 21
100.0
 31
0.0
  0
POLYLINE
  5
1C482
  8
0
 66
     1
 10
0.0
 20
0.0
 30
0.0
 70
   128
  0
VERTEX
  5
1E36B
  8
0
 10
132.07458928227419
 20
106.50000013411039
 30
0.0
  0
VERTEX
  5
1E36C
  8
0
 10
132.16470032930371
 20
106.5303482115268
 30
0.0
  0
VERTEX
  5
1E36D
  8
0
 10
132.18094259500501
 20
106.5865865908563
 30
0.0
  0
SEQEND
  5
1E36E
  8
0
  0
LINE
  5
1C483
  8
0
 10
104.58209341366749
 20
109.9999997764826
 30
0.0
 11
131.38094395399091
 21
109.9999997764826
 31
0.0
  0
LINE
  5
1C484
  8
0
 10
132.4999988079071
 20
106.50000013411039
 30
0.0
 11
132.18094259500501
 21
106.81905681267379
 31
0.0
  0
POLYLINE
  5
1C485
  8
0
 66
     1
 10
0.0
 20
0.0
 30
0.0
 70
   128
  0
VERTEX
  5
1E36F
  8
0
 10
67.819057404994965
 20
106.5810675732791
 30
0.0
  0
VERTEX
  5
1E370
  8
0
 10
67.819068580865846
 20
106.5788999199867
 30
0.0
  0
VERTEX
  5
1E371
  8
0
 10
67.87310391664505
 20
106.506840698421
 30
0.0
  0
VERTEX
  5
1E372
  8
0
 10
67.925410717725754
 20
106.50000013411039
 30
0.0
  0
SEQEND
  5
1E373
  8
0
  0
LINE
  5
1C487
  8
0
 10
67.819057404994965
 20
106.81905681267379
 30
0.0
 11
67.500001192092896
 21
106.50000013411039
 31
0.0
  0
LINE
  5
1C48A
  8
0
 10
80.100000277161627
 20
132.99999982118601
 30
0.0
 11
80.766346678137765
 21
132.99999982118601
 31
0.0
  0
LINE
  5
1C48C
  8
0
 10
119.8999997228384
 20
139.0000008046627
 30
0.0
 11
80.100000277161627
 21
139.0000008046627
 31
0.0
  0
LINE
  5
1C491
  8
0
 10
104.0000001899899
 20
252.81114345674709
 30
0.0
 11
103.5000001080335
 21
253.09981806462011
 31
0.0
  0
LINE
  5
1C492
  8
0
 10
96.499999891966667
 20
253.09981806462011
 30
0.0
 11
95.99999981001028
 21
252.81114345674709
 31
0.0
  0
LINE
  5
1C493
  8
0
 10
95.99999981001028
 20
252.81114345674709
 30
0.0
 11
95.99999981001028
 21
252.6899150598546
 31
0.0
  0
LINE
  5
1C494
  8
0
 10
104.00000018998981
 20
252.69567821879491
 30
0.0
 11
104.0000001899899
 21
252.81114345674709
 31
0.0
  0
LINE
  5
1C495
  8
0
 10
95.999999810010138
 20
213.51236878221229
 30
0.0
 11
95.999999810010138
 21
213.38849356656269
 31
0.0
  0
LINE
  5
1C496
  8
0
 10
104.00000018998971
 20
213.38849356656269
 30
0.0
 11
104.00000018998971
 21
213.50972196345529
 31
0.0
  0
LINE
  5
1C497
  8
0
 10
95.999999810010138
 20
213.38849356656269
 30
0.0
 11
96.499999891966525
 21
213.09981895868981
 31
0.0
  0
LINE
  5
1C498
  8
0
 10
103.5000001080333
 20
213.09981895868981
 30
0.0
 11
104.00000018998971
 21
213.38849356656269
 31
0.0
  0
LINE
  5
1C499
  8
0
 10
96.999999973922996
 20
235.32809065913159
 30
0.0
 11
96.999999973922954
 21
230.8715463641783
 31
0.0
  0
LINE
  5
1C49A
  8
0
 10
103.000000026077
 20
230.8715463641783
 30
0.0
 11
103.000000026077
 21
235.32809065913159
 31
0.0
  0
ARC
  5
1C4A3
  8
0
 10
125.0
 20
233.099818511655
 30
0.0
 40
6.5
 50
213.42738974570099
 51
146.57261025429901
  0
CIRCLE
  5
1C4A8
  8
0
 10
125.0
 20
233.099818511655
 30
0.0
 40
4.1999999999999877
  0
ARC
  5
1C4A9
  8
0
 10
75.000000000000028
 20
233.099818511655
 30
0.0
 40
6.5
 50
33.427389745700573
 51
326.57261025429898
  0
CIRCLE
  5
1C4AE
  8
0
 10
75.000000000000028
 20
233.099818511655
 30
0.0
 40
4.2000000000000171
  0
LINE
  5
1C4AF
  8
0
 10
96.499999891966667
 20
253.09981806462011
 30
0.0
 11
103.5000001080335
 21
253.09981806462011
 31
0.0
  0
LINE
  5
1C4B0
  8
0
 10
104.0000001899899
 20
252.81114345674709
 30
0.0
 11
103.385574545978
 21
252.81114345674709
 31
0.0
  0
LINE
  5
1C4B1
  8
0
 10
96.696262875849413
 20
252.81114345674709
 30
0.0
 11
95.99999981001028
 21
252.81114345674709
 31
0.0
  0
LINE
  5
1C4B2
  8
0
 10
95.999999810010138
 20
213.38849356656269
 30
0.0
 11
96.614425454021756
 21
213.38849356656269
 31
0.0
  0
LINE
  5
1C4B3
  8
0
 10
103.3037371241506
 20
213.38849356656269
 30
0.0
 11
104.00000018998971
 21
213.38849356656269
 31
0.0
  0
LINE
  5
1C4B4
  8
0
 10
103.5000001080333
 20
213.09981895868981
 30
0.0
 11
96.499999891966525
 21
213.09981895868981
 31
0.0
  0
ARC
  5
1C4BB
  8
0
 10
100.0
 20
233.10087184131319
 30
0.0
 40
3.7507023438454139
 50
221.82230646107141
 51
318.17769353892919
  0
ARC
  5
1C4BD
  8
0
 10
100.001255290757
 20
233.10335052754121
 30
0.0
 40
20.003654699450429
 50
249.70917421607979
 51
263.29935466622999
  0
ARC
  5
1C4C0
  8
0
 10
99.999999999999943
 20
233.12620061854031
 30
0.0
 40
20.026202621672251
 50
263.31054965754203
 51
276.68945034245951
  0
LINE
  5
1C4C1
  8
0
 10
103.1721442937851
 20
231.09981841666001
 30
0.0
 11
106.18465850129721
 21
231.09981841666001
 31
0.0
  0
LINE
  5
1C4C2
  8
0
 10
102.7950850781053
 20
230.5998185675343
 30
0.0
 11
103.1721442937851
 21
231.09981841666001
 31
0.0
  0
LINE
  5
1C4C3
  8
0
 10
93.815341498702765
 20
231.09981841666001
 30
0.0
 11
96.827855706214905
 21
231.09981841666001
 31
0.0
  0
LINE
  5
1C4C4
  8
0
 10
96.827855706214905
 20
231.09981841666001
 30
0.0
 11
97.204914921894655
 21
230.5998185675343
 31
0.0
  0
ARC
  5
1C4C6
  8
0
 10
99.998744709241862
 20
233.0962864957649
 30
0.0
 40
20.003654699454199
 50
69.709174216127423
 51
83.299354666226364
  0
POLYLINE
  5
1C4C7
  8
0
 66
     1
 10
0.0
 20
0.0
 30
0.0
 70
   128
  0
VERTEX
  5
1E374
  8
0
 10
93.355602957308378
 20
251.96344806139669
 30
0.0
  0
VERTEX
  5
1E375
  8
0
 10
94.741579517722215
 20
252.39616474395001
 30
0.0
  0
VERTEX
  5
1E376
  8
0
 10
96.157896704971876
 20
252.72677308206761
 30
0.0
  0
VERTEX
  5
1E377
  8
0
 10
97.667190385982479
 20
252.96330293898779
 30
0.0
  0
SEQEND
  5
1E378
  8
0
  0
ARC
  5
1C4C9
  8
0
 10
100.0
 20
233.0987651819965
 30
0.0
 40
3.7507023438454139
 50
41.822306461071349
 51
138.17769353892859
  0
ARC
  5
1C4CC
  8
0
 10
100.0000000000001
 20
233.07343640476941
 30
0.0
 40
20.026202621672269
 50
83.310549657542055
 51
96.689450342457945
  0
LINE
  5
1C4CD
  8
0
 10
96.827855706214933
 20
235.09981860664979
 30
0.0
 11
93.815341498702793
 21
235.09981860664979
 31
0.0
  0
LINE
  5
1C4CE
  8
0
 10
97.204914921894741
 20
235.59981845577559
 30
0.0
 11
96.827855706214933
 21
235.09981860664979
 31
0.0
  0
LINE
  5
1C4CF
  8
0
 10
106.2055350281298
 20
235.09981860664979
 30
0.0
 11
103.1721442937851
 21
235.09981860664979
 31
0.0
  0
LINE
  5
1C4D0
  8
0
 10
103.1721442937851
 20
235.09981860664979
 30
0.0
 11
102.7950850781054
 21
235.59981845577559
 31
0.0
  0
CIRCLE
  5
1C4D1
  8
0
 10
100.0
 20
233.09981851165489
 30
0.0
 40
15.0
  0
CIRCLE
  5
1C4D2
  8
0
 10
100.0
 20
233.09981851165489
 30
0.0
 40
18.899999999999999
  0
CIRCLE
  5
1C4D5
  8
0
 10
100.0
 20
233.09981851165489
 30
0.0
 40
10.99999999999998
  0
CIRCLE
  5
1C4D6
  8
0
 10
100.0
 20
233.09981851165489
 30
0.0
 40
8.7564190501028065
  0
CIRCLE
  5
1C4D8
  8
0
 10
100.0
 20
233.09981851165489
 30
0.0
 40
7.7951573541644796
  0
CIRCLE
  5
1C4D9
  8
0
 10
100.0
 20
233.09981851165489
 30
0.0
 40
6.4999999999999849
  0
ARC
  5
1C4EB
  8
0
 10
125.0
 20
233.09981851165489
 30
0.0
 40
7.0000000000000187
 50
142.05154346770681
 51
142.58514712561359
  0
ARC
  5
1C4EF
  8
0
 10
125.0
 20
233.09981851165489
 30
0.0
 40
6.9999999999999982
 50
217.4148528743863
 51
217.94845653229311
  0
ARC
  5
1C4F2
  8
0
 10
75.000000000000028
 20
233.099818511655
 30
0.0
 40
7.0
 50
37.414852874386348
 51
90.0
  0
ARC
  5
1C4F5
  8
0
 10
75.000000000000028
 20
233.099818511655
 30
0.0
 40
7.0000000000000151
 50
270.0
 51
322.58514712561367
  0
ARC
  5
1C4F8
  8
0
 10
125.0
 20
233.09981851165489
 30
0.0
 40
6.9999999999999893
 50
217.94845653229311
 51
270.0
  0
ARC
  5
1C4FB
  8
0
 10
125.0
 20
233.09981851165489
 30
0.0
 40
7.0000000000000187
 50
90.0
 51
142.05154346770681
  0
POLYLINE
  5
1C4FC
  8
0
 66
     1
 10
0.0
 20
0.0
 30
0.0
 70
   128
  0
VERTEX
  5
1E379
  8
0
 10
88.067667931318368
 20
250.0403600770733
 30
0.0
  0
VERTEX
  5
1E37A
  8
0
 10
88.882313482463445
 20
250.3368671077987
 30
0.0
  0
VERTEX
  5
1E37B
  8
0
 10
90.375544875860299
 20
250.88035902266711
 30
0.0
  0
VERTEX
  5
1E37C
  8
0
 10
91.498041898012247
 20
251.2889134723446
 30
0.0
  0
VERTEX
  5
1E37D
  8
0
 10
92.623961530625905
 20
251.69871589427191
 30
0.0
  0
VERTEX
  5
1E37E
  8
0
 10
93.355602957308378
 20
251.96344806139669
 30
0.0
  0
SEQEND
  5
1E37F
  8
0
  0
POLYLINE
  5
1C4FE
  8
0
 66
     1
 10
0.0
 20
0.0
 30
0.0
 70
   128
  0
VERTEX
  5
1E380
  8
0
 10
106.71661314883529
 20
251.9381665761419
 30
0.0
  0
VERTEX
  5
1E381
  8
0
 10
107.37603846937419
 20
251.69871589427191
 30
0.0
  0
VERTEX
  5
1E382
  8
0
 10
108.5012074559928
 20
251.2891872811814
 30
0.0
  0
VERTEX
  5
1E383
  8
0
 10
109.6244551241398
 20
250.88035902266699
 30
0.0
  0
VERTEX
  5
1E384
  8
0
 10
111.1176865175367
 20
250.33686710779861
 30
0.0
  0
VERTEX
  5
1E385
  8
0
 10
111.9323320686818
 20
250.04036007707319
 30
0.0
  0
SEQEND
  5
1E386
  8
0
  0
LINE
  5
1C500
  8
0
 10
70.131918787956295
 20
243.51228149866071
 30
0.0
 11
88.067667931318368
 21
250.0403600770733
 31
0.0
  0
LINE
  5
1C503
  8
0
 10
111.9323320686818
 20
250.04036007707319
 30
0.0
 11
129.86808121204379
 21
243.5122814986606
 31
0.0
  0
ARC
  5
1C50C
  8
0
 10
71.500000000000057
 20
239.753511194683
 30
0.0
 40
4.0000000000000027
 50
110.00000000000141
 51
153.33526156396471
  0
ARC
  5
1C50E
  8
0
 10
128.5
 20
239.7535111946828
 30
0.0
 40
3.9999999999999871
 50
26.66473843603524
 51
69.999999999998565
  0
ARC
  5
1C510
  8
0
 10
68.819056768921172
 20
241.099818511655
 30
0.0
 40
1.000000000000012
 50
153.33526156396471
 51
270.0
  0
ARC
  5
1C512
  8
0
 10
131.18094323107891
 20
241.0998185116548
 30
0.0
 40
1.0
 50
270.0
 51
26.66473843603524
  0
LINE
  5
1C514
  8
0
 10
74.999999627471027
 20
240.0998187277219
 30
0.0
 11
68.819057568907795
 21
240.09981872772201
 31
0.0
  0
LINE
  5
1C515
  8
0
 10
131.18094243109229
 20
240.09981872772181
 30
0.0
 11
125.0000003725291
 21
240.09981872772181
 31
0.0
  0
LINE
  5
1C51E
  8
0
 10
68.819057568907724
 20
226.09981829558831
 30
0.0
 11
74.99999962747097
 21
226.09981829558819
 31
0.0
  0
LINE
  5
1C520
  8
0
 10
125.000000372529
 20
226.09981829558811
 30
0.0
 11
131.18094243109221
 21
226.09981829558811
 31
0.0
  0
ARC
  5
1C522
  8
0
 10
131.1809432310788
 20
225.09981851165489
 30
0.0
 40
1.0
 50
333.3352615639651
 51
90.0
  0
ARC
  5
1C524
  8
0
 10
68.819056768921115
 20
225.09981851165509
 30
0.0
 40
1.0
 50
90.0
 51
206.66473843603529
  0
ARC
  5
1C526
  8
0
 10
71.5
 20
226.446125828627
 30
0.0
 40
4.0000000000000098
 50
206.66473843603529
 51
250.00000000000119
  0
ARC
  5
1C528
  8
0
 10
128.5
 20
226.44612582862689
 30
0.0
 40
4.0000000000000266
 50
290.00000000000142
 51
333.33526156396482
  0
LINE
  5
1C52A
  8
0
 10
88.067667931318226
 20
216.15927694623679
 30
0.0
 11
70.131918787956224
 21
222.68735552464929
 31
0.0
  0
LINE
  5
1C52C
  8
0
 10
129.86808121204371
 20
222.68735552464921
 30
0.0
 11
111.9323320686817
 21
216.1592769462367
 31
0.0
  0
POLYLINE
  5
1C52E
  8
0
 66
     1
 10
0.0
 20
0.0
 30
0.0
 70
   128
  0
VERTEX
  5
1E387
  8
0
 10
111.9323320686817
 20
216.1592769462367
 30
0.0
  0
VERTEX
  5
1E388
  8
0
 10
111.1176865175366
 20
215.86276991551119
 30
0.0
  0
VERTEX
  5
1E389
  8
0
 10
109.6244551241397
 20
215.31927800064281
 30
0.0
  0
VERTEX
  5
1E38A
  8
0
 10
108.5019581019878
 20
214.9107235509654
 30
0.0
  0
VERTEX
  5
1E38B
  8
0
 10
107.37603846937409
 20
214.50092112903789
 30
0.0
  0
VERTEX
  5
1E38C
  8
0
 10
106.64439704269159
 20
214.2361889619132
 30
0.0
  0
SEQEND
  5
1E38D
  8
0
  0
POLYLINE
  5
1C52F
  8
0
 66
     1
 10
0.0
 20
0.0
 30
0.0
 70
   128
  0
VERTEX
  5
1E38E
  8
0
 10
93.064278452271907
 20
214.34103314196321
 30
0.0
  0
VERTEX
  5
1E38F
  8
0
 10
92.623961530625763
 20
214.50092112903789
 30
0.0
  0
VERTEX
  5
1E390
  8
0
 10
91.498792544007244
 20
214.91044974212849
 30
0.0
  0
VERTEX
  5
1E391
  8
0
 10
90.375544875860157
 20
215.3192780006429
 30
0.0
  0
VERTEX
  5
1E392
  8
0
 10
88.882313482463303
 20
215.86276991551131
 30
0.0
  0
VERTEX
  5
1E393
  8
0
 10
88.067667931318226
 20
216.15927694623679
 30
0.0
  0
SEQEND
  5
1E394
  8
0
  0
ARC
  5
1C532
  8
0
 10
128.5
 20
239.75351119468289
 30
0.0
 40
4.0
 50
0.0
 51
26.66473843603524
  0
ARC
  5
1C535
  8
0
 10
71.5
 20
226.446125828627
 30
0.0
 40
4.0
 50
180.0
 51
206.66473843603529
  0
ARC
  5
1C538
  8
0
 10
71.500000000000057
 20
239.753511194683
 30
0.0
 40
4.0
 50
153.33526156396471
 51
180.0
  0
ARC
  5
1C53B
  8
0
 10
128.5
 20
226.44612582862689
 30
0.0
 40
4.0000000000000142
 50
333.33526156396482
 51
0.0
  0
LINE
  5
1C549
  8
0
 10
67.500001192092952
 20
238.59981848185279
 30
0.0
 11
67.500001192092952
 21
239.75351108496409
 31
0.0
  0
LINE
  5
1C54A
  8
0
 10
132.4999988079071
 20
239.75351108496389
 30
0.0
 11
132.4999988079071
 21
238.59981848185259
 31
0.0
  0
ARC
  5
1C54C
  8
0
 10
131.5
 20
238.59981851165489
 30
0.0
 40
1.0
 50
270.0
 51
0.0
  0
ARC
  5
1C54F
  8
0
 10
68.500000000000057
 20
238.5998185116552
 30
0.0
 40
1.0
 50
180.0
 51
270.0
  0
LINE
  5
1C550
  8
0
 10
131.50000050663951
 20
237.59981831793979
 30
0.0
 11
129.69041652977469
 21
237.59981831793979
 31
0.0
  0
LINE
  5
1C551
  8
0
 10
70.309583470225363
 20
237.59981831794011
 30
0.0
 11
68.499999493360548
 21
237.59981831794011
 31
0.0
  0
LINE
  5
1C552
  8
0
 10
129.69041652977461
 20
228.59981870537001
 30
0.0
 11
131.50000050663951
 21
228.59981870537001
 31
0.0
  0
LINE
  5
1C555
  8
0
 10
68.499999493360505
 20
228.59981870537021
 30
0.0
 11
70.309583470225334
 21
228.59981870537021
 31
0.0
  0
ARC
  5
1C556
  8
0
 10
131.5
 20
227.59981851165489
 30
0.0
 40
1.0
 50
0.0
 51
90.0
  0
ARC
  5
1C559
  8
0
 10
68.5
 20
227.59981851165509
 30
0.0
 40
1.0
 50
90.0
 51
180.0
  0
LINE
  5
1C55A
  8
0
 10
132.4999988079071
 20
227.59981854145721
 30
0.0
 11
132.4999988079071
 21
226.446125938346
 31
0.0
  0
LINE
  5
1C55B
  8
0
 10
67.500001192092896
 20
226.4461259383462
 30
0.0
 11
67.500001192092896
 21
227.59981854145749
 31
0.0
  0
LINE
  5
1C566
  8
0
 10
232.09999881684749
 20
109.70000028610229
 30
0.0
 11
231.79999886080591
 21
109.9999997764826
 31
0.0
  0
LINE
  5
1C567
  8
0
 10
219.3999985046681
 20
109.9999997764826
 30
0.0
 11
219.09999854862659
 21
109.70000028610229
 31
0.0
  0
LINE
  5
1C568
  8
0
 10
219.09999854862659
 20
107.3000001721084
 30
0.0
 11
219.3999985046681
 21
107.00000021606679
 31
0.0
  0
LINE
  5
1C569
  8
0
 10
231.79999886080591
 20
107.00000021606679
 30
0.0
 11
232.09999881684749
 21
107.3000001721084
 31
0.0
  0
LINE
  5
1C56A
  8
0
 10
219.09999854862659
 20
109.70000028610229
 30
0.0
 11
219.09999854862659
 21
107.3000001721084
 31
0.0
  0
LINE
  5
1C56B
  8
0
 10
232.09999881684749
 20
107.3000001721084
 30
0.0
 11
232.09999881684749
 21
109.70000028610229
 31
0.0
  0
LINE
  5
1C56C
  8
0
 10
205.84042003546961
 20
123.9164210024333
 30
0.0
 11
205.59999912977199
 21
123.4999991953373
 31
0.0
  0
LINE
  5
1C56D
  8
0
 10
205.59999912977199
 20
116.499999910593
 30
0.0
 11
205.84065744253741
 21
116.0831667295641
 31
0.0
  0
ARC
  5
1C56E
  8
0
 10
206.0534071239658
 20
109.5046192195706
 30
0.0
 40
0.4534088994011421
 50
179.88551021734281
 51
221.22958467086369
  0
LINE
  5
1C56F
  8
0
 10
205.59999912977199
 20
114.9999996647238
 30
0.0
 11
205.59999912977199
 21
109.5055252313614
 31
0.0
  0
LINE
  5
1C570
  8
0
 10
205.59999912977199
 20
129.51138280332091
 30
0.0
 11
205.59999912977199
 21
124.9888114631176
 31
0.0
  0
ARC
  5
1C571
  8
0
 10
186.98870074005359
 20
119.9992225122005
 30
0.0
 40
19.25439597611517
 50
345.35527475956877
 51
14.461443471162889
  0
ARC
  5
1C572
  8
0
 10
206.3711219332005
 20
125.0357806403625
 30
0.0
 40
0.7725519280789135
 50
183.4855861153282
 51
197.17965746748601
  0
ARC
  5
1C574
  8
0
 10
206.09480032458421
 20
115.0005756312972
 30
0.0
 40
0.494801530035037
 50
164.68851880609799
 51
180.06669433953411
  0
ARC
  5
1C575
  8
0
 10
245.15320750262049
 20
109.5000301527556
 30
0.0
 40
0.4467912093902612
 50
318.58678311417879
 51
359.91633775889471
  0
LINE
  5
1C576
  8
0
 10
245.59999823570229
 20
109.4993777566992
 30
0.0
 11
245.59999823570229
 21
129.51138280332091
 31
0.0
  0
LINE
  5
1C578
  8
0
 10
245.49999840557561
 20
137.49461472034449
 30
0.0
 11
245.49999840557561
 21
139.0000008046627
 31
0.0
  0
LINE
  5
1C579
  8
0
 10
205.69999895989881
 20
139.0000008046627
 30
0.0
 11
205.69999895989881
 21
137.49461472034449
 31
0.0
  0
ARC
  5
1C57A
  8
0
 10
206.6999986827372
 20
139.0
 30
0.0
 40
1.0
 50
90.0
 51
180.0
  0
ARC
  5
1C57B
  8
0
 10
244.49999868273721
 20
139.0
 30
0.0
 40
1.0
 50
0.0
 51
90.0
  0
LINE
  5
1C57C
  8
0
 10
245.0999990850685
 20
100.0
 30
0.0
 11
245.59999823570229
 21
100.5000000237487
 31
0.0
  0
LINE
  5
1C57D
  8
0
 10
245.59999823570229
 20
100.5000000237487
 30
0.0
 11
245.59999823570229
 21
109.0099442750215
 31
0.0
  0
LINE
  5
1C57E
  8
0
 10
205.59999912977199
 20
100.5000000237487
 30
0.0
 11
206.0999982804058
 21
100.0
 31
0.0
  0
LINE
  5
1C57F
  8
0
 10
205.59999912977199
 20
108.99999961256979
 30
0.0
 11
205.59999912977199
 21
100.5000000237487
 31
0.0
  0
LINE
  5
1C586
  8
0
 10
205.88867373764489
 20
123.67655647791
 30
0.0
 11
205.88867373764501
 21
116.32188854649129
 31
0.0
  0
LINE
  5
1C589
  8
0
 10
205.59999912977199
 20
116.499999910593
 30
0.0
 11
205.59999912977199
 21
123.4999991953372
 31
0.0
  0
LINE
  5
1C58A
  8
0
 10
245.19999891519529
 20
135.53668133637709
 30
0.0
 11
245.19999891519529
 21
131.4676836133003
 31
0.0
  0
LINE
  5
1C58C
  8
0
 10
205.99999845027909
 20
131.45826607942581
 30
0.0
 11
205.99999845027909
 21
135.52073985338211
 31
0.0
  0
POLYLINE
  5
1C58D
  8
0
 66
     1
 10
0.0
 20
0.0
 30
0.0
 70
   128
  0
VERTEX
  5
1E395
  8
0
 10
205.60110926628099
 20
109.5014069229364
 30
0.0
  0
VERTEX
  5
1E396
  8
0
 10
205.60110926628099
 20
109.5014069229364
 30
0.0
  0
VERTEX
  5
1E397
  8
0
 10
205.60414165258391
 20
109.5069473609328
 30
0.0
  0
SEQEND
  5
1E398
  8
0
  0
ARC
  5
1C58E
  8
0
 10
206.13234090814609
 20
130.1807500932957
 30
0.0
 40
0.4019585959528086
 50
116.851619556496
 51
169.97926250662209
  0
ARC
  5
1C58F
  8
0
 10
189.79160815116529
 20
132.8126941210605
 30
0.0
 40
16.149423573277431
 50
348.20428421692827
 51
350.87183003077621
  0
ARC
  5
1C590
  8
0
 10
245.05113622523581
 20
130.16886535266781
 30
0.0
 40
0.4203875292675306
 50
11.224133072005211
 51
61.82901682218715
  0
POLYLINE
  5
1C592
  8
0
 66
     1
 10
0.0
 20
0.0
 30
0.0
 70
   128
  0
VERTEX
  5
1E399
  8
0
 10
245.59999823570229
 20
129.51138280332091
 30
0.0
  0
VERTEX
  5
1E39A
  8
0
 10
245.59999823570229
 20
129.51138280332091
 30
0.0
  0
VERTEX
  5
1E39B
  8
0
 10
245.58114267885671
 20
129.5953750610351
 30
0.0
  0
VERTEX
  5
1E39C
  8
0
 10
245.5443945527075
 20
129.78800609707829
 30
0.0
  0
VERTEX
  5
1E39D
  8
0
 10
245.49073174595819
 20
130.0880745053291
 30
0.0
  0
VERTEX
  5
1E39E
  8
0
 10
245.46348311007009
 20
130.25069274008271
 30
0.0
  0
SEQEND
  5
1E39F
  8
0
  0
LINE
  5
1C59D
  8
0
 10
218.59999846667009
 20
107.00000021606679
 30
0.0
 11
232.59999889880379
 21
107.00000021606679
 31
0.0
  0
LINE
  5
1C5A8
  8
0
 10
230.09999848902191
 20
100.0000000000001
 30
0.0
 11
230.09999848902191
 21
107.00000021606689
 31
0.0
  0
LINE
  5
1C5B0
  8
0
 10
221.0999988764521
 20
107.00000021606689
 30
0.0
 11
221.0999988764521
 21
100.0000000000001
 31
0.0
  0
ARC
  5
1C5C6
  8
0
 10
233.39999868273691
 20
109.2
 30
0.0
 40
0.8000000000000113
 50
90.0
 51
180.0
  0
LINE
  5
1C5C9
  8
0
 10
232.59999889880379
 20
107.00000021606679
 30
0.0
 11
232.59999889880379
 21
109.20000020414589
 31
0.0
  0
ARC
  5
1C5CD
  8
0
 10
217.79999868273691
 20
109.2
 30
0.0
 40
0.8000000000000397
 50
0.0
 51
90.0
  0
LINE
  5
1C5CE
  8
0
 10
218.59999846667009
 20
109.20000020414589
 30
0.0
 11
218.59999846667009
 21
107.00000021606679
 31
0.0
  0
POLYLINE
  5
1C5E5
  8
0
 66
     1
 10
0.0
 20
0.0
 30
0.0
 70
   128
  0
VERTEX
  5
1E3A0
  8
0
 10
221.2953321449456
 20
112.89552822709079
 30
0.0
  0
VERTEX
  5
1E3A1
  8
0
 10
221.74699262715851
 20
112.6521317288279
 30
0.0
  0
VERTEX
  5
1E3A2
  8
0
 10
222.18479689210619
 20
112.2411558404565
 30
0.0
  0
VERTEX
  5
1E3A3
  8
0
 10
222.3837185464796
 20
111.90612372010941
 30
0.0
  0
VERTEX
  5
1E3A4
  8
0
 10
222.4629778228697
 20
111.5947509184479
 30
0.0
  0
VERTEX
  5
1E3A5
  8
0
 10
222.4620285723355
 20
111.3958278670907
 30
0.0
  0
VERTEX
  5
1E3A6
  8
0
 10
222.3714814335105
 20
111.065368540585
 30
0.0
  0
VERTEX
  5
1E3A7
  8
0
 10
222.12923139333699
 20
110.69119945168489
 30
0.0
  0
VERTEX
  5
1E3A8
  8
0
 10
221.63871170952891
 20
110.2763241156935
 30
0.0
  0
VERTEX
  5
1E3A9
  8
0
 10
221.2953321449456
 20
109.9999997764826
 30
0.0
  0
SEQEND
  5
1E3AA
  8
0
  0
LINE
  5
1C5E8
  8
0
 10
221.3469264842567
 20
112.86772441867041
 30
0.0
 11
221.3469264842567
 21
132.99999982118601
 31
0.0
  0
ARC
  5
1C5E9
  8
0
 10
222.447929676744
 20
133.09063694047791
 30
0.0
 40
1.104727621298885
 50
184.70610867227589
 51
279.16140711026191
  0
ARC
  5
1C5EA
  8
0
 10
228.76654099628939
 20
133.07215603277149
 30
0.0
 40
1.0889231881597889
 50
259.93190545723428
 51
356.2005787602298
  0
LINE
  5
1C5EB
  8
0
 10
229.85307088121741
 20
132.99999982118601
 30
0.0
 11
229.85307088121741
 21
112.87057898896271
 31
0.0
  0
POLYLINE
  5
1C5EE
  8
0
 66
     1
 10
0.0
 20
0.0
 30
0.0
 70
   128
  0
VERTEX
  5
1E3AB
  8
0
 10
229.9046652205285
 20
109.9999997764826
 30
0.0
  0
VERTEX
  5
1E3AC
  8
0
 10
229.64118661358921
 20
110.22911816835401
 30
0.0
  0
VERTEX
  5
1E3AD
  8
0
 10
229.0788868721572
 20
110.68185176700349
 30
0.0
  0
VERTEX
  5
1E3AE
  8
0
 10
228.85156500153209
 20
111.01631298661231
 30
0.0
  0
VERTEX
  5
1E3AF
  8
0
 10
228.74604173004599
 20
111.33633498102419
 30
0.0
  0
VERTEX
  5
1E3B0
  8
0
 10
228.74886573292289
 20
111.6798831149935
 30
0.0
  0
VERTEX
  5
1E3B1
  8
0
 10
228.84107295423721
 20
111.96201983839271
 30
0.0
  0
VERTEX
  5
1E3B2
  8
0
 10
229.0995908714828
 20
112.3414285480976
 30
0.0
  0
VERTEX
  5
1E3B3
  8
0
 10
229.6103859134015
 20
112.7532249316573
 30
0.0
  0
VERTEX
  5
1E3B4
  8
0
 10
229.9046652205285
 20
112.89552822709079
 30
0.0
  0
SEQEND
  5
1E3B5
  8
0
  0
POLYLINE
  5
1C5F4
  8
0
 66
     1
 10
0.0
 20
0.0
 30
0.0
 70
   128
  0
VERTEX
  5
1E3B6
  8
0
 10
205.89730896055681
 20
130.63888847827911
 30
0.0
  0
VERTEX
  5
1E3B7
  8
0
 10
205.9463803470133
 20
130.5477362126112
 30
0.0
  0
VERTEX
  5
1E3B8
  8
0
 10
206.24772280454621
 20
129.97528202831739
 30
0.0
  0
VERTEX
  5
1E3B9
  8
0
 10
206.63644939661009
 20
129.19816412031651
 30
0.0
  0
VERTEX
  5
1E3BA
  8
0
 10
207.12933138012869
 20
128.13384495675561
 30
0.0
  0
VERTEX
  5
1E3BB
  8
0
 10
207.6486182212827
 20
126.87328495085239
 30
0.0
  0
VERTEX
  5
1E3BC
  8
0
 10
208.02119754254801
 20
125.8303489536047
 30
0.0
  0
VERTEX
  5
1E3BD
  8
0
 10
208.3636858314274
 20
124.69761110842229
 30
0.0
  0
VERTEX
  5
1E3BE
  8
0
 10
208.65264356136299
 20
123.4932582825422
 30
0.0
  0
VERTEX
  5
1E3BF
  8
0
 10
208.90048153698419
 20
121.9568144530058
 30
0.0
  0
VERTEX
  5
1E3C0
  8
0
 10
209.0125457197426
 20
120.3655362129211
 30
0.0
  0
VERTEX
  5
1E3C1
  8
0
 10
208.9690753072498
 20
118.7601689249277
 30
0.0
  0
VERTEX
  5
1E3C2
  8
0
 10
208.78029063343979
 20
117.1906277537346
 30
0.0
  0
VERTEX
  5
1E3C3
  8
0
 10
208.47481869161109
 20
115.72805643081659
 30
0.0
  0
VERTEX
  5
1E3C4
  8
0
 10
208.08534517884229
 20
114.3650118261575
 30
0.0
  0
VERTEX
  5
1E3C5
  8
0
 10
207.59972006082509
 20
113.0000002682209
 30
0.0
  0
SEQEND
  5
1E3C6
  8
0
  0
POLYLINE
  5
1C5F5
  8
0
 66
     1
 10
0.0
 20
0.0
 30
0.0
 70
   128
  0
VERTEX
  5
1E3C7
  8
0
 10
205.89730896055681
 20
130.63888847827911
 30
0.0
  0
VERTEX
  5
1E3C8
  8
0
 10
205.96378862857799
 20
131.13975562155241
 30
0.0
  0
VERTEX
  5
1E3C9
  8
0
 10
206.0253341495989
 20
131.72307461500171
 30
0.0
  0
VERTEX
  5
1E3CA
  8
0
 10
206.07172518968571
 20
132.34092891216281
 30
0.0
  0
VERTEX
  5
1E3CB
  8
0
 10
206.10003367066369
 20
133.01152959465981
 30
0.0
  0
VERTEX
  5
1E3CC
  8
0
 10
206.10542602837069
 20
133.6684063076973
 30
0.0
  0
VERTEX
  5
1E3CD
  8
0
 10
206.0880792140959
 20
134.33962538838381
 30
0.0
  0
VERTEX
  5
1E3CE
  8
0
 10
206.05137020349491
 20
134.9624864757061
 30
0.0
  0
VERTEX
  5
1E3CF
  8
0
 10
205.9974484890698
 20
135.561554133892
 30
0.0
  0
VERTEX
  5
1E3D0
  8
0
 10
205.93417443335039
 20
136.09511628746981
 30
0.0
  0
VERTEX
  5
1E3D1
  8
0
 10
205.865845158696
 20
136.57031059265131
 30
0.0
  0
VERTEX
  5
1E3D2
  8
0
 10
205.80256551504121
 20
136.9537509977817
 30
0.0
  0
VERTEX
  5
1E3D3
  8
0
 10
205.7490498572586
 20
137.24835067987439
 30
0.0
  0
VERTEX
  5
1E3D4
  8
0
 10
205.71436740458
 20
137.42789477109909
 30
0.0
  0
VERTEX
  5
1E3D5
  8
0
 10
205.70013679563979
 20
137.4993160367012
 30
0.0
  0
VERTEX
  5
1E3D6
  8
0
 10
205.70107556879501
 20
137.49461472034449
 30
0.0
  0
SEQEND
  5
1E3D7
  8
0
  0
ARC
  5
1C5F6
  8
0
 10
265.01711073096658
 20
133.50220352266939
 30
0.0
 40
19.9212705592101
 50
168.43909548691991
 51
188.2638328098154
  0
POLYLINE
  5
1C5F7
  8
0
 66
     1
 10
0.0
 20
0.0
 30
0.0
 70
   128
  0
VERTEX
  5
1E3D8
  8
0
 10
243.6002773046491
 20
113.0000002682209
 30
0.0
  0
VERTEX
  5
1E3D9
  8
0
 10
243.08879308402521
 20
114.4466403871774
 30
0.0
  0
VERTEX
  5
1E3DA
  8
0
 10
242.64689728617651
 20
116.0519964993
 30
0.0
  0
VERTEX
  5
1E3DB
  8
0
 10
242.418764233589
 20
117.20421016216279
 30
0.0
  0
VERTEX
  5
1E3DC
  8
0
 10
242.2612775862215
 20
118.405482172966
 30
0.0
  0
VERTEX
  5
1E3DD
  8
0
 10
242.187580168247
 20
119.6287184953689
 30
0.0
  0
VERTEX
  5
1E3DE
  8
0
 10
242.2328815609215
 20
121.264661103487
 30
0.0
  0
VERTEX
  5
1E3DF
  8
0
 10
242.42870144546009
 20
122.862734273076
 30
0.0
  0
VERTEX
  5
1E3E0
  8
0
 10
242.7380421012638
 20
124.3232659995556
 30
0.0
  0
VERTEX
  5
1E3E1
  8
0
 10
243.13025929033739
 20
125.6833136081695
 30
0.0
  0
VERTEX
  5
1E3E2
  8
0
 10
243.6356973648069
 20
127.0906705409288
 30
0.0
  0
VERTEX
  5
1E3E3
  8
0
 10
244.1537362337111
 20
128.32052484154701
 30
0.0
  0
VERTEX
  5
1E3E4
  8
0
 10
244.51798766851411
 20
129.10427004098889
 30
0.0
  0
VERTEX
  5
1E3E5
  8
0
 10
244.8472698032854
 20
129.7701433300972
 30
0.0
  0
VERTEX
  5
1E3E6
  8
0
 10
245.12293569743619
 20
130.30218742787841
 30
0.0
  0
VERTEX
  5
1E3E7
  8
0
 10
245.3026884049176
 20
130.63888847827911
 30
0.0
  0
SEQEND
  5
1E3E8
  8
0
  0
LINE
  5
1C5F8
  8
0
 10
221.3469264842567
 20
132.99999982118601
 30
0.0
 11
229.85307088121741
 21
132.99999982118601
 31
0.0
  0
LINE
  5
1C5F9
  8
0
 10
206.69999912381161
 20
139.9999991059303
 30
0.0
 11
244.49999824166281
 21
139.9999991059303
 31
0.0
  0
LINE
  5
1C5FA
  8
0
 10
228.57617710716991
 20
132.00000151991841
 30
0.0
 11
222.62382025830419
 21
132.00000151991841
 31
0.0
  0
LINE
  5
1C5FC
  8
0
 10
229.9046652205285
 20
112.89552822709079
 30
0.0
 11
243.69629666209201
 21
112.89552822709079
 31
0.0
  0
POLYLINE
  5
1C5FD
  8
0
 66
     1
 10
0.0
 20
0.0
 30
0.0
 70
   128
  0
VERTEX
  5
1E3E9
  8
0
 10
244.96295310556869
 20
110.10447181761261
 30
0.0
  0
VERTEX
  5
1E3EA
  8
0
 10
244.95539076626281
 20
110.1069044321775
 30
0.0
  0
VERTEX
  5
1E3EB
  8
0
 10
244.53396916389451
 20
110.28288993984459
 30
0.0
  0
VERTEX
  5
1E3EC
  8
0
 10
244.163358658552
 20
110.50583925098179
 30
0.0
  0
VERTEX
  5
1E3ED
  8
0
 10
243.6395977437495
 20
110.9638553112745
 30
0.0
  0
VERTEX
  5
1E3EE
  8
0
 10
243.2509214431046
 20
111.5423193201422
 30
0.0
  0
VERTEX
  5
1E3EF
  8
0
 10
243.15434329211689
 20
111.8289394304156
 30
0.0
  0
VERTEX
  5
1E3F0
  8
0
 10
243.12873937189559
 20
112.1432794257998
 30
0.0
  0
VERTEX
  5
1E3F1
  8
0
 10
243.20406474173049
 20
112.4436914920807
 30
0.0
  0
VERTEX
  5
1E3F2
  8
0
 10
243.4135434031484
 20
112.72229664027689
 30
0.0
  0
VERTEX
  5
1E3F3
  8
0
 10
243.69629666209201
 20
112.89552822709079
 30
0.0
  0
SEQEND
  5
1E3F4
  8
0
  0
LINE
  5
1C5FE
  8
0
 10
207.50370070338229
 20
112.89552822709079
 30
0.0
 11
221.2953321449456
 21
112.89552822709079
 31
0.0
  0
POLYLINE
  5
1C600
  8
0
 66
     1
 10
0.0
 20
0.0
 30
0.0
 70
   128
  0
VERTEX
  5
1E3F5
  8
0
 10
207.50370070338229
 20
112.89552822709079
 30
0.0
  0
VERTEX
  5
1E3F6
  8
0
 10
207.53670863807179
 20
112.88119982928031
 30
0.0
  0
VERTEX
  5
1E3F7
  8
0
 10
207.80958615243409
 20
112.70129252225161
 30
0.0
  0
VERTEX
  5
1E3F8
  8
0
 10
207.9753839224575
 20
112.48522289097311
 30
0.0
  0
VERTEX
  5
1E3F9
  8
0
 10
208.0710884928701
 20
112.14566361159081
 30
0.0
  0
VERTEX
  5
1E3FA
  8
0
 10
207.98287361860261
 20
111.6232195869088
 30
0.0
  0
VERTEX
  5
1E3FB
  8
0
 10
207.7451702952383
 20
111.19205914437769
 30
0.0
  0
VERTEX
  5
1E3FC
  8
0
 10
207.4079197645186
 20
110.8079435303807
 30
0.0
  0
VERTEX
  5
1E3FD
  8
0
 10
206.95871867239461
 20
110.4532046243548
 30
0.0
  0
VERTEX
  5
1E3FE
  8
0
 10
206.3990701735018
 20
110.16220543533559
 30
0.0
  0
VERTEX
  5
1E3FF
  8
0
 10
206.23704425990559
 20
110.10447181761261
 30
0.0
  0
SEQEND
  5
1E400
  8
0
  0
LINE
  5
1C603
  8
0
 10
206.23704425990559
 20
110.10447181761261
 30
0.0
 11
206.1834466457365
 21
109.9999997764826
 31
0.0
  0
LINE
  5
1C604
  8
0
 10
245.01655071973781
 20
109.9999997764826
 30
0.0
 11
206.1834466457365
 21
109.9999997764826
 31
0.0
  0
LINE
  5
1C606
  8
0
 10
245.01655071973781
 20
109.9999997764826
 30
0.0
 11
244.96295310556869
 21
110.10447181761261
 31
0.0
  0
LINE
  5
1C607
  8
0
 10
243.69629666209201
 20
112.89552822709079
 30
0.0
 11
243.6002773046491
 21
113.0000002682209
 31
0.0
  0
LINE
  5
1C60A
  8
0
 10
207.59972006082509
 20
113.0000002682209
 30
0.0
 11
207.50370070338229
 21
112.89552822709079
 31
0.0
  0
ARC
  5
1C60D
  8
0
 10
263.33654455831191
 20
119.1319074483323
 30
0.0
 40
20.421537991442602
 50
207.43890368691271
 51
209.7127112329959
  0
LINE
  5
1C60E
  8
0
 10
245.01655071973781
 20
109.9999997764826
 30
0.0
 11
245.21237432956681
 21
109.7216116264462
 31
0.0
  0
LINE
  5
1C60F
  8
0
 10
205.9876230359076
 20
109.7216116264462
 30
0.0
 11
206.1834466457365
 21
109.9999997764826
 31
0.0
  0
ARC
  5
1C610
  8
0
 10
169.7167426528745
 20
128.7401035217413
 30
0.0
 40
40.954606550810603
 50
331.18391943065018
 51
332.3299090100586
  0
LINE
  5
1C612
  8
0
 10
245.0999990850685
 20
100.0
 30
0.0
 11
206.0999982804058
 21
100.0
 31
0.0
  0
POLYLINE
  5
1C618
  8
0
 66
     1
 10
0.0
 20
0.0
 30
0.0
 70
   128
  0
VERTEX
  5
1E401
  8
0
 10
205.60414165258391
 20
109.5069473609328
 30
0.0
  0
VERTEX
  5
1E402
  8
0
 10
205.67884862422929
 20
109.6434755250811
 30
0.0
  0
VERTEX
  5
1E403
  8
0
 10
205.83029843866811
 20
109.922563098371
 30
0.0
  0
VERTEX
  5
1E404
  8
0
 10
206.05153225362281
 20
110.3415753692388
 30
0.0
  0
VERTEX
  5
1E405
  8
0
 10
206.32949665188769
 20
110.8886463567614
 30
0.0
  0
VERTEX
  5
1E406
  8
0
 10
206.81186772882921
 20
111.9023947045207
 30
0.0
  0
VERTEX
  5
1E407
  8
0
 10
207.33914159238321
 20
113.1447557359934
 30
0.0
  0
VERTEX
  5
1E408
  8
0
 10
207.80742920935131
 20
114.43760097026821
 30
0.0
  0
VERTEX
  5
1E409
  8
0
 10
208.2246021181343
 20
115.8771555870771
 30
0.0
  0
VERTEX
  5
1E40A
  8
0
 10
208.54280151426769
 20
117.4417737871408
 30
0.0
  0
VERTEX
  5
1E40B
  8
0
 10
208.72125968337039
 20
119.09152790904039
 30
0.0
  0
VERTEX
  5
1E40C
  8
0
 10
208.73682208359219
 20
120.571056753397
 30
0.0
  0
VERTEX
  5
1E40D
  8
0
 10
208.65346126258351
 20
121.7225216329097
 30
0.0
  0
VERTEX
  5
1E40E
  8
0
 10
208.49431127309779
 20
122.8495746850967
 30
0.0
  0
VERTEX
  5
1E40F
  8
0
 10
208.2722951471803
 20
123.9273998886347
 30
0.0
  0
VERTEX
  5
1E410
  8
0
 10
208.2147170603273
 20
124.1622738540172
 30
0.0
  0
VERTEX
  5
1E411
  8
0
 10
207.7416908740995
 20
125.7591195404529
 30
0.0
  0
VERTEX
  5
1E412
  8
0
 10
207.2127573937176
 20
127.1691996604204
 30
0.0
  0
VERTEX
  5
1E413
  8
0
 10
206.73636913299541
 20
128.26267294585699
 30
0.0
  0
VERTEX
  5
1E414
  8
0
 10
206.30365245044209
 20
129.16320227086541
 30
0.0
  0
VERTEX
  5
1E415
  8
0
 10
205.97304411232449
 20
129.8083387315273
 30
0.0
  0
VERTEX
  5
1E416
  8
0
 10
205.7365142554043
 20
130.25069274008271
 30
0.0
  0
SEQEND
  5
1E417
  8
0
  0
POLYLINE
  5
1C61B
  8
0
 66
     1
 10
0.0
 20
0.0
 30
0.0
 70
   128
  0
VERTEX
  5
1E418
  8
0
 10
245.46348311007009
 20
130.25069274008271
 30
0.0
  0
VERTEX
  5
1E419
  8
0
 10
245.28791949152929
 20
129.9236215651035
 30
0.0
  0
VERTEX
  5
1E41A
  8
0
 10
245.05179010331611
 20
129.47048284113399
 30
0.0
  0
VERTEX
  5
1E41B
  8
0
 10
244.5934396982191
 20
128.54089625179759
 30
0.0
  0
VERTEX
  5
1E41C
  8
0
 10
244.06684756278969
 20
127.3611433804035
 30
0.0
  0
VERTEX
  5
1E41D
  8
0
 10
243.59282858669741
 20
126.1446051299572
 30
0.0
  0
VERTEX
  5
1E41E
  8
0
 10
243.15010204911209
 20
124.7747581452131
 30
0.0
  0
VERTEX
  5
1E41F
  8
0
 10
242.81592302024339
 20
123.4259571880102
 30
0.0
  0
VERTEX
  5
1E420
  8
0
 10
242.57621362805349
 20
121.99058048427101
 30
0.0
  0
VERTEX
  5
1E421
  8
0
 10
242.484517470002
 20
121.0018418729305
 30
0.0
  0
VERTEX
  5
1E422
  8
0
 10
242.45299965143181
 20
119.99999955296509
 30
0.0
  0
VERTEX
  5
1E423
  8
0
 10
242.50555604696251
 20
118.7013167887926
 30
0.0
  0
VERTEX
  5
1E424
  8
0
 10
242.72512465715391
 20
117.0410946011543
 30
0.0
  0
VERTEX
  5
1E425
  8
0
 10
243.07901047170139
 20
115.4799362644553
 30
0.0
  0
VERTEX
  5
1E426
  8
0
 10
243.17384332418419
 20
115.1429362595081
 30
0.0
  0
VERTEX
  5
1E427
  8
0
 10
243.66904802620391
 20
113.64628132432701
 30
0.0
  0
VERTEX
  5
1E428
  8
0
 10
244.19411279261089
 20
112.3403603211045
 30
0.0
  0
VERTEX
  5
1E429
  8
0
 10
244.6477674692868
 20
111.34503912180659
 30
0.0
  0
VERTEX
  5
1E42A
  8
0
 10
245.0447455793618
 20
110.54327841848129
 30
0.0
  0
VERTEX
  5
1E42B
  8
0
 10
245.33991150557981
 20
109.9784387275576
 30
0.0
  0
VERTEX
  5
1E42C
  8
0
 10
245.5308344960211
 20
109.62577201426031
 30
0.0
  0
VERTEX
  5
1E42D
  8
0
 10
245.59999823570229
 20
109.4993777566992
 30
0.0
  0
SEQEND
  5
1E42E
  8
0
  0
LINE
  5
1C61E
  8
0
 10
245.49999840557561
 20
139.0000008046627
 30
0.0
 11
205.69999895989881
 21
139.0000008046627
 31
0.0
  0
ARC
  5
1C6EA
  8
5
 10
110.5216077236242
 20
252.6436525169517
 30
0.0
 40
0.4785466715902829
 50
358.54424633039309
 51
59.841897404276452
  0
LINE
  5
1C6EC
  8
5
 10
110.9999999403954
 20
249.68324443583711
 30
0.0
 11
110.9999999403954
 21
252.63149505739429
 31
0.0
  0
LINE
  5
1C6ED
  8
5
 10
89.00000005960473
 20
252.64726793651801
 30
0.0
 11
89.00000005960473
 21
249.68324443583711
 31
0.0
  0
ARC
  5
1C711
  8
5
 10
102.26782543328299
 20
255.53928543031441
 30
0.0
 40
0.5280318460739011
 50
357.51565221760342
 51
82.930762039784994
  0
ARC
  5
1C712
  8
5
 10
99.998816884480078
 20
236.1965008527765
 30
0.0
 40
20.003433704819059
 50
57.447786582917033
 51
83.299488452395906
  0
ARC
  5
1C714
  8
5
 10
97.740140052716839
 20
255.5325485404598
 30
0.0
 40
0.5357445539587019
 50
97.8259926122997
 51
181.727593130315
  0
LINE
  5
1C715
  8
5
 10
102.7953609824182
 20
255.51639711742621
 30
0.0
 11
102.7953609824181
 21
252.80250823383551
 31
0.0
  0
LINE
  5
1C716
  8
5
 10
97.204639017582025
 20
252.80250823383551
 30
0.0
 11
97.204639017582082
 21
255.51639711742621
 31
0.0
  0
ARC
  5
1C717
  8
5
 10
100.0000000000001
 20
236.1732265378117
 30
0.0
 40
20.026411379568781
 50
83.310619707810361
 51
96.689380292189625
  0
ARC
  5
1C7CB
  8
5
 10
202.9976911616121
 20
109.4977200086325
 30
0.0
 40
0.4977535539182204
 50
179.10151389913131
 51
270.66134195143712
  0
LINE
  5
1C7CC
  8
5
 10
202.4999988079071
 20
114.9999996647238
 30
0.0
 11
202.4999988079071
 21
109.5055252313614
 31
0.0
  0
LINE
  5
1C7CD
  8
5
 10
202.4999988079071
 20
129.51138280332091
 30
0.0
 11
202.4999988079071
 21
124.9888114631176
 31
0.0
  0
LINE
  5
1C7CE
  8
5
 10
203.0034364014864
 20
108.99999961256979
 30
0.0
 11
205.59999912977219
 21
108.99999961256979
 31
0.0
  0
ARC
  5
1C7D2
  8
5
 10
248.19580991336571
 20
109.50418946682311
 30
0.0
 40
0.5041904136425608
 50
270.0853488000289
 51
0.1517953493833693
  0
LINE
  5
1C7D3
  8
5
 10
248.6999985575676
 20
123.45675602555271
 30
0.0
 11
248.6999985575676
 21
129.51138280332091
 31
0.0
  0
LINE
  5
1C7D4
  8
5
 10
248.6999985575676
 20
109.5055252313614
 30
0.0
 11
248.6999985575676
 21
116.50746911764141
 31
0.0
  0
LINE
  5
1C7D5
  8
5
 10
245.59999823570249
 20
108.99999961256979
 30
0.0
 11
248.1965609639883
 21
108.99999961256979
 31
0.0
  0
ARC
  5
1C7F4
  8
5
 10
203.16010519328711
 20
130.09238562818541
 30
0.0
 40
0.5469999533468338
 50
87.55713097037922
 51
163.17737893785991
  0
ARC
  5
1C7F5
  8
5
 10
186.72121733969689
 20
132.8072266630555
 30
0.0
 40
16.11932167832391
 50
348.20179302239359
 51
350.87432122531681
  0
LINE
  5
1C7F8
  8
5
 10
205.89730896055701
 20
130.63888847827911
 30
0.0
 11
203.18342007696631
 21
130.63888847827911
 31
0.0
  0
ARC
  5
1C7F9
  8
5
 10
248.05157906888249
 20
130.1088506095625
 30
0.0
 40
0.5311923068936482
 50
15.48736991886299
 51
93.778120172886474
  0
POLYLINE
  5
1C7FA
  8
5
 66
     1
 10
0.0
 20
0.0
 30
0.0
 70
   128
  0
VERTEX
  5
1E42F
  8
5
 10
248.69663462042811
 20
109.5055252313614
 30
0.0
  0
VERTEX
  5
1E430
  8
5
 10
248.69888842105871
 20
109.5014069229364
 30
0.0
  0
VERTEX
  5
1E431
  8
5
 10
248.6959417164326
 20
109.5067918300628
 30
0.0
  0
SEQEND
  5
1E432
  8
5
  0
ARC
  5
1C7FB
  8
5
 10
267.77581010457578
 20
120.0114465691583
 30
0.0
 40
19.384445914889721
 50
169.76209739100949
 51
180.0338346402485
  0
ARC
  5
1C7FD
  8
5
 10
268.51847331664391
 20
120.0187073550405
 30
0.0
 40
20.127114441367929
 50
180.0532554361107
 51
190.0468355950309
  0
POLYLINE
  5
1C7FE
  8
5
 66
     1
 10
0.0
 20
0.0
 30
0.0
 70
   128
  0
VERTEX
  5
1E433
  8
5
 10
248.6999985575676
 20
129.51138280332091
 30
0.0
  0
VERTEX
  5
1E434
  8
5
 10
248.6999985575676
 20
129.51138280332091
 30
0.0
  0
VERTEX
  5
1E435
  8
5
 10
248.68114113807681
 20
129.5953750610351
 30
0.0
  0
VERTEX
  5
1E436
  8
5
 10
248.6443930119276
 20
129.78800609707829
 30
0.0
  0
VERTEX
  5
1E437
  8
5
 10
248.59073020517829
 20
130.0880745053291
 30
0.0
  0
VERTEX
  5
1E438
  8
5
 10
248.56348343193531
 20
130.25069274008271
 30
0.0
  0
SEQEND
  5
1E439
  8
5
  0
LINE
  5
1C7FF
  8
5
 10
248.01657728850839
 20
130.63888847827911
 30
0.0
 11
245.30268840491769
 21
130.63888847827911
 31
0.0
  0
POLYLINE
  5
1C888
  8
5
 66
     1
 10
0.0
 20
0.0
 30
0.0
 70
   128
  0
VERTEX
  5
1E43A
  8
5
 10
203.18342007696631
 20
130.63888847827911
 30
0.0
  0
VERTEX
  5
1E43B
  8
5
 10
203.39873999357221
 20
130.20329959690571
 30
0.0
  0
VERTEX
  5
1E43C
  8
5
 10
203.68606045842159
 20
129.59954552352431
 30
0.0
  0
VERTEX
  5
1E43D
  8
5
 10
204.10310111939901
 20
128.66716310381889
 30
0.0
  0
VERTEX
  5
1E43E
  8
5
 10
204.57243740558619
 20
127.51058898866169
 30
0.0
  0
VERTEX
  5
1E43F
  8
5
 10
205.08209250867361
 20
126.05297602713109
 30
0.0
  0
VERTEX
  5
1E440
  8
5
 10
205.54934822022909
 20
124.3604779243469
 30
0.0
  0
VERTEX
  5
1E441
  8
5
 10
205.88679060339919
 20
122.5658491253853
 30
0.0
  0
VERTEX
  5
1E442
  8
5
 10
205.99816560745231
 20
121.59066684544079
 30
0.0
  0
VERTEX
  5
1E443
  8
5
 10
206.05840168893329
 20
120.5982495099306
 30
0.0
  0
VERTEX
  5
1E444
  8
5
 10
206.0432267189025
 20
119.04826797544951
 30
0.0
  0
VERTEX
  5
1E445
  8
5
 10
205.87456792592991
 20
117.34868995845321
 30
0.0
  0
VERTEX
  5
1E446
  8
5
 10
205.55898740887631
 20
115.6808290630579
 30
0.0
  0
VERTEX
  5
1E447
  8
5
 10
205.15832126140589
 20
114.1922058537602
 30
0.0
  0
VERTEX
  5
1E448
  8
5
 10
204.69566255807871
 20
112.8183150663972
 30
0.0
  0
VERTEX
  5
1E449
  8
5
 10
204.18890386819831
 20
111.5346042439341
 30
0.0
  0
VERTEX
  5
1E44A
  8
5
 10
203.71125832200039
 20
110.45477297157051
 30
0.0
  0
VERTEX
  5
1E44B
  8
5
 10
203.3297252655029
 20
109.655624628067
 30
0.0
  0
VERTEX
  5
1E44C
  8
5
 10
203.0768786370754
 20
109.15030762553209
 30
0.0
  0
VERTEX
  5
1E44D
  8
5
 10
203.00017490983009
 20
109.0003442019224
 30
0.0
  0
VERTEX
  5
1E44E
  8
5
 10
203.00017490983009
 20
109.0003442019224
 30
0.0
  0
SEQEND
  5
1E44F
  8
5
  0
POLYLINE
  5
1C889
  8
5
 66
     1
 10
0.0
 20
0.0
 30
0.0
 70
   128
  0
VERTEX
  5
1E450
  8
5
 10
202.50399976968771
 20
109.5066875219345
 30
0.0
  0
VERTEX
  5
1E451
  8
5
 10
202.5788501650095
 20
109.6434755250811
 30
0.0
  0
VERTEX
  5
1E452
  8
5
 10
202.83300809562209
 20
110.1153207942843
 30
0.0
  0
VERTEX
  5
1E453
  8
5
 10
203.2294963300227
 20
110.8886463567614
 30
0.0
  0
VERTEX
  5
1E454
  8
5
 10
203.71186740696419
 20
111.9023947045207
 30
0.0
  0
VERTEX
  5
1E455
  8
5
 10
204.23914127051819
 20
113.1447557359934
 30
0.0
  0
VERTEX
  5
1E456
  8
5
 10
204.70743075013149
 20
114.43760097026821
 30
0.0
  0
VERTEX
  5
1E457
  8
5
 10
205.12460365891451
 20
115.8771555870771
 30
0.0
  0
VERTEX
  5
1E458
  8
5
 10
205.44280119240281
 20
117.4417737871408
 30
0.0
  0
VERTEX
  5
1E459
  8
5
 10
205.62125936150539
 20
119.09152790904039
 30
0.0
  0
VERTEX
  5
1E45A
  8
5
 10
205.6368217617273
 20
120.571056753397
 30
0.0
  0
VERTEX
  5
1E45B
  8
5
 10
205.48255190253249
 20
122.29065075516699
 30
0.0
  0
VERTEX
  5
1E45C
  8
5
 10
205.17229668796051
 20
123.9273998886347
 30
0.0
  0
VERTEX
  5
1E45D
  8
5
 10
205.11471673846239
 20
124.1622738540172
 30
0.0
  0
VERTEX
  5
1E45E
  8
5
 10
204.64169055223459
 20
125.7591195404529
 30
0.0
  0
VERTEX
  5
1E45F
  8
5
 10
204.1127570718526
 20
127.1691996604204
 30
0.0
  0
VERTEX
  5
1E460
  8
5
 10
203.63637067377559
 20
128.26267294585699
 30
0.0
  0
VERTEX
  5
1E461
  8
5
 10
203.2036521285772
 20
129.16320227086541
 30
0.0
  0
VERTEX
  5
1E462
  8
5
 10
202.8730437904596
 20
129.8083387315273
 30
0.0
  0
VERTEX
  5
1E463
  8
5
 10
202.63651393353939
 20
130.25069274008271
 30
0.0
  0
SEQEND
  5
1E464
  8
5
  0
POLYLINE
  5
1C88A
  8
5
 66
     1
 10
0.0
 20
0.0
 30
0.0
 70
   128
  0
VERTEX
  5
1E465
  8
5
 10
202.4999988079071
 20
124.9888114631176
 30
0.0
  0
VERTEX
  5
1E466
  8
5
 10
202.4999988079071
 20
124.9888114631176
 30
0.0
  0
VERTEX
  5
1E467
  8
5
 10
202.5264725834131
 20
124.8983651399612
 30
0.0
  0
VERTEX
  5
1E468
  8
5
 10
202.58331120014191
 20
124.67318437993519
 30
0.0
  0
VERTEX
  5
1E469
  8
5
 10
202.6684787869454
 20
124.3151541799307
 30
0.0
  0
VERTEX
  5
1E46A
  8
5
 10
202.769849523902
 20
123.8481387495994
 30
0.0
  0
VERTEX
  5
1E46B
  8
5
 10
202.8815337270498
 20
123.26044626533979
 30
0.0
  0
VERTEX
  5
1E46C
  8
5
 10
202.98762068152431
 20
122.5853826850652
 30
0.0
  0
VERTEX
  5
1E46D
  8
5
 10
203.0796819180249
 20
121.8102522194385
 30
0.0
  0
VERTEX
  5
1E46E
  8
5
 10
203.14075991511339
 20
121.01259492337699
 30
0.0
  0
VERTEX
  5
1E46F
  8
5
 10
203.1679694354533
 20
120.1566852629184
 30
0.0
  0
VERTEX
  5
1E470
  8
5
 10
203.15705619752401
 20
119.34748329222199
 30
0.0
  0
VERTEX
  5
1E471
  8
5
 10
203.11020880937571
 20
118.53346079587929
 30
0.0
  0
VERTEX
  5
1E472
  8
5
 10
203.03571045398709
 20
117.7858732640743
 30
0.0
  0
VERTEX
  5
1E473
  8
5
 10
202.938176766038
 20
117.080957069993
 30
0.0
  0
VERTEX
  5
1E474
  8
5
 10
202.8294690698385
 20
116.45386591553689
 30
0.0
  0
VERTEX
  5
1E475
  8
5
 10
202.71909616887569
 20
115.9116685390472
 30
0.0
  0
VERTEX
  5
1E476
  8
5
 10
202.6223429292441
 20
115.4875656589865
 30
0.0
  0
VERTEX
  5
1E477
  8
5
 10
202.5476080179215
 20
115.18421247601511
 30
0.0
  0
VERTEX
  5
1E478
  8
5
 10
202.4999988079071
 20
114.9999996647238
 30
0.0
  0
SEQEND
  5
1E479
  8
5
  0
POLYLINE
  5
1C88B
  8
5
 66
     1
 10
0.0
 20
0.0
 30
0.0
 70
   128
  0
VERTEX
  5
1E47A
  8
5
 10
248.1983993947506
 20
109.003123268485
 30
0.0
  0
VERTEX
  5
1E47B
  8
5
 10
248.132564201951
 20
109.1317603364587
 30
0.0
  0
VERTEX
  5
1E47C
  8
5
 10
247.94986665248871
 20
109.4946529716253
 30
0.0
  0
VERTEX
  5
1E47D
  8
5
 10
247.6586271822452
 20
110.09295787662261
 30
0.0
  0
VERTEX
  5
1E47E
  8
5
 10
247.27619633078569
 20
110.9228119254112
 30
0.0
  0
VERTEX
  5
1E47F
  8
5
 10
246.829258352518
 20
111.9756152853369
 30
0.0
  0
VERTEX
  5
1E480
  8
5
 10
246.32319070398799
 20
113.32666911184781
 30
0.0
  0
VERTEX
  5
1E481
  8
5
 10
245.83449780941001
 20
114.9116478860378
 30
0.0
  0
VERTEX
  5
1E482
  8
5
 10
245.4351411014795
 20
116.67638868093491
 30
0.0
  0
VERTEX
  5
1E483
  8
5
 10
245.28483495116231
 20
117.64522865414619
 30
0.0
  0
VERTEX
  5
1E484
  8
5
 10
245.18291659653181
 20
118.63947510719299
 30
0.0
  0
VERTEX
  5
1E485
  8
5
 10
245.13167522847641
 20
119.99999955296509
 30
0.0
  0
VERTEX
  5
1E486
  8
5
 10
245.16179047524921
 20
121.04268595576281
 30
0.0
  0
VERTEX
  5
1E487
  8
5
 10
245.25180839002121
 20
122.0853704959154
 30
0.0
  0
VERTEX
  5
1E488
  8
5
 10
245.48130862414831
 20
123.56996387243269
 30
0.0
  0
VERTEX
  5
1E489
  8
5
 10
245.8113488554954
 20
125.00212751328939
 30
0.0
  0
VERTEX
  5
1E48A
  8
5
 10
246.2371234595775
 20
126.41967125236989
 30
0.0
  0
VERTEX
  5
1E48B
  8
5
 10
246.7051763832568
 20
127.7116727083921
 30
0.0
  0
VERTEX
  5
1E48C
  8
5
 10
247.21112109720701
 20
128.93009223043919
 30
0.0
  0
VERTEX
  5
1E48D
  8
5
 10
247.66549475491041
 20
129.9214571714401
 30
0.0
  0
VERTEX
  5
1E48E
  8
5
 10
247.8600443154574
 20
130.32356128096581
 30
0.0
  0
VERTEX
  5
1E48F
  8
5
 10
248.01657728850839
 20
130.63888847827911
 30
0.0
  0
SEQEND
  5
1E490
  8
5
  0
POLYLINE
  5
1C88C
  8
5
 66
     1
 10
0.0
 20
0.0
 30
0.0
 70
   128
  0
VERTEX
  5
1E491
  8
5
 10
248.56348343193531
 20
130.25069274008271
 30
0.0
  0
VERTEX
  5
1E492
  8
5
 10
248.3879198133946
 20
129.9236215651035
 30
0.0
  0
VERTEX
  5
1E493
  8
5
 10
248.1517885625363
 20
129.47048284113399
 30
0.0
  0
VERTEX
  5
1E494
  8
5
 10
247.6934400200843
 20
128.54089625179759
 30
0.0
  0
VERTEX
  5
1E495
  8
5
 10
247.16684788465491
 20
127.3611433804035
 30
0.0
  0
VERTEX
  5
1E496
  8
5
 10
246.6928289085626
 20
126.1446051299572
 30
0.0
  0
VERTEX
  5
1E497
  8
5
 10
246.25010237097729
 20
124.7747581452131
 30
0.0
  0
VERTEX
  5
1E498
  8
5
 10
245.91592147946349
 20
123.4259571880102
 30
0.0
  0
VERTEX
  5
1E499
  8
5
 10
245.67621394991869
 20
121.99058048427101
 30
0.0
  0
VERTEX
  5
1E49A
  8
5
 10
245.5845177918672
 20
121.0018418729305
 30
0.0
  0
VERTEX
  5
1E49B
  8
5
 10
245.55299997329701
 20
119.99999955296509
 30
0.0
  0
VERTEX
  5
1E49C
  8
5
 10
245.60555450618261
 20
118.7013167887926
 30
0.0
  0
VERTEX
  5
1E49D
  8
5
 10
245.82512497901911
 20
117.0410946011543
 30
0.0
  0
VERTEX
  5
1E49E
  8
5
 10
246.1790089309215
 20
115.4799362644553
 30
0.0
  0
VERTEX
  5
1E49F
  8
5
 10
246.27384364604939
 20
115.1429362595081
 30
0.0
  0
VERTEX
  5
1E4A0
  8
5
 10
246.76904648542401
 20
113.64628132432701
 30
0.0
  0
VERTEX
  5
1E4A1
  8
5
 10
247.294111251831
 20
112.3403603211045
 30
0.0
  0
VERTEX
  5
1E4A2
  8
5
 10
247.74776779115189
 20
111.34503912180659
 30
0.0
  0
VERTEX
  5
1E4A3
  8
5
 10
248.144745901227
 20
110.54327841848129
 30
0.0
  0
VERTEX
  5
1E4A4
  8
5
 10
248.439911827445
 20
109.9784387275576
 30
0.0
  0
VERTEX
  5
1E4A5
  8
5
 10
248.63083481788641
 20
109.62577201426031
 30
0.0
  0
VERTEX
  5
1E4A6
  8
5
 10
248.69663462042811
 20
109.5055252313614
 30
0.0
  0
SEQEND
  5
1E4A7
  8
5
  0
POLYLINE
  5
1D241
  8
0
 66
     1
 10
0.0
 20
0.0
 30
0.0
 70
   128
  0
VERTEX
  5
1E4A8
  8
0
 10
106.64439704269159
 20
214.2361889619132
 30
0.0
  0
VERTEX
  5
1E4A9
  8
0
 10
105.2584204822778
 20
213.80347227935991
 30
0.0
  0
VERTEX
  5
1E4AA
  8
0
 10
103.8421032950281
 20
213.47286394124231
 30
0.0
  0
VERTEX
  5
1E4AB
  8
0
 10
102.33280961401751
 20
213.23633408432201
 30
0.0
  0
SEQEND
  5
1E4AC
  8
0
  0
LINE
  5
1D2F3
  8
1
 10
100.0
 20
261.19963791738053
 30
0.0
 11
100.0
 21
204.99999910592959
 31
0.0
  0
LINE
  5
1D2F4
  8
1
 10
125.0
 20
242.599818511655
 30
0.0
 11
125.0
 21
223.599818511655
 31
0.0
  0
LINE
  5
1D2F5
  8
1
 10
75.000000000000028
 20
242.599818511655
 30
0.0
 11
75.000000000000028
 21
223.599818511655
 31
0.0
  0
LINE
  5
1D2F9
  8
1
 10
137.4999988079071
 20
233.099818511655
 30
0.0
 11
62.500001192092952
 21
233.099818511655
 31
0.0
  0
ARC
  5
1D352
  8
5
 10
99.855315495593914
 20
234.04551505146571
 30
0.0
 40
21.671240023473018
 50
59.051894480732933
 51
82.202880047476967
  0
ARC
  5
1D353
  8
5
 10
89.478392276375814
 20
252.6436525169517
 30
0.0
 40
0.4785466715902829
 50
120.15810259572351
 51
181.45575366960691
  0
ARC
  5
1D354
  8
5
 10
100.00118311551989
 20
236.1965008527765
 30
0.0
 40
20.003433704819059
 50
96.70051154760246
 51
122.55221341708371
  0
ARC
  5
1D355
  8
5
 10
100.1446845044061
 20
234.04551505146571
 30
0.0
 40
21.671240023473018
 50
97.797119952522195
 51
120.9481055192684
  0
ARC
  5
1D3A2
  8
5
 10
110.5216077236247
 20
213.55598450635861
 30
0.0
 40
0.4785466715902829
 50
300.15810259572351
 51
1.455753669613397
  0
LINE
  5
1D3A3
  8
5
 10
110.9999999403958
 20
216.51639258747329
 30
0.0
 11
110.9999999403959
 21
213.56814196591611
 31
0.0
  0
LINE
  5
1D3A4
  8
5
 10
89.000000059605213
 20
213.55236908679191
 30
0.0
 11
89.000000059605114
 21
216.51639258747289
 31
0.0
  0
ARC
  5
1D3A5
  8
5
 10
102.2678254332836
 20
210.6603515929958
 30
0.0
 40
0.5280318460739011
 50
277.06923796021658
 51
2.484347782403125
  0
ARC
  5
1D3A6
  8
5
 10
99.998816884480163
 20
230.00313617053371
 30
0.0
 40
20.003433704819059
 50
276.70051154760569
 51
302.55221341708301
  0
ARC
  5
1D3A7
  8
5
 10
97.740140052717365
 20
210.66708848285029
 30
0.0
 40
0.5357445539587019
 50
178.27240686969139
 51
262.17400738770112
  0
LINE
  5
1D3A8
  8
5
 10
102.7953609824187
 20
210.68323990588399
 30
0.0
 11
102.7953609824186
 21
213.39712878947461
 31
0.0
  0
LINE
  5
1D3A9
  8
5
 10
97.204639017582494
 20
213.39712878947461
 30
0.0
 11
97.204639017582636
 21
210.68323990588391
 31
0.0
  0
ARC
  5
1D3AA
  8
5
 10
100.0000000000002
 20
230.0264104854985
 30
0.0
 40
20.026411379568781
 50
263.31061970781201
 51
276.68938029219049
  0
ARC
  5
1D3AB
  8
5
 10
99.855315495593956
 20
232.15412197184449
 30
0.0
 40
21.671240023473018
 50
277.79711995252461
 51
300.94810551926849
  0
ARC
  5
1D3AC
  8
5
 10
89.478392276376283
 20
213.55598450635819
 30
0.0
 40
0.4785466715902829
 50
178.5442463303996
 51
239.84189740428019
  0
ARC
  5
1D3AD
  8
5
 10
100.00118311552001
 20
230.00313617053371
 30
0.0
 40
20.003433704819059
 50
237.44778658291941
 51
263.29948845239909
  0
ARC
  5
1D3AE
  8
5
 10
100.1446845044061
 20
232.15412197184449
 30
0.0
 40
21.671240023473018
 50
239.0518944807329
 51
262.20288004747943
  0
LINE
  5
1D7A8
  8
0
 10
91.602258318460684
 20
112.89552822709079
 30
0.0
 11
80.766346678137765
 21
112.89552822709079
 31
0.0
  0
ARC
  5
1D7A9
  8
0
 10
79.862713452247661
 20
111.5000000223517
 30
0.0
 40
1.662543827138061
 50
302.92388754818739
 51
57.076112451812619
  0
LINE
  5
1D7AB
  8
0
 10
80.766346678137765
 20
109.9999997764826
 30
0.0
 11
80.766346678137765
 21
110.10447181761261
 31
0.0
  0
ARC
  5
1D7AF
  8
0
 10
118.89999999999981
 20
133.0
 30
0.0
 40
1.0
 50
290.2459048471992
 51
0.0
  0
LINE
  5
1D7B0
  8
0
 10
119.23365332186211
 20
112.89552822709079
 30
0.0
 11
119.23365332186211
 21
132.99999982118601
 31
0.0
  0
LINE
  5
1D7B1
  8
0
 10
119.8999997228382
 20
132.99999982118601
 30
0.0
 11
119.23365332186211
 21
132.99999982118601
 31
0.0
  0
ARC
  5
1D7B2
  8
0
 10
120.1372865477522
 20
111.5000000223517
 30
0.0
 40
1.662543827138061
 50
122.9238875481873
 51
237.07611245181261
  0
LINE
  5
1D7B3
  8
0
 10
119.23365332186211
 20
109.9999997764826
 30
0.0
 11
119.23365332186211
 21
110.10447181761261
 31
0.0
  0
ARC
  5
1D7B4
  8
0
 10
99.999999999999986
 20
120.0
 30
0.0
 40
10.999799294620111
 50
104.72104135426279
 51
75.278958645737163
  0
CIRCLE
  5
1D7BE
  8
0
 10
100.00000529667869
 20
120.0000005737441
 30
0.0
 40
1.999999426262854
  0
LINE
  5
1D7BF
  8
0
 10
99.999999999999943
 20
122.3094020038843
 30
0.0
 11
97.999999905005041
 21
121.15469984710209
 31
0.0
  0
LINE
  5
1D7C0
  8
0
 10
97.999999905005041
 20
118.84529925882811
 30
0.0
 11
99.999999999999943
 21
117.69059896469111
 31
0.0
  0
LINE
  5
1D7C1
  8
0
 10
100.0000105933575
 20
122.3094020038843
 30
0.0
 11
102.0000106883524
 21
121.15469984710209
 31
0.0
  0
LINE
  5
1D7C2
  8
0
 10
102.0000106883524
 20
118.84529925882811
 30
0.0
 11
100.0000105933575
 21
117.69059896469111
 31
0.0
  0
LINE
  5
1D812
  8
1
 10
100.00000529667869
 20
144.9999991059303
 30
0.0
 11
100.00000529667869
 21
95.0
 31
0.0
  0
LINE
  5
1D813
  8
1
 10
75.000000000000028
 20
97.0
 30
0.0
 11
75.000000000000028
 21
112.9999997764826
 31
0.0
  0
LINE
  5
1D814
  8
1
 10
125.0
 20
97.0
 30
0.0
 11
125.0
 21
112.9999997764826
 31
0.0
  0
LINE
  5
1D815
  8
1
 10
86.000200705379854
 20
120.0000005737441
 30
0.0
 11
113.99979929462
 21
120.0000005737441
 31
0.0
  0
LINE
  5
1E0CC
  8
0
 10
228.57617710717
 20
132.00000151991841
 30
0.0
 11
228.57617710717
 21
109.9999997764826
 31
0.0
  0
LINE
  5
1E0CD
  8
0
 10
222.62382025830411
 20
132.00000151991841
 30
0.0
 11
222.62382025830411
 21
109.9999997764826
 31
0.0
  0
ARC
  5
1E195
  8
0
 10
264.67580978271047
 20
120.0114465691573
 30
0.0
 40
19.384445914889721
 50
169.76209739100949
 51
180.0338346402485
  0
ARC
  5
1E196
  8
0
 10
265.4184729947786
 20
120.0187073550395
 30
0.0
 40
20.127114441367929
 50
180.0532554361107
 51
190.0468355950309
  0
LINE
  5
1E198
  8
1
 10
225.6000039794159
 20
144.9999991059303
 30
0.0
 11
225.6000039794159
 21
95.0
 31
0.0
  0
LINE
  5
1E199
  8
1
 10
198.16540163171101
 20
120.0000005737442
 30
0.0
 11
253.39137044204901
 21
120.0000005737442
 31
0.0
  0
CIRCLE
  5
1E237
  8
0
 10
100.0
 20
233.09981851165489
 30
0.0
 40
20.0
  0
ENDSEC
  0
EOF
