  0
SECTION
  2
HEADER
  9
$ACADVER
  1
AC1009
  9
$INSBASE
 10
0.0
 20
0.0
 30
0.0
  9
$EXTMIN
 10
0.0
 20
-1.4802182810368341
 30
0.0
  9
$EXTMAX
 10
78.68278027633886
 20
87.848290063000874
 30
0.0
  9
$LIMMIN
 10
0.0
 20
0.0
  9
$LIMMAX
 10
12.0
 20
9.0
  9
$ORTHOMODE
 70
     1
  9
$REGENMODE
 70
     1
  9
$FILLMODE
 70
     1
  9
$QTEXTMODE
 70
     0
  9
$MIRRTEXT
 70
     0
  9
$DRAGMODE
 70
     2
  9
$LTSCALE
 40
1.0
  9
$OSMODE
 70
    37
  9
$ATTMODE
 70
     1
  9
$TEXTSIZE
 40
0.2
  9
$TRACEWID
 40
0.05
  9
$TEXTSTYLE
  7
STANDARD
  9
$CLAYER
  8
0
  9
$CELTYPE
  6
BYLAYER
  9
$CECOLOR
 62
   256
  9
$DIMSCALE
 40
1.0
  9
$DIMASZ
 40
1.0
  9
$DIMEXO
 40
2.54
  9
$DIMDLI
 40
0.38
  9
$DIMRND
 40
0.0
  9
$DIMDLE
 40
0.0
  9
$DIMEXE
 40
2.54
  9
$DIMTP
 40
0.0
  9
$DIMTM
 40
0.0
  9
$DIMTXT
 40
3.2000000000000002
  9
$DIMCEN
 40
0.09
  9
$DIMTSZ
 40
0.0
  9
$DIMTOL
 70
     0
  9
$DIMLIM
 70
     0
  9
$DIMTIH
 70
     0
  9
$DIMTOH
 70
     0
  9
$DIMSE1
 70
     0
  9
$DIMSE2
 70
     0
  9
$DIMTAD
 70
     1
  9
$DIMZIN
 70
     0
  9
$DIMBLK
  1

  9
$DIMASO
 70
     1
  9
$DIMSHO
 70
     0
  9
$DIMPOST
  1

  9
$DIMAPOST
  1

  9
$DIMALT
 70
     0
  9
$DIMALTD
 70
     2
  9
$DIMALTF
 40
25.399999999999999
  9
$DIMLFAC
 40
1.0
  9
$DIMTOFL
 70
     0
  9
$DIMTVP
 40
1.0
  9
$DIMTIX
 70
     0
  9
$DIMSOXD
 70
     0
  9
$DIMSAH
 70
     1
  9
$DIMBLK1
  1

  9
$DIMBLK2
  1

  9
$DIMSTYLE
  2
STANDARD
  9
$DIMCLRD
 70
     0
  9
$DIMCLRE
 70
     0
  9
$DIMCLRT
 70
     0
  9
$DIMTFAC
 40
1.0
  9
$DIMGAP
 40
1.6000000000000001
  9
$LUNITS
 70
     2
  9
$LUPREC
 70
     4
  9
$SKETCHINC
 40
0.1
  9
$FILLETRAD
 40
0.0
  9
$AUNITS
 70
     0
  9
$AUPREC
 70
     0
  9
$MENU
  1
.
  9
$ELEVATION
 40
0.0
  9
$PELEVATION
 40
0.0
  9
$THICKNESS
 40
0.0
  9
$LIMCHECK
 70
     0
  9
$BLIPMODE
 70
     0
  9
$CHAMFERA
 40
0.0
  9
$CHAMFERB
 40
0.0
  9
$SKPOLY
 70
     0
  9
$TDCREATE
 40
2453173.4709223039
  9
$TDUPDATE
 40
2456931.6995462161
  9
$TDINDWG
 40
0.5417874769
  9
$TDUSRTIMER
 40
0.5417874769
  9
$USRTIMER
 70
     1
  9
$ANGBASE
 50
0.0
  9
$ANGDIR
 70
     0
  9
$PDMODE
 70
     0
  9
$PDSIZE
 40
0.0
  9
$PLINEWID
 40
0.0
  9
$COORDS
 70
     1
  9
$SPLFRAME
 70
     0
  9
$SPLINETYPE
 70
     6
  9
$SPLINESEGS
 70
     8
  9
$ATTDIA
 70
     0
  9
$ATTREQ
 70
     1
  9
$HANDLING
 70
     1
  9
$HANDSEED
  5
1753
  9
$SURFTAB1
 70
     6
  9
$SURFTAB2
 70
     6
  9
$SURFTYPE
 70
     6
  9
$SURFU
 70
     6
  9
$SURFV
 70
     6
  9
$UCSNAME
  2

  9
$UCSORG
 10
0.0
 20
0.0
 30
0.0
  9
$UCSXDIR
 10
1.0
 20
0.0
 30
0.0
  9
$UCSYDIR
 10
0.0
 20
1.0
 30
0.0
  9
$PUCSNAME
  2

  9
$PUCSORG
 10
0.0
 20
0.0
 30
0.0
  9
$PUCSXDIR
 10
1.0
 20
0.0
 30
0.0
  9
$PUCSYDIR
 10
0.0
 20
1.0
 30
0.0
  9
$USERI1
 70
     0
  9
$USERI2
 70
     0
  9
$USERI3
 70
     0
  9
$USERI4
 70
     0
  9
$USERI5
 70
     0
  9
$USERR1
 40
0.0
  9
$USERR2
 40
0.0
  9
$USERR3
 40
0.0
  9
$USERR4
 40
0.0
  9
$USERR5
 40
0.0
  9
$WORLDVIEW
 70
     1
  9
$SHADEDGE
 70
     3
  9
$SHADEDIF
 70
    70
  9
$TILEMODE
 70
     1
  9
$MAXACTVP
 70
    64
  9
$PLIMCHECK
 70
     0
  9
$PEXTMIN
 10
1.0000000000000000E+020
 20
1.0000000000000000E+020
 30
1.0000000000000000E+020
  9
$PEXTMAX
 10
-1.0000000000000000E+020
 20
-1.0000000000000000E+020
 30
-1.0000000000000000E+020
  9
$PLIMMIN
 10
0.0
 20
0.0
  9
$PLIMMAX
 10
12.0
 20
9.0
  9
$UNITMODE
 70
     0
  9
$VISRETAIN
 70
     1
  9
$PLINEGEN
 70
     0
  9
$PSLTSCALE
 70
     1
  0
ENDSEC
  0
SECTION
  2
TABLES
  0
TABLE
  2
VPORT
 70
     1
  0
VPORT
  2
*ACTIVE
 70
     0
 10
0.0
 20
0.0
 11
1.0
 21
1.0
 12
82.910292072322676
 22
47.5
 13
0.0
 23
0.0
 14
1.0
 24
1.0
 15
0.0
 25
0.0
 16
0.0
 26
0.0
 36
1.0
 17
0.0
 27
0.0
 37
0.0
 40
95.0
 41
1.7454798331015291
 42
50.0
 43
0.0
 44
0.0
 50
0.0
 51
0.0
 71
     0
 72
   100
 73
     1
 74
     1
 75
     0
 76
     0
 77
     0
 78
     0
  0
ENDTAB
  0
TABLE
  2
LTYPE
 70
     3
  0
LTYPE
  2
CONTINUOUS
 70
     0
  3
Solid line
 72
    65
 73
     0
 40
0.0
  0
LTYPE
  2
CENTER
 70
     0
  3
Center ____ _ ____ _ ____ _ ____ _ ____ _ ____
 72
    65
 73
     4
 40
12.0
 49
7.5
 49
-1.5
 49
1.5
 49
-1.5
  0
LTYPE
  2
PHANTOM2
 70
     0
  3
___ _ _ ___ _ _ ___ _ _ ___ _ _
 72
    65
 73
     6
 40
1.25
 49
0.625
 49
-0.125
 49
0.125
 49
-0.125
 49
0.125
 49
-0.125
  0
ENDTAB
  0
TABLE
  2
LAYER
 70
     4
  0
LAYER
  2
0
 70
     0
 62
     7
  6
CONTINUOUS
  0
LAYER
  2
1
 70
     0
 62
     1
  6
CENTER
  0
LAYER
  2
3
 70
     0
 62
     3
  6
CONTINUOUS
  0
LAYER
  2
DEFPOINTS
 70
     0
 62
     7
  6
CONTINUOUS
  0
ENDTAB
  0
TABLE
  2
STYLE
 70
     2
  0
STYLE
  2
STANDARD
 70
     0
 40
0.0
 41
1.0
 50
0.0
 71
     0
 42
0.2
  3
simplex.shx
  4
bigfont.shx
  0
STYLE
  2
STANDARD1
 70
     0
 40
0.0
 41
1.0
 50
0.0
 71
     0
 42
3.0
  3
txt
  4

  0
ENDTAB
  0
TABLE
  2
VIEW
 70
     1
  0
VIEW
  2
OLE1
 70
     0
 40
197.4252932059577
 10
17.193614989164999
 20
148.5468683296229
 41
248.21917932205361
 11
0.0
 21
0.0
 31
1.0
 12
0.0
 22
0.0
 32
0.0
 42
50.0
 43
0.0
 44
0.0
 50
0.0
 71
     0
  0
ENDTAB
  0
TABLE
  2
UCS
 70
     0
  0
ENDTAB
  0
TABLE
  2
APPID
 70
     4
  0
APPID
  2
ACAD
 70
     0
  0
APPID
  2
ACAD_MLEADERVER
 70
     0
  0
APPID
  2
ACAD_NAV_VCDISPLAY
 70
     0
  0
APPID
  2
ACAD_EXEMPT_FROM_CAD_STANDARDS
 70
     0
  0
ENDTAB
  0
TABLE
  2
DIMSTYLE
 70
     1
  0
DIMSTYLE
  2
STANDARD
 70
     0
  3

  4

  5

  6

  7

 40
1.0
 41
0.18
 42
0.0625
 43
0.38
 44
0.18
 45
0.0
 46
0.0
 47
0.0
 48
0.0
140
0.18
141
0.09
142
0.0
143
25.399999999999999
144
1.0
145
0.0
146
1.0
147
0.09
 71
     0
 72
     0
 73
     1
 74
     1
 75
     0
 76
     0
 77
     0
 78
     0
170
     0
171
     2
172
     0
173
     0
174
     0
175
     0
176
     0
177
     0
178
     0
  0
ENDTAB
  0
ENDSEC
  0
SECTION
  2
BLOCKS
  0
BLOCK
  8
0
  2
$MODEL_SPACE
 70
     0
 10
0.0
 20
0.0
 30
0.0
  3
$MODEL_SPACE
  1

  0
ENDBLK
  5
9
  8
0
  0
BLOCK
 67
     1
  8
0
  2
$PAPER_SPACE
 70
     0
 10
0.0
 20
0.0
 30
0.0
  3
$PAPER_SPACE
  1

  0
ENDBLK
  5
E
 67
     1
  8
0
  0
ENDSEC
  0
SECTION
  2
ENTITIES
  0
TEXT
  5
141
  8
0
 62
     3
 10
0.0
 20
0.0
 30
0.0
 40
5.0
  1
CP135-12001
  7
STANDARD1
  0
LINE
  5
E85
  8
1
 10
20.00000002355819
 20
74.848290063000874
 30
0.0
 11
11.092372431424771
 21
84.316878694886071
 31
0.0
  0
LINE
  5
E86
  8
0
 10
24.00000002355819
 20
76.984486059002521
 30
0.0
 11
24.00000002355824
 21
72.712094066999285
 31
0.0
  0
ARC
  5
E87
  8
0
 10
23.700000023558172
 20
76.984486059002521
 30
0.0
 40
0.3000000000000256
 50
0.0
 51
59.99999999999612
  0
LINE
  5
E88
  8
0
 10
20.15000002355816
 20
79.380489676139433
 30
0.0
 11
23.850000023558209
 21
77.244293680137858
 31
0.0
  0
ARC
  5
E89
  8
0
 10
20.00000002355819
 20
79.120682055004224
 30
0.0
 40
0.2999999999999093
 50
59.99999999999239
 51
120.0000000000113
  0
LINE
  5
E8A
  8
0
 10
16.150000023558221
 20
77.244293680137829
 30
0.0
 11
19.850000023558149
 21
79.380489676139433
 31
0.0
  0
ARC
  5
E8B
  8
0
 10
16.300000023558312
 20
76.984486059002407
 30
0.0
 40
0.3000000000001313
 50
120.0000000000076
 51
179.99999999998369
  0
LINE
  5
E8C
  8
0
 10
16.00000002355819
 20
72.712094066999256
 30
0.0
 11
16.00000002355819
 21
76.984486059002492
 31
0.0
  0
ARC
  5
E8D
  8
0
 10
16.300000023558251
 20
72.712094066999313
 30
0.0
 40
0.3000000000000712
 50
180.0000000000114
 51
240.00000000000011
  0
LINE
  5
E8E
  8
0
 10
19.850000023558209
 20
70.316090449862315
 30
0.0
 11
16.150000023558221
 21
72.452286445863919
 31
0.0
  0
ARC
  5
E8F
  8
0
 10
20.00000002355819
 20
70.575898070997596
 30
0.0
 40
0.2999999999999463
 50
239.99999999999619
 51
300.0000000000075
  0
LINE
  5
E90
  8
0
 10
23.850000023558209
 20
72.452286445863933
 30
0.0
 11
20.150000023558221
 21
70.316090449862315
 31
0.0
  0
ARC
  5
E91
  8
0
 10
23.700000023558172
 20
72.712094066999313
 30
0.0
 40
0.3000000000000323
 50
299.99999999999989
 51
359.99999999999511
  0
POLYLINE
  5
E96
  8
0
 66
     1
 10
0.0
 20
0.0
 30
0.0
 70
   128
  0
VERTEX
  5
171E
  8
0
 10
12.695758657921431
 20
82.931639925432336
 30
0.0
  0
VERTEX
  5
171F
  8
0
 10
13.41817505309041
 20
83.474009596597043
 30
0.0
  0
VERTEX
  5
1720
  8
0
 10
14.183056870633211
 20
83.954645429244906
 30
0.0
  0
VERTEX
  5
1721
  8
0
 10
15.23803704299735
 20
84.482579241137088
 30
0.0
  0
VERTEX
  5
1722
  8
0
 10
16.347758386007001
 20
84.893271520496654
 30
0.0
  0
VERTEX
  5
1723
  8
0
 10
17.49235230466115
 20
85.17848491994566
 30
0.0
  0
VERTEX
  5
1724
  8
0
 10
18.64365339725526
 20
85.332213071843256
 30
0.0
  0
VERTEX
  5
1725
  8
0
 10
19.80834199363613
 20
85.359481185994184
 30
0.0
  0
VERTEX
  5
1726
  8
0
 10
20.965275395882308
 20
85.258416863701754
 30
0.0
  0
VERTEX
  5
1727
  8
0
 10
22.086118861493048
 20
85.032510323215305
 30
0.0
  0
VERTEX
  5
1728
  8
0
 10
23.178899868988481
 20
84.684645149383456
 30
0.0
  0
VERTEX
  5
1729
  8
0
 10
24.223329355256059
 20
84.219809170629304
 30
0.0
  0
VERTEX
  5
172A
  8
0
 10
25.190786962088911
 20
83.652060960958508
 30
0.0
  0
VERTEX
  5
172B
  8
0
 10
26.093282443337898
 20
82.980177456968505
 30
0.0
  0
VERTEX
  5
172C
  8
0
 10
26.914112254822221
 20
82.21574789733576
 30
0.0
  0
VERTEX
  5
172D
  8
0
 10
27.63079587792646
 20
81.380622474387224
 30
0.0
  0
VERTEX
  5
172E
  8
0
 10
28.253786120448861
 20
80.469374820788559
 30
0.0
  0
VERTEX
  5
172F
  8
0
 10
28.771843730659558
 20
79.498453771339754
 30
0.0
  0
VERTEX
  5
1730
  8
0
 10
29.17135987735924
 20
78.494717775611264
 30
0.0
  0
VERTEX
  5
1731
  8
0
 10
29.459622133066599
 20
77.450137689354321
 30
0.0
  0
VERTEX
  5
1732
  8
0
 10
29.631339489340181
 20
76.383560067492184
 30
0.0
  0
VERTEX
  5
1733
  8
0
 10
29.682779580673301
 20
75.323682421030654
 30
0.0
  0
VERTEX
  5
1734
  8
0
 10
29.618067634189011
 20
74.261316798412665
 30
0.0
  0
VERTEX
  5
1735
  8
0
 10
29.43773278015107
 20
73.21571238545296
 30
0.0
  0
VERTEX
  5
1736
  8
0
 10
29.147612119451189
 20
72.214181056189446
 30
0.0
  0
VERTEX
  5
1737
  8
0
 10
28.748976939521128
 20
71.247309985848929
 30
0.0
  0
VERTEX
  5
1738
  8
0
 10
28.247927071322241
 20
70.333058155426755
 30
0.0
  0
VERTEX
  5
1739
  8
0
 10
27.65854547055886
 20
69.494728324084846
 30
0.0
  0
VERTEX
  5
173A
  8
0
 10
26.979421305530369
 20
68.723217965903245
 30
0.0
  0
VERTEX
  5
173B
  8
0
 10
26.221818432797761
 20
68.033408138656725
 30
0.0
  0
VERTEX
  5
173C
  8
0
 10
25.408831850291399
 20
67.444467527308305
 30
0.0
  0
VERTEX
  5
173D
  8
0
 10
24.534015744096219
 20
66.945930241589778
 30
0.0
  0
VERTEX
  5
173E
  8
0
 10
23.612694037055569
 20
66.547503695345213
 30
0.0
  0
VERTEX
  5
173F
  8
0
 10
22.673041644565838
 20
66.260310802259625
 30
0.0
  0
VERTEX
  5
1740
  8
0
 10
21.704762566806892
 20
66.076662962613824
 30
0.0
  0
VERTEX
  5
1741
  8
0
 10
20.725215503671109
 20
65.999997652222348
 30
0.0
  0
VERTEX
  5
1742
  8
0
 10
19.763424219110838
 20
66.031763175586974
 30
0.0
  0
VERTEX
  5
1743
  8
0
 10
18.807936477042968
 20
66.168625865030307
 30
0.0
  0
VERTEX
  5
1744
  8
0
 10
17.875934043876949
 20
66.408211817534436
 30
0.0
  0
VERTEX
  5
1745
  8
0
 10
16.994202159465772
 20
66.742585397751952
 30
0.0
  0
VERTEX
  5
1746
  8
0
 10
16.15157303090956
 20
67.172229750991391
 30
0.0
  0
VERTEX
  5
1747
  8
0
 10
15.36344890829832
 20
67.689901540571114
 30
0.0
  0
VERTEX
  5
1748
  8
0
 10
14.651689943179401
 20
68.279743757607022
 30
0.0
  0
VERTEX
  5
1749
  8
0
 10
14.00626898222486
 20
68.945353583083261
 30
0.0
  0
VERTEX
  5
174A
  8
0
 10
13.43957658059645
 20
69.675501211400345
 30
0.0
  0
VERTEX
  5
174B
  8
0
 10
12.96513147731878
 20
70.451492840388724
 30
0.0
  0
VERTEX
  5
174C
  8
0
 10
12.576815307235959
 20
71.276967191438615
 30
0.0
  0
VERTEX
  5
174D
  8
0
 10
12.282858478468309
 20
72.137513003167854
 30
0.0
  0
VERTEX
  5
174E
  8
0
 10
12.104565637374041
 20
72.925328088500763
 30
0.0
  0
VERTEX
  5
174F
  8
0
 10
12.004749982047541
 20
73.728881528548911
 30
0.0
  0
VERTEX
  5
1750
  8
0
 10
11.98546010539286
 20
74.536322038041973
 30
0.0
  0
VERTEX
  5
1751
  8
0
 10
12.00000002355819
 20
74.848290063000846
 30
0.0
  0
SEQEND
  5
1752
  8
0
  0
ARC
  5
E97
  8
0
 10
13.012349549978291
 20
82.544638365917876
 30
0.0
 40
0.5000000000000155
 50
129.2852608706406
 51
176.1995797186718
  0
LINE
  5
E99
  8
0
 10
12.00000002355819
 20
74.848290063000846
 30
0.0
 11
12.51344905891494
 21
82.577778975700014
 31
0.0
  0
LINE
  5
EAE
  8
0
 10
57.382780276338963
 20
85.359481202946924
 30
0.0
 11
50.181597451640073
 21
85.359479555486942
 31
0.0
  0
LINE
  5
EAF
  8
0
 10
50.183573611313022
 20
66.00000283510569
 30
0.0
 11
57.38278027633902
 21
65.99999764581429
 31
0.0
  0
ARC
  5
EB0
  8
0
 10
50.182780270376213
 20
84.859480960511803
 30
0.0
 40
0.4999999940372615
 50
90.135541171055451
 51
180.00005353103671
  0
ARC
  5
EB1
  8
0
 10
50.182780147632393
 20
66.500002076811654
 30
0.0
 40
0.4999998712911496
 50
179.99902891223931
 51
270.09092430176361
  0
LINE
  5
EB2
  8
0
 10
57.38278027633902
 20
65.99999764581429
 30
0.0
 11
57.682780276338967
 21
66.300163627921762
 31
0.0
  0
LINE
  5
EB3
  8
0
 10
57.682780276338917
 20
85.055203346619876
 30
0.0
 11
57.382780276338963
 21
85.359481202946924
 31
0.0
  0
ARC
  5
EB4
  8
0
 10
58.682780276338967
 20
68.798290063000948
 30
0.0
 40
1.0
 50
90.0
 51
180.00000000000239
  0
ARC
  5
EB5
  8
0
 10
58.68278027633891
 20
80.898290063000914
 30
0.0
 40
1.0
 50
180.0
 51
270.0
  0
LINE
  5
EB6
  8
0
 10
74.182780276338917
 20
68.84829006300096
 30
0.0
 11
75.682780276338903
 21
70.348290063001002
 31
0.0
  0
LINE
  5
EB7
  8
0
 10
75.68278027633886
 20
79.348290063000974
 30
0.0
 11
74.18278027633886
 21
80.848290063000988
 31
0.0
  0
LINE
  5
EB8
  8
0
 10
61.182780276338967
 20
68.848290063000945
 30
0.0
 11
74.182780276338917
 21
68.84829006300096
 31
0.0
  0
LINE
  5
EB9
  8
0
 10
74.18278027633886
 20
80.848290063000988
 30
0.0
 11
61.182780276338967
 21
80.848290063000931
 31
0.0
  0
LINE
  5
EBA
  8
0
 10
61.182780276338967
 20
80.848290063000931
 30
0.0
 11
60.34993756386433
 21
80.015447350526316
 31
0.0
  0
LINE
  5
EBB
  8
0
 10
60.34993756386433
 20
69.681132775475547
 30
0.0
 11
61.182780276338967
 21
68.848290063000945
 31
0.0
  0
ARC
  5
EBC
  8
0
 10
60.067094851389747
 20
69.398290063000928
 30
0.0
 40
0.4000000000000199
 50
45.0
 51
90.0
  0
ARC
  5
EBD
  8
0
 10
60.06709485138969
 20
80.298290063000877
 30
0.0
 40
0.3999999999999791
 50
270.0
 51
315.00000000000063
  0
LINE
  5
EBE
  8
0
 10
58.682780276338967
 20
69.79829006300092
 30
0.0
 11
60.067094851389747
 21
69.79829006300092
 31
0.0
  0
LINE
  5
EBF
  8
0
 10
60.06709485138969
 20
79.898290063000914
 30
0.0
 11
58.682780276338967
 21
79.898290063000914
 31
0.0
  0
LINE
  5
EC1
  8
0
 10
49.682780276339138
 20
84.859480493365396
 30
0.0
 11
49.682780276341241
 21
66.500002076284957
 31
0.0
  0
LINE
  5
EC2
  8
0
 10
57.682780276338967
 20
66.300163627921762
 30
0.0
 11
57.682780276338917
 21
85.055203346619876
 31
0.0
  0
LINE
  5
EC3
  8
0
 10
74.182780276338917
 20
68.848290063000974
 30
0.0
 11
74.18278027633886
 21
80.848290063000988
 31
0.0
  0
LINE
  5
EC4
  8
0
 10
75.68278027633886
 20
79.348290063000974
 30
0.0
 11
75.682780276338903
 21
70.348290063001002
 31
0.0
  0
LINE
  5
EC5
  8
0
 10
61.182780276338967
 20
68.848290063000945
 30
0.0
 11
61.182780276338967
 21
80.848290063000931
 31
0.0
  0
ARC
  5
ECC
  8
0
 10
29.182780443025312
 20
45.50000001356571
 30
0.0
 40
0.499999986433974
 50
0.107168828756061
 51
90.001002971620167
  0
ARC
  5
ECD
  8
0
 10
12.485918350237849
 20
45.499541354931139
 30
0.0
 40
0.5004584785658698
 50
89.964365533945497
 51
179.94749128741091
  0
LINE
  5
ECE
  8
0
 10
29.682780950751859
 20
38.299999999999898
 30
0.0
 11
29.682779554814768
 21
45.50093523745366
 31
0.0
  0
LINE
  5
ECF
  8
0
 10
11.98546008183467
 20
45.499999999999908
 30
0.0
 11
11.98546008183467
 21
38.299999999999898
 31
0.0
  0
LINE
  5
ED0
  8
0
 10
11.98546008183467
 20
38.299999999999898
 30
0.0
 11
12.2840295353692
 21
37.999999999999943
 31
0.0
  0
LINE
  5
ED1
  8
0
 10
29.381026412698589
 20
37.999999999999943
 30
0.0
 11
29.682780950751859
 21
38.299999999999898
 31
0.0
  0
ARC
  5
ED2
  8
0
 10
13.94999999999999
 20
36.999999999999929
 30
0.0
 40
1.000000000000014
 50
0.0
 51
90.0
  0
ARC
  5
ED3
  8
0
 10
26.050000000000011
 20
36.999999999999929
 30
0.0
 40
1.000000000000014
 50
90.0
 51
180.0
  0
LINE
  5
ED4
  8
0
 10
26.00000000000006
 20
34.499999999999929
 30
0.0
 11
25.167157287525409
 21
35.332842712474573
 31
0.0
  0
LINE
  5
ED5
  8
0
 10
14.83284271247464
 20
35.332842712474573
 30
0.0
 11
14.0
 21
34.499999999999929
 31
0.0
  0
LINE
  5
ED6
  8
0
 10
14.0
 20
34.499999999999929
 30
0.0
 11
14.0
 21
21.499999999999989
 31
0.0
  0
LINE
  5
ED7
  8
0
 10
26.0
 20
21.499999999999989
 30
0.0
 11
26.0
 21
34.499999999999929
 31
0.0
  0
LINE
  5
ED8
  8
0
 10
14.0
 20
21.499999999999989
 30
0.0
 11
15.5
 21
20.0
 31
0.0
  0
LINE
  5
ED9
  8
0
 10
24.5
 20
20.0
 30
0.0
 11
26.0
 21
21.499999999999989
 31
0.0
  0
ARC
  5
EDA
  8
0
 10
14.55000000000001
 20
35.615685424949191
 30
0.0
 40
0.3999999999999915
 50
315.00000000000028
 51
0.0
  0
ARC
  5
EDB
  8
0
 10
25.449999999999989
 20
35.615685424949191
 30
0.0
 40
0.4000000000000341
 50
180.0
 51
224.9999999999994
  0
LINE
  5
EDC
  8
0
 10
14.94999999999999
 20
36.999999999999929
 30
0.0
 11
14.94999999999999
 21
35.615685424949191
 31
0.0
  0
LINE
  5
EDD
  8
0
 10
25.050000000000011
 20
35.615685424949191
 30
0.0
 11
25.050000000000011
 21
36.999999999999929
 31
0.0
  0
LINE
  5
EDE
  8
0
 10
29.182771690447002
 20
45.999999999923077
 30
0.0
 11
12.486229604743301
 21
45.999999736706378
 31
0.0
  0
LINE
  5
EE1
  8
0
 10
12.2840295353692
 20
37.999999999999943
 30
0.0
 11
29.381026412698589
 21
37.999999999999943
 31
0.0
  0
LINE
  5
EE2
  8
0
 10
14.0
 20
34.499999999999929
 30
0.0
 11
26.00000000000006
 21
34.499999999999929
 31
0.0
  0
LINE
  5
EE3
  8
0
 10
14.0
 20
21.499999999999989
 30
0.0
 11
26.0
 21
21.499999999999989
 31
0.0
  0
LINE
  5
EE4
  8
0
 10
24.5
 20
20.0
 30
0.0
 11
15.5
 21
20.0
 31
0.0
  0
LINE
  5
13DD
  8
1
 10
20.00000002355819
 20
87.848290063000874
 30
0.0
 11
20.00000002355819
 21
61.848290063001102
 31
0.0
  0
LINE
  5
13DE
  8
1
 10
78.68278027633886
 20
74.848290063000988
 30
0.0
 11
46.682780276340281
 21
74.848290063000988
 31
0.0
  0
LINE
  5
1427
  8
1
 10
33.000000023557959
 20
74.848290063000988
 30
0.0
 11
7.0000000235581856
 21
74.848290063000988
 31
0.0
  0
LINE
  5
1428
  8
1
 10
20.0
 20
48.999999855175922
 30
0.0
 11
20.0
 21
17.0
 31
0.0
  0
LINE
  5
1432
  8
3
 10
25.053000000000051
 20
20.553000000000068
 30
0.0
 11
25.053000000000051
 21
35.566787572234887
 31
0.0
  0
LINE
  5
1433
  8
3
 10
14.946999999999941
 20
20.553000000000001
 30
0.0
 11
14.946999999999891
 21
35.566787572234752
 31
0.0
  0
LINE
  5
1477
  8
3
 10
75.129780276338806
 20
79.901290063001042
 30
0.0
 11
60.115992704104031
 21
79.901290063001042
 31
0.0
  0
LINE
  5
1478
  8
3
 10
75.129780276338863
 20
69.795290063000934
 30
0.0
 11
60.115992704104137
 21
69.795290063000877
 31
0.0
  0
ENDSEC
  0
EOF
