  0
SECTION
  2
HEADER
  9
$ACADVER
  1
AC1009
  9
$INSBASE
 10
0.0
 20
0.0
 30
0.0
  9
$EXTMIN
 10
0.0
 20
-1.4802182810368341
 30
0.0
  9
$EXTMAX
 10
74.984764540488825
 20
81.744049321791181
 30
0.0
  9
$LIMMIN
 10
0.0
 20
0.0
  9
$LIMMAX
 10
12.0
 20
9.0
  9
$ORTHOMODE
 70
     1
  9
$REGENMODE
 70
     1
  9
$FILLMODE
 70
     1
  9
$QTEXTMODE
 70
     0
  9
$MIRRTEXT
 70
     0
  9
$DRAGMODE
 70
     2
  9
$LTSCALE
 40
1.0
  9
$OSMODE
 70
    37
  9
$ATTMODE
 70
     1
  9
$TEXTSIZE
 40
0.2
  9
$TRACEWID
 40
0.05
  9
$TEXTSTYLE
  7
STANDARD
  9
$CLAYER
  8
0
  9
$CELTYPE
  6
BYLAYER
  9
$CECOLOR
 62
   256
  9
$DIMSCALE
 40
1.0
  9
$DIMASZ
 40
1.0
  9
$DIMEXO
 40
2.54
  9
$DIMDLI
 40
0.38
  9
$DIMRND
 40
0.0
  9
$DIMDLE
 40
0.0
  9
$DIMEXE
 40
2.54
  9
$DIMTP
 40
0.0
  9
$DIMTM
 40
0.0
  9
$DIMTXT
 40
3.2000000000000002
  9
$DIMCEN
 40
0.09
  9
$DIMTSZ
 40
0.0
  9
$DIMTOL
 70
     0
  9
$DIMLIM
 70
     0
  9
$DIMTIH
 70
     0
  9
$DIMTOH
 70
     0
  9
$DIMSE1
 70
     0
  9
$DIMSE2
 70
     0
  9
$DIMTAD
 70
     1
  9
$DIMZIN
 70
     0
  9
$DIMBLK
  1

  9
$DIMASO
 70
     1
  9
$DIMSHO
 70
     0
  9
$DIMPOST
  1

  9
$DIMAPOST
  1

  9
$DIMALT
 70
     0
  9
$DIMALTD
 70
     2
  9
$DIMALTF
 40
25.399999999999999
  9
$DIMLFAC
 40
1.0
  9
$DIMTOFL
 70
     0
  9
$DIMTVP
 40
1.0
  9
$DIMTIX
 70
     0
  9
$DIMSOXD
 70
     0
  9
$DIMSAH
 70
     1
  9
$DIMBLK1
  1

  9
$DIMBLK2
  1

  9
$DIMSTYLE
  2
STANDARD
  9
$DIMCLRD
 70
     0
  9
$DIMCLRE
 70
     0
  9
$DIMCLRT
 70
     0
  9
$DIMTFAC
 40
1.0
  9
$DIMGAP
 40
1.6000000000000001
  9
$LUNITS
 70
     2
  9
$LUPREC
 70
     4
  9
$SKETCHINC
 40
0.1
  9
$FILLETRAD
 40
0.0
  9
$AUNITS
 70
     0
  9
$AUPREC
 70
     0
  9
$MENU
  1
.
  9
$ELEVATION
 40
0.0
  9
$PELEVATION
 40
0.0
  9
$THICKNESS
 40
0.0
  9
$LIMCHECK
 70
     0
  9
$BLIPMODE
 70
     0
  9
$CHAMFERA
 40
0.0
  9
$CHAMFERB
 40
0.0
  9
$SKPOLY
 70
     0
  9
$TDCREATE
 40
2453173.4709223039
  9
$TDUPDATE
 40
2456931.6995377322
  9
$TDINDWG
 40
0.5900392361
  9
$TDUSRTIMER
 40
0.5900392361
  9
$USRTIMER
 70
     1
  9
$ANGBASE
 50
0.0
  9
$ANGDIR
 70
     0
  9
$PDMODE
 70
     0
  9
$PDSIZE
 40
0.0
  9
$PLINEWID
 40
0.0
  9
$COORDS
 70
     1
  9
$SPLFRAME
 70
     0
  9
$SPLINETYPE
 70
     6
  9
$SPLINESEGS
 70
     8
  9
$ATTDIA
 70
     0
  9
$ATTREQ
 70
     1
  9
$HANDLING
 70
     1
  9
$HANDSEED
  5
1970
  9
$SURFTAB1
 70
     6
  9
$SURFTAB2
 70
     6
  9
$SURFTYPE
 70
     6
  9
$SURFU
 70
     6
  9
$SURFV
 70
     6
  9
$UCSNAME
  2

  9
$UCSORG
 10
0.0
 20
0.0
 30
0.0
  9
$UCSXDIR
 10
1.0
 20
0.0
 30
0.0
  9
$UCSYDIR
 10
0.0
 20
1.0
 30
0.0
  9
$PUCSNAME
  2

  9
$PUCSORG
 10
0.0
 20
0.0
 30
0.0
  9
$PUCSXDIR
 10
1.0
 20
0.0
 30
0.0
  9
$PUCSYDIR
 10
0.0
 20
1.0
 30
0.0
  9
$USERI1
 70
     0
  9
$USERI2
 70
     0
  9
$USERI3
 70
     0
  9
$USERI4
 70
     0
  9
$USERI5
 70
     0
  9
$USERR1
 40
0.0
  9
$USERR2
 40
0.0
  9
$USERR3
 40
0.0
  9
$USERR4
 40
0.0
  9
$USERR5
 40
0.0
  9
$WORLDVIEW
 70
     1
  9
$SHADEDGE
 70
     3
  9
$SHADEDIF
 70
    70
  9
$TILEMODE
 70
     1
  9
$MAXACTVP
 70
    64
  9
$PLIMCHECK
 70
     0
  9
$PEXTMIN
 10
1.0000000000000000E+020
 20
1.0000000000000000E+020
 30
1.0000000000000000E+020
  9
$PEXTMAX
 10
-1.0000000000000000E+020
 20
-1.0000000000000000E+020
 30
-1.0000000000000000E+020
  9
$PLIMMIN
 10
0.0
 20
0.0
  9
$PLIMMAX
 10
12.0
 20
9.0
  9
$UNITMODE
 70
     0
  9
$VISRETAIN
 70
     1
  9
$PLINEGEN
 70
     0
  9
$PSLTSCALE
 70
     1
  0
ENDSEC
  0
SECTION
  2
TABLES
  0
TABLE
  2
VPORT
 70
     1
  0
VPORT
  2
*ACTIVE
 70
     0
 10
0.0
 20
0.0
 11
1.0
 21
1.0
 12
157.0931849791377
 22
90.0
 13
0.0
 23
0.0
 14
1.0
 24
1.0
 15
0.0
 25
0.0
 16
0.0
 26
0.0
 36
1.0
 17
0.0
 27
0.0
 37
0.0
 40
180.0
 41
1.7454798331015291
 42
50.0
 43
0.0
 44
0.0
 50
0.0
 51
0.0
 71
     0
 72
   100
 73
     1
 74
     1
 75
     0
 76
     0
 77
     0
 78
     0
  0
ENDTAB
  0
TABLE
  2
LTYPE
 70
     3
  0
LTYPE
  2
CONTINUOUS
 70
     0
  3
Solid line
 72
    65
 73
     0
 40
0.0
  0
LTYPE
  2
CENTER
 70
     0
  3
Center ____ _ ____ _ ____ _ ____ _ ____ _ ____
 72
    65
 73
     4
 40
12.0
 49
7.5
 49
-1.5
 49
1.5
 49
-1.5
  0
LTYPE
  2
PHANTOM2
 70
     0
  3
___ _ _ ___ _ _ ___ _ _ ___ _ _
 72
    65
 73
     6
 40
1.25
 49
0.625
 49
-0.125
 49
0.125
 49
-0.125
 49
0.125
 49
-0.125
  0
ENDTAB
  0
TABLE
  2
LAYER
 70
     4
  0
LAYER
  2
0
 70
     0
 62
     7
  6
CONTINUOUS
  0
LAYER
  2
1
 70
     0
 62
     1
  6
CENTER
  0
LAYER
  2
3
 70
     0
 62
     3
  6
CONTINUOUS
  0
LAYER
  2
DEFPOINTS
 70
     0
 62
     7
  6
CONTINUOUS
  0
ENDTAB
  0
TABLE
  2
STYLE
 70
     2
  0
STYLE
  2
STANDARD
 70
     0
 40
0.0
 41
1.0
 50
0.0
 71
     0
 42
0.2
  3
simplex.shx
  4
bigfont.shx
  0
STYLE
  2
STANDARD1
 70
     0
 40
0.0
 41
1.0
 50
0.0
 71
     0
 42
3.0
  3
txt
  4

  0
ENDTAB
  0
TABLE
  2
VIEW
 70
     1
  0
VIEW
  2
OLE1
 70
     0
 40
197.4252932059577
 10
17.193614989164999
 20
148.5468683296229
 41
248.21917932205361
 11
0.0
 21
0.0
 31
1.0
 12
0.0
 22
0.0
 32
0.0
 42
50.0
 43
0.0
 44
0.0
 50
0.0
 71
     0
  0
ENDTAB
  0
TABLE
  2
UCS
 70
     0
  0
ENDTAB
  0
TABLE
  2
APPID
 70
     4
  0
APPID
  2
ACAD
 70
     0
  0
APPID
  2
ACAD_MLEADERVER
 70
     0
  0
APPID
  2
ACAD_NAV_VCDISPLAY
 70
     0
  0
APPID
  2
ACAD_EXEMPT_FROM_CAD_STANDARDS
 70
     0
  0
ENDTAB
  0
TABLE
  2
DIMSTYLE
 70
     1
  0
DIMSTYLE
  2
STANDARD
 70
     0
  3

  4

  5

  6

  7

 40
1.0
 41
0.18
 42
0.0625
 43
0.38
 44
0.18
 45
0.0
 46
0.0
 47
0.0
 48
0.0
140
0.18
141
0.09
142
0.0
143
25.399999999999999
144
1.0
145
0.0
146
1.0
147
0.09
 71
     0
 72
     0
 73
     1
 74
     1
 75
     0
 76
     0
 77
     0
 78
     0
170
     0
171
     2
172
     0
173
     0
174
     0
175
     0
176
     0
177
     0
178
     0
  0
ENDTAB
  0
ENDSEC
  0
SECTION
  2
BLOCKS
  0
BLOCK
  8
0
  2
$MODEL_SPACE
 70
     0
 10
0.0
 20
0.0
 30
0.0
  3
$MODEL_SPACE
  1

  0
ENDBLK
  5
9
  8
0
  0
BLOCK
 67
     1
  8
0
  2
$PAPER_SPACE
 70
     0
 10
0.0
 20
0.0
 30
0.0
  3
$PAPER_SPACE
  1

  0
ENDBLK
  5
E
 67
     1
  8
0
  0
ENDSEC
  0
SECTION
  2
ENTITIES
  0
TEXT
  5
141
  8
0
 62
     3
 10
0.0
 20
0.0
 30
0.0
 40
5.0
  1
CP135-10001A
  7
STANDARD1
  0
LINE
  5
CAF
  8
0
 10
20.150000000018199
 20
73.121548396550494
 30
0.0
 11
22.850000000018209
 21
71.562702669738513
 31
0.0
  0
ARC
  5
CB0
  8
0
 10
20.00000000001819
 20
72.861740775415115
 30
0.0
 40
0.3000000000000693
 50
60.000000000007333
 51
119.9999999999926
  0
LINE
  5
CB1
  8
0
 10
17.150000000018171
 20
71.562702669738485
 30
0.0
 11
19.850000000018181
 21
73.121548396550494
 31
0.0
  0
ARC
  5
CB2
  8
0
 10
17.300000000018141
 20
71.302895048603176
 30
0.0
 40
0.2999999999999813
 50
119.99999999999631
 51
180.00000000000321
  0
LINE
  5
CB3
  8
0
 10
17.00000000001819
 20
68.185203594979157
 30
0.0
 11
17.000000000018161
 21
71.302895048603133
 31
0.0
  0
ARC
  5
CB4
  8
0
 10
17.300000000018262
 20
68.185203594979214
 30
0.0
 40
0.3000000000001068
 50
180.0000000000114
 51
239.9999999999888
  0
LINE
  5
CB5
  8
0
 10
19.850000000018209
 20
66.366550247031824
 30
0.0
 11
17.150000000018171
 21
67.92539597384382
 31
0.0
  0
ARC
  5
CB6
  8
0
 10
20.00000000001819
 20
66.626357868167077
 30
0.0
 40
0.2999999999999216
 50
239.99999999999619
 51
300.00000000001131
  0
LINE
  5
CB7
  8
0
 10
22.850000000018209
 20
67.925395973843848
 30
0.0
 11
20.150000000018231
 21
66.366550247031824
 31
0.0
  0
ARC
  5
CB8
  8
0
 10
22.700000000018228
 20
68.185203594979157
 30
0.0
 40
0.2999999999999971
 50
299.99999999999989
 51
0.0
  0
LINE
  5
CB9
  8
0
 10
23.00000000001825
 20
71.302895048603176
 30
0.0
 11
23.00000000001825
 21
68.185203594979157
 31
0.0
  0
ARC
  5
CBA
  8
0
 10
22.700000000018179
 20
71.302895048603176
 30
0.0
 40
0.3000000000000398
 50
0.0000000000024427
 51
59.999999999996227
  0
POLYLINE
  5
CBF
  8
0
 66
     1
 10
0.0
 20
0.0
 30
0.0
 70
   128
  0
VERTEX
  5
193C
  8
0
 10
13.630762741439581
 20
76.834204562116071
 30
0.0
  0
VERTEX
  5
193D
  8
0
 10
14.2557310539139
 20
77.301088684173266
 30
0.0
  0
VERTEX
  5
193E
  8
0
 10
14.9167962830468
 20
77.715289014369944
 30
0.0
  0
VERTEX
  5
193F
  8
0
 10
15.840047477000841
 20
78.176428987557244
 30
0.0
  0
VERTEX
  5
1940
  8
0
 10
16.811104778964872
 20
78.534979239980089
 30
0.0
  0
VERTEX
  5
1941
  8
0
 10
17.812583646279499
 20
78.78375527407357
 30
0.0
  0
VERTEX
  5
1942
  8
0
 10
18.819843242962119
 20
78.917519620353119
 30
0.0
  0
VERTEX
  5
1943
  8
0
 10
19.838734643160819
 20
78.940659721031096
 30
0.0
  0
VERTEX
  5
1944
  8
0
 10
20.850765507761821
 20
78.851554458963562
 30
0.0
  0
VERTEX
  5
1945
  8
0
 10
21.831173545876709
 20
78.653270818764213
 30
0.0
  0
VERTEX
  5
1946
  8
0
 10
22.78696369640619
 20
78.348323793670346
 30
0.0
  0
VERTEX
  5
1947
  8
0
 10
23.700392161801179
 20
77.9410845317731
 30
0.0
  0
VERTEX
  5
1948
  8
0
 10
24.546429156729399
 20
77.44387477935652
 30
0.0
  0
VERTEX
  5
1949
  8
0
 10
25.335588189199768
 20
76.855616148345206
 30
0.0
  0
VERTEX
  5
194A
  8
0
 10
26.053262417313078
 20
76.186447675537735
 30
0.0
  0
VERTEX
  5
194B
  8
0
 10
26.67979380812432
 20
75.455504659259702
 30
0.0
  0
VERTEX
  5
194C
  8
0
 10
27.224336677013518
 20
74.658028602096834
 30
0.0
  0
VERTEX
  5
194D
  8
0
 10
27.677068303965601
 20
73.808408737926484
 30
0.0
  0
VERTEX
  5
194E
  8
0
 10
28.026095537743629
 20
72.93014629706326
 30
0.0
  0
VERTEX
  5
194F
  8
0
 10
28.277792079305019
 20
72.016210149742335
 30
0.0
  0
VERTEX
  5
1950
  8
0
 10
28.427542392341021
 20
71.083085373162106
 30
0.0
  0
VERTEX
  5
1951
  8
0
 10
28.47209225895449
 20
70.155874675383643
 30
0.0
  0
VERTEX
  5
1952
  8
0
 10
28.415043975275289
 20
69.226536599716923
 30
0.0
  0
VERTEX
  5
1953
  8
0
 10
28.2568724658808
 20
68.311904746205244
 30
0.0
  0
VERTEX
  5
1954
  8
0
 10
28.002692335104431
 20
67.435863986260841
 30
0.0
  0
VERTEX
  5
1955
  8
0
 10
27.653608628158391
 20
66.590180870356136
 30
0.0
  0
VERTEX
  5
1956
  8
0
 10
27.214964807950821
 20
65.790558122508287
 30
0.0
  0
VERTEX
  5
1957
  8
0
 10
26.69908223540455
 20
65.057365686515283
 30
0.0
  0
VERTEX
  5
1958
  8
0
 10
26.104724564080129
 20
64.382649311370443
 30
0.0
  0
VERTEX
  5
1959
  8
0
 10
25.441747000467331
 20
63.779420375792391
 30
0.0
  0
VERTEX
  5
195A
  8
0
 10
24.730365690024261
 20
63.26444150549073
 30
0.0
  0
VERTEX
  5
195B
  8
0
 10
23.96493066630762
 20
62.828551948049139
 30
0.0
  0
VERTEX
  5
195C
  8
0
 10
23.158844089529168
 20
62.480239763686122
 30
0.0
  0
VERTEX
  5
195D
  8
0
 10
22.336766687417139
 20
62.22922828346114
 30
0.0
  0
VERTEX
  5
195E
  8
0
 10
21.489676159361981
 20
62.068786186635997
 30
0.0
  0
VERTEX
  5
195F
  8
0
 10
20.632752361979531
 20
62.00191704444665
 30
0.0
  0
VERTEX
  5
1960
  8
0
 10
19.791380059040819
 20
62.029882282288249
 30
0.0
  0
VERTEX
  5
1961
  8
0
 10
18.955539877404298
 20
62.149768265120457
 30
0.0
  0
VERTEX
  5
1962
  8
0
 10
18.140256038291682
 20
62.359495242863261
 30
0.0
  0
VERTEX
  5
1963
  8
0
 10
17.368951324792452
 20
62.652120381787313
 30
0.0
  0
VERTEX
  5
1964
  8
0
 10
16.631859372696479
 20
63.028069020230532
 30
0.0
  0
VERTEX
  5
1965
  8
0
 10
15.94244765639524
 20
63.481004315367137
 30
0.0
  0
VERTEX
  5
1966
  8
0
 10
15.31983056948763
 20
63.997058475182648
 30
0.0
  0
VERTEX
  5
1967
  8
0
 10
14.75524118287438
 20
64.579378571155075
 30
0.0
  0
VERTEX
  5
1968
  8
0
 10
14.259513911761641
 20
65.218143414144777
 30
0.0
  0
VERTEX
  5
1969
  8
0
 10
13.844458614075389
 20
65.89702610780094
 30
0.0
  0
VERTEX
  5
196A
  8
0
 10
13.50474131532189
 20
66.619190545059425
 30
0.0
  0
VERTEX
  5
196B
  8
0
 10
13.24756003744835
 20
67.37203324902859
 30
0.0
  0
VERTEX
  5
196C
  8
0
 10
13.076571373191801
 20
68.15100872094186
 30
0.0
  0
VERTEX
  5
196D
  8
0
 10
12.993218972593301
 20
68.946679982304488
 30
0.0
  0
VERTEX
  5
196E
  8
0
 10
13.000000000018129
 20
69.744049321791124
 30
0.0
  0
SEQEND
  5
196F
  8
0
  0
ARC
  5
CC0
  8
0
 10
13.946217001896571
 20
76.446275948116636
 30
0.0
 40
0.5000000000000016
 50
129.11718341267559
 51
176.20039033056241
  0
LINE
  5
CC2
  8
0
 10
13.000000000018129
 20
69.744049321791124
 30
0.0
 11
13.447316042014871
 21
76.479409499527918
 31
0.0
  0
ARC
  5
CF5
  8
0
 10
27.97311348834825
 20
41.500000020884102
 30
0.0
 40
0.4999999791158418
 50
0.0897240787000319
 51
90.000149122759268
  0
ARC
  5
CF6
  8
0
 10
13.485163745713519
 20
41.499600516718729
 30
0.0
 40
0.5003993571922573
 50
89.969456083085987
 51
179.95425911703441
  0
LINE
  5
CF7
  8
0
 10
28.473114170144932
 20
35.29999999999999
 30
0.0
 11
28.473112854390418
 21
41.500783010827199
 31
0.0
  0
LINE
  5
CF9
  8
0
 10
12.984764547980831
 20
35.29999999999999
 30
0.0
 11
13.28662944694022
 21
35.0
 31
0.0
  0
LINE
  5
CFA
  8
0
 10
28.168728730249939
 20
35.0
 30
0.0
 11
28.473114170144932
 21
35.29999999999999
 31
0.0
  0
LINE
  5
CFF
  8
0
 10
15.0
 20
31.999999999999989
 30
0.0
 11
15.0
 21
21.5
 31
0.0
  0
LINE
  5
D00
  8
0
 10
25.0
 20
21.5
 30
0.0
 11
25.0
 21
31.999999999999989
 31
0.0
  0
LINE
  5
D01
  8
0
 10
15.0
 20
21.5
 30
0.0
 11
16.5
 21
20.0
 31
0.0
  0
LINE
  5
D02
  8
0
 10
23.5
 20
20.0
 30
0.0
 11
25.0
 21
21.5
 31
0.0
  0
LINE
  5
D07
  8
0
 10
27.973112187006741
 20
41.999999999998259
 30
0.0
 11
13.48543050455328
 21
42.000000000000007
 31
0.0
  0
LINE
  5
D0B
  8
0
 10
15.0
 20
21.5
 30
0.0
 11
25.0
 21
21.5
 31
0.0
  0
LINE
  5
D0C
  8
0
 10
23.50000000000006
 20
20.0
 30
0.0
 11
16.5
 21
20.0
 31
0.0
  0
LINE
  5
1250
  8
3
 10
24.188000000000098
 20
20.688000000000059
 30
0.0
 11
24.188000000000041
 21
31.999999999999979
 31
0.0
  0
LINE
  5
1251
  8
3
 10
15.81199999999987
 20
20.68800000000012
 30
0.0
 11
15.81199999999993
 21
31.999999999999989
 31
0.0
  0
LINE
  5
1255
  8
1
 10
20.0
 20
17.0
 30
0.0
 11
20.0
 21
44.999999999999218
 31
0.0
  0
LINE
  5
125E
  8
1
 10
20.00000000001819
 20
57.744049321791167
 30
0.0
 11
20.00000000001819
 21
81.744049321791181
 31
0.0
  0
LINE
  5
16D1
  8
0
 10
11.984764384068059
 20
40.500000216066837
 30
0.0
 11
12.984764547980831
 21
40.500000216066837
 31
0.0
  0
LINE
  5
16D2
  8
0
 10
29.98476454053025
 20
33.5
 30
0.0
 11
29.98476454053025
 21
32.499999952502549
 31
0.0
  0
LINE
  5
16D3
  8
0
 10
29.98476454053025
 20
33.5
 30
0.0
 11
13.284764969683691
 21
33.5
 31
0.0
  0
ARC
  5
16D4
  8
0
 10
13.284764764047679
 20
33.800000000000011
 30
0.0
 40
0.3000000000000043
 50
180.0
 51
270.0
  0
LINE
  5
16D5
  8
0
 10
29.98476454053025
 20
32.499999952502549
 30
0.0
 11
13.284764969683691
 21
32.499999952502549
 31
0.0
  0
ARC
  5
16D6
  8
0
 10
13.284764764047679
 20
33.800000000000011
 30
0.0
 40
1.300000000000004
 50
180.0
 51
270.0
  0
LINE
  5
16D7
  8
0
 10
11.984764384068059
 20
33.800000014249242
 30
0.0
 11
11.984764384068059
 21
40.500000216066837
 31
0.0
  0
LINE
  5
16D8
  8
0
 10
12.984764547980831
 20
33.800000014249242
 30
0.0
 11
12.984764547980831
 21
41.500000000014623
 31
0.0
  0
LINE
  5
16DB
  8
0
 10
11.984764384068059
 20
62.7440491057244
 30
0.0
 11
11.984764384068059
 21
76.744049537858075
 31
0.0
  0
LINE
  5
16DC
  8
0
 10
12.984764547980831
 20
76.744049537858075
 30
0.0
 11
12.984764547980831
 21
62.7440491057244
 31
0.0
  0
ARC
  5
16DD
  8
0
 10
28.984764764047672
 20
63.744049321791238
 30
0.0
 40
1.0000000000000071
 50
270.0
 51
0.0
  0
ARC
  5
16DE
  8
0
 10
28.984764764047672
 20
75.744049321791238
 30
0.0
 40
1.0
 50
0.0
 51
90.0
  0
LINE
  5
16DF
  8
0
 10
29.98476454053025
 20
63.744049269637173
 30
0.0
 11
29.98476454053025
 21
75.744049373945302
 31
0.0
  0
LINE
  5
16E4
  8
0
 10
28.984764376617481
 20
62.7440491057244
 30
0.0
 11
23.769368725165162
 21
62.7440491057244
 31
0.0
  0
LINE
  5
16E5
  8
0
 10
28.984764376617481
 20
76.744049537858075
 30
0.0
 11
25.455241885269231
 21
76.744049537858075
 31
0.0
  0
LINE
  5
16F3
  8
1
 10
32.000000000018133
 20
69.744049321791223
 30
0.0
 11
8.0000000000182467
 21
69.744049321791223
 31
0.0
  0
LINE
  5
1745
  8
0
 10
13.544556835521441
 20
76.744049537858075
 30
0.0
 11
11.984764384068059
 21
76.744049537858075
 31
0.0
  0
LINE
  5
1746
  8
0
 10
17.188714144359839
 20
62.7440491057244
 30
0.0
 11
11.984764384068059
 21
62.7440491057244
 31
0.0
  0
LINE
  5
17AE
  8
0
 10
56.684764540488828
 20
78.946413553161506
 30
0.0
 11
50.483767869367782
 21
78.946412395450295
 31
0.0
  0
LINE
  5
17AF
  8
0
 10
50.485430313719093
 20
62.000002548141289
 30
0.0
 11
56.684764540488892
 21
61.999997451795558
 31
0.0
  0
ARC
  5
17B0
  8
0
 10
50.48476453598321
 20
78.446413393301299
 30
0.0
 40
0.4999999954943434
 50
90.114209657954376
 51
180.0000351003832
  0
ARC
  5
17B1
  8
0
 10
50.484764390298082
 20
62.500001954493563
 30
0.0
 40
0.499999849806606
 50
179.9990198505339
 51
270.07630924848911
  0
LINE
  5
17B2
  8
0
 10
56.684764540488892
 20
61.999997451795558
 30
0.0
 11
56.984764540488847
 21
62.300133364236338
 31
0.0
  0
LINE
  5
17B3
  8
0
 10
56.984764540488847
 20
78.64308164751796
 30
0.0
 11
56.684764540488828
 21
78.946413553161506
 31
0.0
  0
ARC
  5
17B4
  8
0
 10
57.98476454048884
 20
64.544049321762174
 30
0.0
 40
1.0
 50
90.0
 51
180.00000000000321
  0
ARC
  5
17B5
  8
0
 10
57.98476454048884
 20
74.944049321762151
 30
0.0
 40
1.0
 50
179.99999999999841
 51
270.0
  0
LINE
  5
17B6
  8
0
 10
70.48476454048884
 20
64.744049321762219
 30
0.0
 11
71.98476454048884
 21
66.244049321762219
 31
0.0
  0
LINE
  5
17B7
  8
0
 10
71.98476454048884
 20
73.244049321762205
 30
0.0
 11
70.48476454048884
 21
74.744049321762219
 31
0.0
  0
LINE
  5
17B8
  8
0
 10
59.98476454048884
 20
64.744049321762162
 30
0.0
 11
70.48476454048884
 21
64.744049321762219
 31
0.0
  0
LINE
  5
17B9
  8
0
 10
70.48476454048884
 20
74.744049321762219
 30
0.0
 11
59.98476454048884
 21
74.744049321762162
 31
0.0
  0
LINE
  5
17BA
  8
0
 10
59.98476454048884
 20
74.744049321762162
 30
0.0
 11
59.484764587986298
 21
74.244049369259656
 31
0.0
  0
LINE
  5
17BB
  8
0
 10
59.484764587986298
 20
65.244049274264725
 30
0.0
 11
59.98476454048884
 21
64.744049321762162
 31
0.0
  0
LINE
  5
17BE
  8
0
 10
57.98476454048884
 20
65.544049321762174
 30
0.0
 11
58.484764540488847
 21
65.544049321762159
 31
0.0
  0
LINE
  5
17BF
  8
0
 10
58.484764540488847
 20
73.944049321762151
 30
0.0
 11
57.98476454048884
 21
73.944049321762151
 31
0.0
  0
LINE
  5
17C0
  8
0
 10
49.98476454048896
 20
78.446413086992663
 30
0.0
 11
49.984764540564612
 21
62.500010507908662
 31
0.0
  0
LINE
  5
17C1
  8
0
 10
56.984764540488847
 20
62.300133364236338
 30
0.0
 11
56.984764540488847
 21
78.64308164751796
 31
0.0
  0
LINE
  5
17C2
  8
0
 10
70.48476454048884
 20
64.744049321762219
 30
0.0
 11
70.48476454048884
 21
74.744049321762276
 31
0.0
  0
LINE
  5
17C3
  8
0
 10
71.98476454048884
 20
73.244049321762247
 30
0.0
 11
71.98476454048884
 21
66.244049321762191
 31
0.0
  0
LINE
  5
17C4
  8
0
 10
59.98476454048884
 20
64.744049321762162
 30
0.0
 11
59.98476454048884
 21
74.744049321762219
 31
0.0
  0
LINE
  5
17C5
  8
3
 10
71.296764540488795
 20
73.932049321762321
 30
0.0
 11
59.984764540488911
 21
73.932049321762321
 31
0.0
  0
LINE
  5
17C6
  8
3
 10
71.296764540488724
 20
65.556049321762117
 30
0.0
 11
59.98476454048884
 21
65.556049321762117
 31
0.0
  0
LINE
  5
17C7
  8
1
 10
74.984764540488825
 20
69.744049321762219
 30
0.0
 11
46.984764540530342
 21
69.744049321762219
 31
0.0
  0
ARC
  5
182A
  8
0
 10
14.799999999999979
 20
33.999999999999993
 30
0.0
 40
1.0
 50
0.0
 51
90.0
  0
ARC
  5
182B
  8
0
 10
25.19999999999996
 20
33.999999999999993
 30
0.0
 40
1.0
 50
89.999999999996746
 51
180.0
  0
LINE
  5
182C
  8
0
 10
24.999999999999972
 20
31.999999999999989
 30
0.0
 11
24.50000004749743
 21
32.499999952502549
 31
0.0
  0
LINE
  5
182D
  8
0
 10
15.49999995250254
 20
32.499999952502549
 30
0.0
 11
14.99999999999997
 21
31.999999999999989
 31
0.0
  0
LINE
  5
1834
  8
0
 10
15.799999999999979
 20
33.999999999999993
 30
0.0
 11
15.799999999999979
 21
33.5
 31
0.0
  0
LINE
  5
1835
  8
0
 10
24.19999999999996
 20
33.5
 30
0.0
 11
24.19999999999996
 21
33.999999999999993
 31
0.0
  0
LINE
  5
1838
  8
0
 10
14.99999999999997
 20
31.999999999999989
 30
0.0
 11
24.999999999999972
 21
31.999999999999989
 31
0.0
  0
LINE
  5
1848
  8
1
 10
20.00000000001819
 20
69.744049321791223
 30
0.0
 11
11.77694027856702
 21
78.48368826270007
 31
0.0
  0
LINE
  5
184A
  8
0
 10
13.28662944694022
 20
35.0
 30
0.0
 11
28.168728730249939
 21
35.0
 31
0.0
  0
LINE
  5
186C
  8
0
 10
59.484764587986298
 20
76.744049537858075
 30
0.0
 11
59.484764587986298
 21
62.7440491057244
 31
0.0
  0
LINE
  5
186D
  8
0
 10
58.484764540488847
 20
76.744049537858075
 30
0.0
 11
58.484764540488847
 21
62.7440491057244
 31
0.0
  0
LINE
  5
186E
  8
0
 10
59.484764587986298
 20
76.744049537858075
 30
0.0
 11
56.984764540488847
 21
76.744049537858075
 31
0.0
  0
LINE
  5
186F
  8
0
 10
59.484764587986298
 20
62.7440491057244
 30
0.0
 11
56.984764540488847
 21
62.7440491057244
 31
0.0
  0
ENDSEC
  0
EOF
