  0
SECTION
  2
HEADER
  9
$ACADVER
  1
AC1009
  9
$INSBASE
 10
0.0
 20
0.0
 30
0.0
  9
$EXTMIN
 10
0.0
 20
-1.4802182810368341
 30
0.0
  9
$EXTMAX
 10
74.550000809100027
 20
100.8000011815668
 30
0.0
  9
$LIMMIN
 10
0.0
 20
0.0
  9
$LIMMAX
 10
12.0
 20
9.0
  9
$ORTHOMODE
 70
     1
  9
$REGENMODE
 70
     1
  9
$FILLMODE
 70
     1
  9
$QTEXTMODE
 70
     0
  9
$MIRRTEXT
 70
     0
  9
$DRAGMODE
 70
     2
  9
$LTSCALE
 40
1.0
  9
$OSMODE
 70
    37
  9
$ATTMODE
 70
     1
  9
$TEXTSIZE
 40
0.2
  9
$TRACEWID
 40
0.05
  9
$TEXTSTYLE
  7
STANDARD
  9
$CLAYER
  8
0
  9
$CELTYPE
  6
BYLAYER
  9
$CECOLOR
 62
   256
  9
$DIMSCALE
 40
1.0
  9
$DIMASZ
 40
1.0
  9
$DIMEXO
 40
2.54
  9
$DIMDLI
 40
0.38
  9
$DIMRND
 40
0.0
  9
$DIMDLE
 40
0.0
  9
$DIMEXE
 40
2.54
  9
$DIMTP
 40
0.0
  9
$DIMTM
 40
0.0
  9
$DIMTXT
 40
3.2000000000000002
  9
$DIMCEN
 40
0.09
  9
$DIMTSZ
 40
0.0
  9
$DIMTOL
 70
     0
  9
$DIMLIM
 70
     0
  9
$DIMTIH
 70
     0
  9
$DIMTOH
 70
     0
  9
$DIMSE1
 70
     0
  9
$DIMSE2
 70
     0
  9
$DIMTAD
 70
     1
  9
$DIMZIN
 70
     0
  9
$DIMBLK
  1

  9
$DIMASO
 70
     1
  9
$DIMSHO
 70
     0
  9
$DIMPOST
  1

  9
$DIMAPOST
  1

  9
$DIMALT
 70
     0
  9
$DIMALTD
 70
     2
  9
$DIMALTF
 40
25.399999999999999
  9
$DIMLFAC
 40
1.0
  9
$DIMTOFL
 70
     0
  9
$DIMTVP
 40
1.0
  9
$DIMTIX
 70
     0
  9
$DIMSOXD
 70
     0
  9
$DIMSAH
 70
     1
  9
$DIMBLK1
  1

  9
$DIMBLK2
  1

  9
$DIMSTYLE
  2
STANDARD
  9
$DIMCLRD
 70
     0
  9
$DIMCLRE
 70
     0
  9
$DIMCLRT
 70
     0
  9
$DIMTFAC
 40
1.0
  9
$DIMGAP
 40
1.6000000000000001
  9
$LUNITS
 70
     2
  9
$LUPREC
 70
     4
  9
$SKETCHINC
 40
0.1
  9
$FILLETRAD
 40
0.0
  9
$AUNITS
 70
     0
  9
$AUPREC
 70
     0
  9
$MENU
  1
.
  9
$ELEVATION
 40
0.0
  9
$PELEVATION
 40
0.0
  9
$THICKNESS
 40
0.0
  9
$LIMCHECK
 70
     0
  9
$BLIPMODE
 70
     0
  9
$CHAMFERA
 40
0.0
  9
$CHAMFERB
 40
0.0
  9
$SKPOLY
 70
     0
  9
$TDCREATE
 40
2453173.4709223039
  9
$TDUPDATE
 40
2457709.4732358218
  9
$TDINDWG
 40
0.6040612037000001
  9
$TDUSRTIMER
 40
0.6040612037000001
  9
$USRTIMER
 70
     1
  9
$ANGBASE
 50
0.0
  9
$ANGDIR
 70
     0
  9
$PDMODE
 70
     0
  9
$PDSIZE
 40
0.0
  9
$PLINEWID
 40
0.0
  9
$COORDS
 70
     1
  9
$SPLFRAME
 70
     0
  9
$SPLINETYPE
 70
     6
  9
$SPLINESEGS
 70
     8
  9
$ATTDIA
 70
     0
  9
$ATTREQ
 70
     1
  9
$HANDLING
 70
     1
  9
$HANDSEED
  5
1C53
  9
$SURFTAB1
 70
     6
  9
$SURFTAB2
 70
     6
  9
$SURFTYPE
 70
     6
  9
$SURFU
 70
     6
  9
$SURFV
 70
     6
  9
$UCSNAME
  2

  9
$UCSORG
 10
0.0
 20
0.0
 30
0.0
  9
$UCSXDIR
 10
1.0
 20
0.0
 30
0.0
  9
$UCSYDIR
 10
0.0
 20
1.0
 30
0.0
  9
$PUCSNAME
  2

  9
$PUCSORG
 10
0.0
 20
0.0
 30
0.0
  9
$PUCSXDIR
 10
1.0
 20
0.0
 30
0.0
  9
$PUCSYDIR
 10
0.0
 20
1.0
 30
0.0
  9
$USERI1
 70
     0
  9
$USERI2
 70
     0
  9
$USERI3
 70
     0
  9
$USERI4
 70
     0
  9
$USERI5
 70
     0
  9
$USERR1
 40
0.0
  9
$USERR2
 40
0.0
  9
$USERR3
 40
0.0
  9
$USERR4
 40
0.0
  9
$USERR5
 40
0.0
  9
$WORLDVIEW
 70
     1
  9
$SHADEDGE
 70
     3
  9
$SHADEDIF
 70
    70
  9
$TILEMODE
 70
     1
  9
$MAXACTVP
 70
    64
  9
$PLIMCHECK
 70
     0
  9
$PEXTMIN
 10
1.0000000000000000E+020
 20
1.0000000000000000E+020
 30
1.0000000000000000E+020
  9
$PEXTMAX
 10
-1.0000000000000000E+020
 20
-1.0000000000000000E+020
 30
-1.0000000000000000E+020
  9
$PLIMMIN
 10
0.0
 20
0.0
  9
$PLIMMAX
 10
12.0
 20
9.0
  9
$UNITMODE
 70
     0
  9
$VISRETAIN
 70
     1
  9
$PLINEGEN
 70
     0
  9
$PSLTSCALE
 70
     1
  0
ENDSEC
  0
SECTION
  2
TABLES
  0
TABLE
  2
VPORT
 70
     1
  0
VPORT
  2
*ACTIVE
 70
     0
 10
0.0
 20
0.0
 11
1.0
 21
1.0
 12
93.484302279403735
 22
49.658507284537457
 13
0.0
 23
0.0
 14
1.0
 24
1.0
 15
0.0
 25
0.0
 16
0.0
 26
0.0
 36
1.0
 17
0.0
 27
0.0
 37
0.0
 40
103.1841191575072
 41
2.6019575856443709
 42
50.0
 43
0.0
 44
0.0
 50
0.0
 51
0.0
 71
     0
 72
   100
 73
     1
 74
     1
 75
     0
 76
     0
 77
     0
 78
     0
  0
ENDTAB
  0
TABLE
  2
LTYPE
 70
     3
  0
LTYPE
  2
CONTINUOUS
 70
     0
  3
Solid line
 72
    65
 73
     0
 40
0.0
  0
LTYPE
  2
CENTER
 70
     0
  3
Center ____ _ ____ _ ____ _ ____ _ ____ _ ____
 72
    65
 73
     4
 40
12.0
 49
7.5
 49
-1.5
 49
1.5
 49
-1.5
  0
LTYPE
  2
PHANTOM2
 70
     0
  3
___ _ _ ___ _ _ ___ _ _ ___ _ _
 72
    65
 73
     6
 40
1.25
 49
0.625
 49
-0.125
 49
0.125
 49
-0.125
 49
0.125
 49
-0.125
  0
ENDTAB
  0
TABLE
  2
LAYER
 70
     4
  0
LAYER
  2
0
 70
     0
 62
     7
  6
CONTINUOUS
  0
LAYER
  2
1
 70
     0
 62
     1
  6
CENTER
  0
LAYER
  2
3
 70
     0
 62
     3
  6
CONTINUOUS
  0
LAYER
  2
DEFPOINTS
 70
     0
 62
     7
  6
CONTINUOUS
  0
ENDTAB
  0
TABLE
  2
STYLE
 70
     2
  0
STYLE
  2
STANDARD
 70
     0
 40
0.0
 41
1.0
 50
0.0
 71
     0
 42
0.2
  3
simplex.shx
  4
bigfont.shx
  0
STYLE
  2
STANDARD1
 70
     0
 40
0.0
 41
1.0
 50
0.0
 71
     0
 42
3.0
  3
txt
  4

  0
ENDTAB
  0
TABLE
  2
VIEW
 70
     1
  0
VIEW
  2
OLE1
 70
     0
 40
197.4252932059577
 10
17.193614989164999
 20
148.5468683296229
 41
248.21917932205361
 11
0.0
 21
0.0
 31
1.0
 12
0.0
 22
0.0
 32
0.0
 42
50.0
 43
0.0
 44
0.0
 50
0.0
 71
     0
  0
ENDTAB
  0
TABLE
  2
UCS
 70
     0
  0
ENDTAB
  0
TABLE
  2
APPID
 70
     4
  0
APPID
  2
ACAD
 70
     0
  0
APPID
  2
ACAD_MLEADERVER
 70
     0
  0
APPID
  2
ACAD_NAV_VCDISPLAY
 70
     0
  0
APPID
  2
ACAD_EXEMPT_FROM_CAD_STANDARDS
 70
     0
  0
ENDTAB
  0
TABLE
  2
DIMSTYLE
 70
     1
  0
DIMSTYLE
  2
STANDARD
 70
     0
  3

  4

  5

  6

  7

 40
1.0
 41
0.18
 42
0.0625
 43
0.38
 44
0.18
 45
0.0
 46
0.0
 47
0.0
 48
0.0
140
0.18
141
0.09
142
0.0
143
25.399999999999999
144
1.0
145
0.0
146
1.0
147
0.09
 71
     0
 72
     0
 73
     1
 74
     1
 75
     0
 76
     0
 77
     0
 78
     0
170
     0
171
     2
172
     0
173
     0
174
     0
175
     0
176
     0
177
     0
178
     0
  0
ENDTAB
  0
ENDSEC
  0
SECTION
  2
BLOCKS
  0
BLOCK
  8
0
  2
$MODEL_SPACE
 70
     0
 10
0.0
 20
0.0
 30
0.0
  3
$MODEL_SPACE
  1

  0
ENDBLK
  5
9
  8
0
  0
BLOCK
 67
     1
  8
0
  2
$PAPER_SPACE
 70
     0
 10
0.0
 20
0.0
 30
0.0
  3
$PAPER_SPACE
  1

  0
ENDBLK
  5
E
 67
     1
  8
0
  0
ENDSEC
  0
SECTION
  2
ENTITIES
  0
TEXT
  5
141
  8
0
 62
     3
 10
0.0
 20
0.0
 30
0.0
 40
5.0
  1
CP135-08001AL
  7
STANDARD1
  0
LINE
  5
1995
  8
0
 10
17.250000014899971
 20
43.500000387399993
 30
0.0
 11
17.250000014899971
 21
42.2500006482
 31
0.0
  0
LINE
  5
1996
  8
0
 10
22.749999985099979
 20
42.2500006482
 30
0.0
 11
22.749999985099979
 21
43.500000387399993
 31
0.0
  0
LINE
  5
1997
  8
0
 10
22.749999985099979
 20
43.500000387399993
 30
0.0
 11
22.450000029099971
 21
43.800000809099998
 31
0.0
  0
LINE
  5
1998
  8
0
 10
17.549999970899972
 20
43.800000809099998
 30
0.0
 11
17.250000014899971
 21
43.500000387399993
 31
0.0
  0
LINE
  5
1999
  8
0
 10
15.000000111799951
 20
41.750000566200001
 30
0.0
 11
15.000000111799951
 21
39.450000282399998
 31
0.0
  0
LINE
  5
199A
  8
0
 10
24.999999888199969
 20
39.450000282399998
 30
0.0
 11
24.999999888199969
 21
41.750000566200001
 31
0.0
  0
ARC
  5
199B
  8
0
 10
24.499999999999972
 20
41.750000365099993
 30
0.0
 40
0.5
 50
0.0
 51
90.0
  0
ARC
  5
199C
  8
0
 10
15.49999999999997
 20
41.750000365099993
 30
0.0
 40
0.5
 50
90.0
 51
180.0
  0
LINE
  5
199D
  8
0
 10
15.000000111799951
 20
39.450000282399998
 30
0.0
 11
15.19999977199995
 21
39.250000156500008
 31
0.0
  0
LINE
  5
199E
  8
0
 10
24.800000227999959
 20
39.250000156500008
 30
0.0
 11
24.999999888199969
 21
39.450000282399998
 31
0.0
  0
LINE
  5
199F
  8
0
 10
27.262814324299949
 20
33.75000041909999
 30
0.0
 11
27.262814324299949
 21
38.750000540200013
 31
0.0
  0
ARC
  5
19A1
  8
0
 10
14.48701806869995
 20
38.750004192799992
 30
0.0
 40
0.4999959866505765
 50
89.982628272900044
 51
180.39684269450009
  0
LINE
  5
19A2
  8
0
 10
13.985829874899959
 20
33.75000041909999
 30
0.0
 11
14.48587698859995
 21
33.250000337100012
 31
0.0
  0
LINE
  5
19A3
  8
0
 10
26.76171388479996
 20
33.250000337100012
 30
0.0
 11
27.26163573559997
 21
33.75000041909999
 31
0.0
  0
ARC
  5
19A4
  8
0
 10
15.699999999999971
 20
32.2500003651
 30
0.0
 40
1.0
 50
0.0
 51
90.0
  0
ARC
  5
19A5
  8
0
 10
24.299999999999969
 20
32.2500003651
 30
0.0
 40
1.0
 50
90.0
 51
180.0
  0
LINE
  5
19A6
  8
0
 10
15.999999809999959
 20
30.75000039299999
 30
0.0
 11
15.999999809999959
 21
22.5000006705
 31
0.0
  0
LINE
  5
19A7
  8
0
 10
24.00000018999997
 20
22.5000006705
 30
0.0
 11
24.00000018999997
 21
30.75000039299999
 31
0.0
  0
LINE
  5
19A8
  8
0
 10
15.999999809999959
 20
22.5000006705
 30
0.0
 11
17.250000014899971
 21
21.25
 31
0.0
  0
LINE
  5
19A9
  8
0
 10
22.749999985099979
 20
21.25
 30
0.0
 11
24.00000018999997
 21
22.5000006705
 31
0.0
  0
LINE
  5
19AA
  8
0
 10
24.00000018999997
 20
30.75000039299999
 30
0.0
 11
23.75000055560599
 21
30.999999952502542
 31
0.0
  0
LINE
  5
19AB
  8
0
 10
16.249999444393929
 20
30.999999952502542
 30
0.0
 11
15.999999809999959
 21
30.75000039299999
 31
0.0
  0
LINE
  5
19AE
  8
0
 10
16.700000017899949
 20
32.250000376899997
 30
0.0
 11
16.700000017899939
 21
31.999999999999989
 31
0.0
  0
LINE
  5
19AF
  8
0
 10
23.29999998209998
 20
31.999999999999989
 30
0.0
 11
23.299999982099958
 21
32.250000376899997
 31
0.0
  0
ARC
  5
19B0
  8
0
 10
26.762814393899959
 20
38.7500003651
 30
0.0
 40
0.5
 50
0.0556396480001718
 51
90.000000895298982
  0
LINE
  5
19B1
  8
0
 10
17.549999970899972
 20
43.800000809099998
 30
0.0
 11
22.450000029099971
 21
43.800000809099998
 31
0.0
  0
LINE
  5
19B2
  8
0
 10
15.500000193699959
 20
42.2500006482
 30
0.0
 11
24.49999980629995
 21
42.2500006482
 31
0.0
  0
LINE
  5
19B4
  8
0
 10
14.50606852769995
 20
39.250000156500008
 30
0.0
 11
26.758497562299969
 21
39.250000156500008
 31
0.0
  0
LINE
  5
19B5
  8
0
 10
14.488507509199961
 20
33.250000337100012
 30
0.0
 11
26.759172771099951
 21
33.250000337100012
 31
0.0
  0
LINE
  5
19B6
  8
0
 10
15.999999809999959
 20
30.75000039299999
 30
0.0
 11
24.00000018999997
 21
30.75000039299999
 31
0.0
  0
LINE
  5
19B7
  8
0
 10
15.999999809999959
 20
22.5000006705
 30
0.0
 11
24.00000018999997
 21
22.5000006705
 31
0.0
  0
LINE
  5
19B8
  8
0
 10
22.749999985099979
 20
21.25
 30
0.0
 11
17.250000014899971
 21
21.25
 31
0.0
  0
LINE
  5
19B9
  8
0
 10
26.758497562299969
 20
39.250000156500008
 30
0.0
 11
26.758497562299969
 21
39.250000156500008
 31
0.0
  0
CIRCLE
  5
19BA
  8
0
 10
20.000000000000028
 20
72.800000809100055
 30
0.0
 40
2.749999999999996
  0
LINE
  5
19BB
  8
0
 10
20.000000000000028
 20
71.356625092200062
 30
0.0
 11
21.24999997210001
 21
72.078312950600065
 31
0.0
  0
LINE
  5
19BC
  8
0
 10
21.24999997210001
 20
73.521688667500044
 30
0.0
 11
21.24999997210001
 21
72.078312950600065
 31
0.0
  0
LINE
  5
19BD
  8
0
 10
21.24999997210001
 20
73.521688667500044
 30
0.0
 11
20.000000000000028
 21
74.243376526000048
 31
0.0
  0
LINE
  5
19BE
  8
0
 10
20.000000000000028
 20
74.243376526000048
 30
0.0
 11
18.750000027900011
 21
73.521688667500044
 31
0.0
  0
LINE
  5
19BF
  8
0
 10
18.750000027900011
 20
72.078312950600065
 30
0.0
 11
18.750000027900011
 21
73.521688667500044
 31
0.0
  0
LINE
  5
19C0
  8
0
 10
18.750000027900011
 20
72.078312950600065
 30
0.0
 11
20.000000000000028
 21
71.356625092200062
 31
0.0
  0
POLYLINE
  5
19C1
  8
0
 66
     1
 10
0.0
 20
0.0
 30
0.0
 70
   128
  0
VERTEX
  5
1C12
  8
0
 10
15.54453929890002
 20
75.069112615600062
 30
0.0
  0
VERTEX
  5
1C13
  8
0
 10
15.544566307200011
 20
75.069166166600056
 30
0.0
  0
VERTEX
  5
1C14
  8
0
 10
16.323099825500019
 20
76.597144506800049
 30
0.0
  0
VERTEX
  5
1C15
  8
0
 10
17.057751519600021
 20
78.145927429100055
 30
0.0
  0
VERTEX
  5
1C16
  8
0
 10
17.498393524400012
 20
79.217648278900072
 30
0.0
  0
VERTEX
  5
1C17
  8
0
 10
17.870762366800001
 20
80.315608210800065
 30
0.0
  0
VERTEX
  5
1C18
  8
0
 10
18.14691348000002
 20
81.438639812100064
 30
0.0
  0
VERTEX
  5
1C19
  8
0
 10
18.293637181600019
 20
82.468663021900056
 30
0.0
  0
VERTEX
  5
1C1A
  8
0
 10
18.35047964010003
 20
83.510783180500056
 30
0.0
  0
VERTEX
  5
1C1B
  8
0
 10
18.33268299700002
 20
84.556350164100039
 30
0.0
  0
VERTEX
  5
1C1C
  8
0
 10
18.255489510500009
 20
85.596712917000033
 30
0.0
  0
VERTEX
  5
1C1D
  8
0
 10
18.082571313700011
 20
87.028174340700076
 30
0.0
  0
VERTEX
  5
1C1E
  8
0
 10
17.877274174200021
 20
88.455894641500066
 30
0.0
  0
VERTEX
  5
1C1F
  8
0
 10
17.686207993000011
 20
89.885396562500063
 30
0.0
  0
VERTEX
  5
1C20
  8
0
 10
17.564558871100019
 20
91.187173180200062
 30
0.0
  0
VERTEX
  5
1C21
  8
0
 10
17.525868704500009
 20
92.107953183300054
 30
0.0
  0
VERTEX
  5
1C22
  8
0
 10
17.534971218599999
 20
93.029372073600058
 30
0.0
  0
VERTEX
  5
1C23
  8
0
 10
17.60039406830002
 20
93.961076490500076
 30
0.0
  0
VERTEX
  5
1C24
  8
0
 10
17.728257905700019
 20
94.886148028000065
 30
0.0
  0
SEQEND
  5
1C25
  8
0
  0
POLYLINE
  5
19C2
  8
0
 66
     1
 10
0.0
 20
0.0
 30
0.0
 70
   128
  0
VERTEX
  5
1C26
  8
0
 10
22.271742094300009
 20
94.886148028000065
 30
0.0
  0
VERTEX
  5
1C27
  8
0
 10
22.42394534870002
 20
93.69334173940004
 30
0.0
  0
VERTEX
  5
1C28
  8
0
 10
22.475922694400008
 20
92.489447124200069
 30
0.0
  0
VERTEX
  5
1C29
  8
0
 10
22.441677032000019
 20
91.286131791700058
 30
0.0
  0
VERTEX
  5
1C2A
  8
0
 10
22.33192346060002
 20
90.046384982700062
 30
0.0
  0
VERTEX
  5
1C2B
  8
0
 10
22.173167886200019
 20
88.811071269200056
 30
0.0
  0
VERTEX
  5
1C2C
  8
0
 10
21.995196333200031
 20
87.578299134900078
 30
0.0
  0
VERTEX
  5
1C2D
  8
0
 10
21.806810847500032
 20
86.170117981700059
 30
0.0
  0
VERTEX
  5
1C2E
  8
0
 10
21.677069347400021
 20
84.755954943500058
 30
0.0
  0
VERTEX
  5
1C2F
  8
0
 10
21.645847922200019
 20
83.793259836700045
 30
0.0
  0
VERTEX
  5
1C30
  8
0
 10
21.67571939530001
 20
82.829801976600066
 30
0.0
  0
VERTEX
  5
1C31
  8
0
 10
21.77857722160002
 20
81.873107381100056
 30
0.0
  0
VERTEX
  5
1C32
  8
0
 10
21.962881535300021
 20
80.939319595600068
 30
0.0
  0
VERTEX
  5
1C33
  8
0
 10
22.221603412200011
 20
80.021364759600047
 30
0.0
  0
VERTEX
  5
1C34
  8
0
 10
22.538771601400011
 20
79.122661292500055
 30
0.0
  0
VERTEX
  5
1C35
  8
0
 10
23.112455597100009
 20
77.766785077700064
 30
0.0
  0
VERTEX
  5
1C36
  8
0
 10
23.753486322200018
 20
76.440724922300063
 30
0.0
  0
VERTEX
  5
1C37
  8
0
 10
24.34343190860001
 20
75.288169464000077
 30
0.0
  0
VERTEX
  5
1C38
  8
0
 10
24.455460701100009
 20
75.069112615600062
 30
0.0
  0
SEQEND
  5
1C39
  8
0
  0
ARC
  5
19C3
  8
0
 10
10.014637856500009
 20
92.741097842500054
 30
0.0
 40
12.443385576109099
 50
9.9265037805998784
 51
17.046949356799821
  0
ARC
  5
19C4
  8
0
 10
29.955486804600021
 20
92.748262957300057
 30
0.0
 40
12.41272247017395
 50
162.9442444582001
 51
170.08230240439971
  0
CIRCLE
  5
19C5
  8
0
 10
20.000000000000028
 20
72.800000809100055
 30
0.0
 40
3.0000000000000129
  0
ARC
  5
19C6
  8
0
 10
20.000000000000028
 20
72.800000809100055
 30
0.0
 40
5.0000000000000044
 50
153.01081088789971
 51
26.989189112100309
  0
ARC
  5
19C7
  8
0
 10
20.000000000019892
 20
95.799990812666266
 30
0.0
 40
2.00000317805334
 50
17.126045613678109
 51
162.8739543843586
  0
ARC
  5
19C8
  8
0
 10
19.47250132180001
 20
72.938374948300066
 30
0.0
 40
7.7196006214881878
 50
101.6325713169997
 51
129.45934181870061
  0
ARC
  5
19C9
  8
0
 10
19.824697508100009
 20
73.205658318600044
 30
0.0
 40
7.4243343364881511
 50
338.2212662428999
 51
71.699912464799084
  0
ARC
  5
19CA
  8
0
 10
14.880315031100009
 20
78.50926810840005
 30
0.0
 40
0.5000000000041124
 50
128.8814338793002
 51
176.1999580039998
  0
LINE
  5
19CB
  8
0
 10
13.99999994780001
 20
72.800000809100055
 30
0.0
 11
14.381414260700019
 21
78.542405419000062
 31
0.0
  0
ARC
  5
19CC
  8
0
 10
20.552609551600028
 20
72.67088697720007
 30
0.0
 40
6.5538815216749953
 50
178.87117943579989
 51
340.20203805630052
  0
LINE
  5
19CD
  8
0
 10
49.30000042170002
 20
75.550000794200059
 30
0.0
 11
49.000000000000028
 21
75.250000838100078
 31
0.0
  0
LINE
  5
19CE
  8
0
 10
49.0
 20
70.350000780000073
 30
0.0
 11
49.30000042170002
 21
70.05000082400008
 31
0.0
  0
LINE
  5
19CF
  8
0
 10
49.30000042170002
 20
70.05000082400008
 30
0.0
 11
50.550000160899998
 21
70.05000082400008
 31
0.0
  0
LINE
  5
19D0
  8
0
 10
50.550000160899998
 20
75.550000794200059
 30
0.0
 11
49.30000042170002
 21
75.550000794200059
 31
0.0
  0
LINE
  5
19D1
  8
0
 10
53.350000526700001
 20
67.800000920800073
 30
0.0
 11
53.550000652599998
 21
68.000000581100068
 31
0.0
  0
LINE
  5
19D2
  8
0
 10
53.550000652599998
 20
77.600001037100071
 30
0.0
 11
53.350000526700029
 21
77.800000697300064
 31
0.0
  0
LINE
  5
19D3
  8
0
 10
51.050000242900012
 20
67.800000920800073
 30
0.0
 11
53.350000526700001
 21
67.800000920800073
 31
0.0
  0
LINE
  5
19D4
  8
0
 10
53.350000526700029
 20
77.800000697300064
 30
0.0
 11
52.750000149000009
 21
77.800000697300064
 31
0.0
  0
ARC
  5
19D5
  8
0
 10
51.050000644182063
 20
68.300001292382319
 30
0.0
 40
0.5000004832823128
 50
180.00005538001429
 51
269.99997706084707
  0
ARC
  5
19D6
  8
0
 10
52.750000443999987
 20
78.000000809100072
 30
0.0
 40
0.2000000000000171
 50
180.0
 51
270.0
  0
LINE
  5
19D7
  8
0
 10
57.050000527900011
 20
97.800001181600067
 30
0.0
 11
53.550000652599998
 21
97.800001181600067
 31
0.0
  0
LINE
  5
19D8
  8
0
 10
59.050000390000001
 20
80.687957495400056
 30
0.0
 11
54.050000268899993
 21
80.687957495400056
 31
0.0
  0
LINE
  5
19D9
  8
0
 10
54.050000268899993
 20
66.162168193600081
 30
0.0
 11
59.050000390000001
 21
66.162168193600081
 31
0.0
  0
ARC
  5
19DA
  8
0
 10
54.05000105620001
 20
80.187952595400077
 30
0.0
 40
0.5000004036627919
 50
90.045873795700402
 51
180.0010487157991
  0
LINE
  5
19DB
  8
0
 10
59.050000390000001
 20
66.162238974100063
 30
0.0
 11
59.550000471999986
 21
66.662230674100073
 31
0.0
  0
LINE
  5
19DC
  8
0
 10
59.550000471999986
 20
80.184771824600077
 30
0.0
 11
59.050000390000001
 21
80.684645712300068
 31
0.0
  0
ARC
  5
19DD
  8
0
 10
54.049999913199997
 20
66.662178573200094
 30
0.0
 40
0.4999992609751512
 50
179.99760485240029
 51
270.08285696179968
  0
ARC
  5
19DE
  8
0
 10
60.550000443999998
 20
68.500000809100072
 30
0.0
 40
1.0
 50
90.0
 51
180.0
  0
ARC
  5
19DF
  8
0
 10
60.550000443999998
 20
77.100000809100067
 30
0.0
 40
1.0
 50
180.0
 51
270.0
  0
LINE
  5
19E0
  8
0
 10
70.300000138600012
 20
68.800000619100075
 30
0.0
 11
71.550000809099984
 21
70.05000082400008
 31
0.0
  0
LINE
  5
19E1
  8
0
 10
71.550000809099984
 20
75.550000794200059
 30
0.0
 11
70.300000138600012
 21
76.800000999100064
 31
0.0
  0
LINE
  5
19E2
  8
0
 10
62.050000416099998
 20
68.800000619100075
 30
0.0
 11
70.300000138600012
 21
68.800000619100075
 31
0.0
  0
LINE
  5
19E3
  8
0
 10
70.300000138600012
 20
76.800000999100064
 30
0.0
 11
62.050000416099998
 21
76.800000999100064
 31
0.0
  0
LINE
  5
19E4
  8
0
 10
62.050000416099998
 20
76.800000999100064
 30
0.0
 11
61.800000856961873
 21
76.550001365070443
 31
0.0
  0
LINE
  5
19E5
  8
0
 10
61.800000856961837
 20
69.050000253129639
 30
0.0
 11
62.050000416099998
 21
68.800000619100075
 31
0.0
  0
LINE
  5
19E8
  8
0
 10
60.550000432199987
 20
69.500000827000065
 30
0.0
 11
60.800000809464422
 21
69.500000827000065
 31
0.0
  0
LINE
  5
19E9
  8
0
 10
60.800000809464422
 20
76.100000791200074
 30
0.0
 11
60.550000432199987
 21
76.100000791200074
 31
0.0
  0
LINE
  5
19EA
  8
0
 10
49.0
 20
70.350000780000073
 30
0.0
 11
49.000000000000028
 21
75.250000838100078
 31
0.0
  0
LINE
  5
19EB
  8
0
 10
50.550000160899998
 20
68.300001292382319
 30
0.0
 11
50.550000160899998
 21
94.800000689900074
 31
0.0
  0
LINE
  5
19EC
  8
0
 10
52.550000488700022
 20
81.80000042160006
 30
0.0
 11
52.550000488700022
 21
77.999867092932377
 31
0.0
  0
LINE
  5
19ED
  8
0
 10
59.050000390000001
 20
95.800000853800071
 30
0.0
 11
59.050000390000001
 21
89.800001733000073
 31
0.0
  0
LINE
  5
19EE
  8
0
 10
59.050000390000001
 20
89.800001733000073
 30
0.0
 11
59.050000390000001
 21
89.799983106500079
 31
0.0
  0
POLYLINE
  5
19EF
  8
0
 66
     1
 10
0.0
 20
0.0
 30
0.0
 70
   128
  0
VERTEX
  5
1C3A
  8
0
 10
59.050000390000001
 20
89.799983106500079
 30
0.0
  0
VERTEX
  5
1C3B
  8
0
 10
59.050000157200003
 20
89.799940265700059
 30
0.0
  0
VERTEX
  5
1C3C
  8
0
 10
59.03510644659999
 20
89.554287172800088
 30
0.0
  0
VERTEX
  5
1C3D
  8
0
 10
58.968070080500013
 20
89.158204995000048
 30
0.0
  0
VERTEX
  5
1C3E
  8
0
 10
58.859861573199993
 20
88.766909815300096
 30
0.0
  0
VERTEX
  5
1C3F
  8
0
 10
58.528203634500017
 20
87.997192196500094
 30
0.0
  0
VERTEX
  5
1C40
  8
0
 10
58.091779589600009
 20
87.330335430700075
 30
0.0
  0
VERTEX
  5
1C41
  8
0
 10
57.533271262400007
 20
86.728164605700073
 30
0.0
  0
VERTEX
  5
1C42
  8
0
 10
57.15252820029999
 20
86.411760799500087
 30
0.0
  0
VERTEX
  5
1C43
  8
0
 10
56.747399620700008
 20
86.121653817500061
 30
0.0
  0
VERTEX
  5
1C44
  8
0
 10
55.8913833238
 20
85.590486094300076
 30
0.0
  0
VERTEX
  5
1C45
  8
0
 10
55.008595228199987
 20
85.090052016000072
 30
0.0
  0
VERTEX
  5
1C46
  8
0
 10
54.13437157490003
 20
84.574082545900055
 30
0.0
  0
VERTEX
  5
1C47
  8
0
 10
53.66061010950002
 20
84.228412859100075
 30
0.0
  0
VERTEX
  5
1C48
  8
0
 10
53.250694997599993
 20
83.782869070700087
 30
0.0
  0
VERTEX
  5
1C49
  8
0
 10
52.968806005999987
 20
83.332322217500064
 30
0.0
  0
VERTEX
  5
1C4A
  8
0
 10
52.750531002900033
 20
82.834049738900092
 30
0.0
  0
VERTEX
  5
1C4B
  8
0
 10
52.608881495900022
 20
82.330800272500056
 30
0.0
  0
VERTEX
  5
1C4C
  8
0
 10
52.550000488700022
 20
81.800060026300073
 30
0.0
  0
VERTEX
  5
1C4D
  8
0
 10
52.550000488700022
 20
81.80000042160006
 30
0.0
  0
SEQEND
  5
1C4E
  8
0
  0
ARC
  5
19F0
  8
0
 10
53.550003960200023
 20
94.799998864200077
 30
0.0
 40
3.000003799247807
 50
144.78251583880049
 51
179.99996513209911
  0
POLYLINE
  5
19F1
  8
0
 66
     1
 10
0.0
 20
0.0
 30
0.0
 70
   128
  0
VERTEX
  5
1C4F
  8
0
 10
58.96132194989999
 20
96.388941310300083
 30
0.0
  0
VERTEX
  5
1C50
  8
0
 10
59.027173673700013
 20
96.101307921100073
 30
0.0
  0
VERTEX
  5
1C51
  8
0
 10
59.050000390000001
 20
95.800000853800071
 30
0.0
  0
SEQEND
  5
1C52
  8
0
  0
ARC
  5
19F2
  8
0
 10
53.550003555400032
 20
94.799996144800076
 30
0.0
 40
3.000005036793151
 50
90.000055438499913
 51
144.78246895080031
  0
ARC
  5
19F3
  8
0
 10
57.050000444000013
 20
95.800000809100055
 30
0.0
 40
2.0000000000000271
 50
17.125754715900339
 51
90.0
  0
LINE
  5
19F4
  8
0
 10
53.550000652599998
 20
66.662197941767886
 30
0.0
 11
53.550000652599998
 21
80.18320394300008
 31
0.0
  0
LINE
  5
19F5
  8
0
 10
59.550000471999986
 20
66.665320336800079
 30
0.0
 11
59.550000471999986
 21
80.186232604000082
 31
0.0
  0
LINE
  5
19F6
  8
0
 10
70.300000138600012
 20
68.800000619100075
 30
0.0
 11
70.300000138600012
 21
76.800000999100064
 31
0.0
  0
LINE
  5
19F7
  8
0
 10
71.550000809099984
 20
75.550000794200059
 30
0.0
 11
71.550000809099984
 21
70.05000082400008
 31
0.0
  0
LINE
  5
19F8
  8
0
 10
62.050000416099998
 20
68.800000619100075
 30
0.0
 11
62.050000416099998
 21
76.800000999100064
 31
0.0
  0
LINE
  5
19F9
  8
1
 10
20.000000000000028
 20
72.800000809099984
 30
0.0
 11
12.462505339839909
 21
80.811628249767566
 31
0.0
  0
LINE
  5
19FA
  8
1
 10
19.999999999999972
 20
100.8000011815668
 30
0.0
 11
19.999999999999972
 21
61.800000809099998
 31
0.0
  0
LINE
  5
19FB
  8
1
 10
9.0000000000000284
 20
72.800000809100055
 30
0.0
 11
31.000000000000028
 21
72.800000809100055
 31
0.0
  0
LINE
  5
19FC
  8
1
 10
19.999999999999972
 20
46.800000809099998
 30
0.0
 11
19.999999999999972
 21
18.249999999999989
 31
0.0
  0
LINE
  5
19FD
  8
1
 10
46.000000000000028
 20
72.800000809100055
 30
0.0
 11
74.550000809100027
 21
72.800000809100055
 31
0.0
  0
LINE
  5
19FE
  8
3
 10
23.323500000000081
 20
21.823500000000131
 30
0.0
 11
23.32350000000007
 21
30.750000393000001
 31
0.0
  0
LINE
  5
19FF
  8
3
 10
16.676499999999859
 20
21.82350000000012
 30
0.0
 11
16.676499999999869
 21
30.75000039299999
 31
0.0
  0
LINE
  5
1A00
  8
3
 10
70.976500809099889
 20
76.123500809100165
 30
0.0
 11
62.050000416099998
 21
76.123500809100179
 31
0.0
  0
LINE
  5
1A01
  8
3
 10
70.976500809099889
 20
69.476500809099946
 30
0.0
 11
62.050000416099998
 21
69.476500809099946
 31
0.0
  0
LINE
  5
1A02
  8
0
 10
12.999994422488809
 20
38.000000052154071
 30
0.0
 11
13.999994586401581
 21
38.000000052154071
 31
0.0
  0
LINE
  5
1A03
  8
0
 10
28.499995100491649
 20
32.0
 30
0.0
 11
28.499995100491649
 21
30.999999952502549
 31
0.0
  0
LINE
  5
1A04
  8
0
 10
28.499995100491649
 20
31.999999999999989
 30
0.0
 11
14.29999454244316
 21
32.0
 31
0.0
  0
ARC
  5
1A05
  8
0
 10
14.29999463855566
 20
32.299999999999997
 30
0.0
 40
0.3000000000000043
 50
180.0
 51
270.0
  0
LINE
  5
1A06
  8
0
 10
28.499995100491649
 20
30.999999952502542
 30
0.0
 11
14.29999454244316
 21
30.999999952502549
 31
0.0
  0
ARC
  5
1A07
  8
0
 10
14.29999463855566
 20
32.299999999999997
 30
0.0
 40
1.300000000000004
 50
180.0
 51
270.0
  0
LINE
  5
1A08
  8
0
 10
12.999994422488809
 20
32.300000014249242
 30
0.0
 11
12.999994422488809
 21
38.000000052154071
 31
0.0
  0
LINE
  5
1A09
  8
0
 10
13.999994586401581
 20
32.300000014249242
 30
0.0
 11
14.00000155870336
 21
38.749228415947812
 31
0.0
  0
LINE
  5
1A0A
  8
0
 10
12.999994422157609
 20
66.800000756946019
 30
0.0
 11
12.99999442215764
 21
78.800000861254148
 31
0.0
  0
LINE
  5
1A0B
  8
0
 10
13.999994586070381
 20
78.800000861254148
 30
0.0
 11
13.999994586070381
 21
66.800000756946019
 31
0.0
  0
ARC
  5
1A0C
  8
0
 10
27.49999463822445
 20
67.800000809100112
 30
0.0
 40
1.0000000000000071
 50
270.0
 51
0.0
  0
ARC
  5
1A0D
  8
0
 10
27.49999463822445
 20
77.800000809100112
 30
0.0
 40
1.0
 50
0.0
 51
90.0
  0
LINE
  5
1A0E
  8
0
 10
28.499995100160451
 20
67.800000920858821
 30
0.0
 11
28.499995100160451
 21
77.800000697341403
 31
0.0
  0
LINE
  5
1A0F
  8
0
 10
27.49999447058639
 20
66.800000756946034
 30
0.0
 11
23.465693482588719
 21
66.800000756946062
 31
0.0
  0
LINE
  5
1A10
  8
0
 10
17.639525620611352
 20
66.800000756946034
 30
0.0
 11
12.999994422157609
 21
66.800000756946034
 31
0.0
  0
LINE
  5
1A11
  8
0
 10
27.49999447058639
 20
78.800000861254176
 30
0.0
 11
24.705688376295441
 21
78.800000861254176
 31
0.0
  0
LINE
  5
1A12
  8
0
 10
14.47352950232184
 20
78.800000861254162
 30
0.0
 11
12.999994422157609
 21
78.800000861254148
 31
0.0
  0
LINE
  5
1A13
  8
0
 10
61.800000856961837
 20
78.800000861728151
 30
0.0
 11
61.800000856961837
 21
66.800000757420023
 31
0.0
  0
LINE
  5
1A14
  8
0
 10
60.800000809464393
 20
78.800000861728151
 30
0.0
 11
60.800000809464393
 21
66.800000757420023
 31
0.0
  0
LINE
  5
1A15
  8
0
 10
61.800000856961837
 20
78.800000861728151
 30
0.0
 11
59.550000809099963
 21
78.800000861728151
 31
0.0
  0
LINE
  5
1A16
  8
0
 10
61.800000856961837
 20
66.800000757420023
 30
0.0
 11
59.550000809100027
 21
66.800000757420023
 31
0.0
  0
ENDSEC
  0
EOF
