  0
SECTION
  2
HEADER
  9
$ACADVER
  1
AC1009
  9
$INSBASE
 10
0.0
 20
0.0
 30
0.0
  9
$EXTMIN
 10
0.0
 20
-1.4802182810368341
 30
0.0
  9
$EXTMAX
 10
63.00002717335208
 20
69.559552016529551
 30
0.0
  9
$LIMMIN
 10
0.0
 20
0.0
  9
$LIMMAX
 10
12.0
 20
9.0
  9
$ORTHOMODE
 70
     1
  9
$REGENMODE
 70
     1
  9
$FILLMODE
 70
     1
  9
$QTEXTMODE
 70
     0
  9
$MIRRTEXT
 70
     0
  9
$DRAGMODE
 70
     2
  9
$LTSCALE
 40
1.0
  9
$OSMODE
 70
    37
  9
$ATTMODE
 70
     1
  9
$TEXTSIZE
 40
0.2
  9
$TRACEWID
 40
0.05
  9
$TEXTSTYLE
  7
STANDARD
  9
$CLAYER
  8
0
  9
$CELTYPE
  6
BYLAYER
  9
$CECOLOR
 62
   256
  9
$DIMSCALE
 40
1.0
  9
$DIMASZ
 40
1.0
  9
$DIMEXO
 40
2.54
  9
$DIMDLI
 40
0.38
  9
$DIMRND
 40
0.0
  9
$DIMDLE
 40
0.0
  9
$DIMEXE
 40
2.54
  9
$DIMTP
 40
0.0
  9
$DIMTM
 40
0.0
  9
$DIMTXT
 40
3.2000000000000002
  9
$DIMCEN
 40
0.09
  9
$DIMTSZ
 40
0.0
  9
$DIMTOL
 70
     0
  9
$DIMLIM
 70
     0
  9
$DIMTIH
 70
     0
  9
$DIMTOH
 70
     0
  9
$DIMSE1
 70
     0
  9
$DIMSE2
 70
     0
  9
$DIMTAD
 70
     1
  9
$DIMZIN
 70
     0
  9
$DIMBLK
  1

  9
$DIMASO
 70
     1
  9
$DIMSHO
 70
     0
  9
$DIMPOST
  1

  9
$DIMAPOST
  1

  9
$DIMALT
 70
     0
  9
$DIMALTD
 70
     2
  9
$DIMALTF
 40
25.399999999999999
  9
$DIMLFAC
 40
1.0
  9
$DIMTOFL
 70
     0
  9
$DIMTVP
 40
1.0
  9
$DIMTIX
 70
     0
  9
$DIMSOXD
 70
     0
  9
$DIMSAH
 70
     1
  9
$DIMBLK1
  1

  9
$DIMBLK2
  1

  9
$DIMSTYLE
  2
STANDARD
  9
$DIMCLRD
 70
     0
  9
$DIMCLRE
 70
     0
  9
$DIMCLRT
 70
     0
  9
$DIMTFAC
 40
1.0
  9
$DIMGAP
 40
1.6000000000000001
  9
$LUNITS
 70
     2
  9
$LUPREC
 70
     1
  9
$SKETCHINC
 40
0.1
  9
$FILLETRAD
 40
0.0
  9
$AUNITS
 70
     0
  9
$AUPREC
 70
     1
  9
$MENU
  1
.
  9
$ELEVATION
 40
0.0
  9
$PELEVATION
 40
0.0
  9
$THICKNESS
 40
0.0
  9
$LIMCHECK
 70
     0
  9
$BLIPMODE
 70
     0
  9
$CHAMFERA
 40
0.0
  9
$CHAMFERB
 40
0.0
  9
$SKPOLY
 70
     0
  9
$TDCREATE
 40
2453173.4709223039
  9
$TDUPDATE
 40
2456931.699497466
  9
$TDINDWG
 40
0.600413044
  9
$TDUSRTIMER
 40
0.600413044
  9
$USRTIMER
 70
     1
  9
$ANGBASE
 50
0.0
  9
$ANGDIR
 70
     0
  9
$PDMODE
 70
     0
  9
$PDSIZE
 40
0.0
  9
$PLINEWID
 40
0.0
  9
$COORDS
 70
     1
  9
$SPLFRAME
 70
     0
  9
$SPLINETYPE
 70
     6
  9
$SPLINESEGS
 70
     8
  9
$ATTDIA
 70
     0
  9
$ATTREQ
 70
     1
  9
$HANDLING
 70
     1
  9
$HANDSEED
  5
1AA6
  9
$SURFTAB1
 70
     6
  9
$SURFTAB2
 70
     6
  9
$SURFTYPE
 70
     6
  9
$SURFU
 70
     6
  9
$SURFV
 70
     6
  9
$UCSNAME
  2

  9
$UCSORG
 10
0.0
 20
0.0
 30
0.0
  9
$UCSXDIR
 10
1.0
 20
0.0
 30
0.0
  9
$UCSYDIR
 10
0.0
 20
1.0
 30
0.0
  9
$PUCSNAME
  2

  9
$PUCSORG
 10
0.0
 20
0.0
 30
0.0
  9
$PUCSXDIR
 10
1.0
 20
0.0
 30
0.0
  9
$PUCSYDIR
 10
0.0
 20
1.0
 30
0.0
  9
$USERI1
 70
     0
  9
$USERI2
 70
     0
  9
$USERI3
 70
     0
  9
$USERI4
 70
     0
  9
$USERI5
 70
     0
  9
$USERR1
 40
0.0
  9
$USERR2
 40
0.0
  9
$USERR3
 40
0.0
  9
$USERR4
 40
0.0
  9
$USERR5
 40
0.0
  9
$WORLDVIEW
 70
     1
  9
$SHADEDGE
 70
     3
  9
$SHADEDIF
 70
    70
  9
$TILEMODE
 70
     1
  9
$MAXACTVP
 70
    64
  9
$PLIMCHECK
 70
     0
  9
$PEXTMIN
 10
1.0000000000000000E+020
 20
1.0000000000000000E+020
 30
1.0000000000000000E+020
  9
$PEXTMAX
 10
-1.0000000000000000E+020
 20
-1.0000000000000000E+020
 30
-1.0000000000000000E+020
  9
$PLIMMIN
 10
0.0
 20
0.0
  9
$PLIMMAX
 10
12.0
 20
9.0
  9
$UNITMODE
 70
     0
  9
$VISRETAIN
 70
     1
  9
$PLINEGEN
 70
     0
  9
$PSLTSCALE
 70
     1
  0
ENDSEC
  0
SECTION
  2
TABLES
  0
TABLE
  2
VPORT
 70
     1
  0
VPORT
  2
*ACTIVE
 70
     0
 10
0.0
 20
0.0
 11
1.0
 21
1.0
 12
157.0931849791377
 22
90.0
 13
0.0
 23
0.0
 14
1.0
 24
1.0
 15
0.0
 25
0.0
 16
0.0
 26
0.0
 36
1.0
 17
0.0
 27
0.0
 37
0.0
 40
180.0
 41
1.7454798331015291
 42
50.0
 43
0.0
 44
0.0
 50
0.0
 51
0.0
 71
     0
 72
   100
 73
     1
 74
     1
 75
     0
 76
     0
 77
     0
 78
     0
  0
ENDTAB
  0
TABLE
  2
LTYPE
 70
     3
  0
LTYPE
  2
CONTINUOUS
 70
     0
  3
Solid line
 72
    65
 73
     0
 40
0.0
  0
LTYPE
  2
CENTER
 70
     0
  3
Center ____ _ ____ _ ____ _ ____ _ ____ _ ____
 72
    65
 73
     4
 40
12.0
 49
7.5
 49
-1.5
 49
1.5
 49
-1.5
  0
LTYPE
  2
PHANTOM2
 70
     0
  3
___ _ _ ___ _ _ ___ _ _ ___ _ _
 72
    65
 73
     6
 40
1.25
 49
0.625
 49
-0.125
 49
0.125
 49
-0.125
 49
0.125
 49
-0.125
  0
ENDTAB
  0
TABLE
  2
LAYER
 70
     4
  0
LAYER
  2
0
 70
     0
 62
     7
  6
CONTINUOUS
  0
LAYER
  2
1
 70
     0
 62
     1
  6
CENTER
  0
LAYER
  2
3
 70
     0
 62
     3
  6
CONTINUOUS
  0
LAYER
  2
DEFPOINTS
 70
     0
 62
     7
  6
CONTINUOUS
  0
ENDTAB
  0
TABLE
  2
STYLE
 70
     2
  0
STYLE
  2
STANDARD
 70
     0
 40
0.0
 41
1.0
 50
0.0
 71
     0
 42
0.2
  3
simplex.shx
  4
bigfont.shx
  0
STYLE
  2
STANDARD1
 70
     0
 40
0.0
 41
1.0
 50
0.0
 71
     0
 42
3.0
  3
txt
  4

  0
ENDTAB
  0
TABLE
  2
VIEW
 70
     1
  0
VIEW
  2
OLE1
 70
     0
 40
197.4252932059577
 10
17.193614989164999
 20
148.5468683296229
 41
248.21917932205361
 11
0.0
 21
0.0
 31
1.0
 12
0.0
 22
0.0
 32
0.0
 42
50.0
 43
0.0
 44
0.0
 50
0.0
 71
     0
  0
ENDTAB
  0
TABLE
  2
UCS
 70
     0
  0
ENDTAB
  0
TABLE
  2
APPID
 70
     4
  0
APPID
  2
ACAD
 70
     0
  0
APPID
  2
ACAD_MLEADERVER
 70
     0
  0
APPID
  2
ACAD_NAV_VCDISPLAY
 70
     0
  0
APPID
  2
ACAD_EXEMPT_FROM_CAD_STANDARDS
 70
     0
  0
ENDTAB
  0
TABLE
  2
DIMSTYLE
 70
     1
  0
DIMSTYLE
  2
STANDARD
 70
     0
  3

  4

  5

  6

  7

 40
1.0
 41
0.18
 42
0.0625
 43
0.38
 44
0.18
 45
0.0
 46
0.0
 47
0.0
 48
0.0
140
0.18
141
0.09
142
0.0
143
25.399999999999999
144
1.0
145
0.0
146
1.0
147
0.09
 71
     0
 72
     0
 73
     1
 74
     1
 75
     0
 76
     0
 77
     0
 78
     0
170
     0
171
     2
172
     0
173
     0
174
     0
175
     0
176
     0
177
     0
178
     0
  0
ENDTAB
  0
ENDSEC
  0
SECTION
  2
BLOCKS
  0
BLOCK
  8
0
  2
$MODEL_SPACE
 70
     0
 10
0.0
 20
0.0
 30
0.0
  3
$MODEL_SPACE
  1

  0
ENDBLK
  5
9
  8
0
  0
BLOCK
 67
     1
  8
0
  2
$PAPER_SPACE
 70
     0
 10
0.0
 20
0.0
 30
0.0
  3
$PAPER_SPACE
  1

  0
ENDBLK
  5
E
 67
     1
  8
0
  0
ENDSEC
  0
SECTION
  2
ENTITIES
  0
TEXT
  5
141
  8
0
 62
     3
 10
0.0
 20
0.0
 30
0.0
 40
5.0
  1
CP135-06001A
  7
STANDARD1
  0
LINE
  5
BBF
  8
0
 10
20.149999999999931
 20
61.782350552909627
 30
0.0
 11
21.849999999999941
 21
60.800855095287282
 31
0.0
  0
ARC
  5
BC0
  8
0
 10
19.99999999999994
 20
61.522542931774296
 30
0.0
 40
0.3000000000000078
 50
60.000000000002359
 51
120.0000000000002
  0
LINE
  5
BC1
  8
0
 10
18.149999999999949
 20
60.800855095287282
 30
0.0
 11
19.849999999999941
 21
61.782350552909627
 31
0.0
  0
ARC
  5
BC2
  8
0
 10
18.300000000000111
 20
60.541047474151839
 30
0.0
 40
0.3000000000001844
 50
120.00000000001501
 51
179.999999999978
  0
LINE
  5
BC3
  8
0
 10
17.999999999999961
 20
58.578056558907207
 30
0.0
 11
17.99999999999994
 21
60.541047474151952
 31
0.0
  0
ARC
  5
BC4
  8
0
 10
18.299999999999908
 20
58.578056558907207
 30
0.0
 40
0.2999999999999547
 50
180.0
 51
240.00000000000759
  0
LINE
  5
BC5
  8
0
 10
19.849999999999952
 20
57.336753480149547
 30
0.0
 11
18.149999999999959
 21
58.318248937771898
 31
0.0
  0
ARC
  5
BC6
  8
0
 10
19.99999999999994
 20
57.596561101284657
 30
0.0
 40
0.2999999999998109
 50
239.9999999999813
 51
300.00000000002302
  0
LINE
  5
BC7
  8
0
 10
21.849999999999952
 20
58.318248937771898
 30
0.0
 11
20.149999999999949
 21
57.336753480149547
 31
0.0
  0
ARC
  5
BC8
  8
0
 10
21.699999999999982
 20
58.578056558907228
 30
0.0
 40
0.2999999999999971
 50
299.99999999999682
 51
0.0
  0
LINE
  5
BC9
  8
0
 10
21.999999999999961
 20
60.541047474151952
 30
0.0
 11
21.999999999999961
 21
58.578056558907228
 31
0.0
  0
ARC
  5
BCA
  8
0
 10
21.699999999999928
 20
60.541047474151917
 30
0.0
 40
0.3000000000000398
 50
0.0000000000056996
 51
60.000000000002359
  0
ARC
  5
BCF
  8
0
 10
19.634247572100261
 20
59.823677487476431
 30
0.0
 40
6.365781415319014
 50
339.66368692454489
 51
130.46658342634109
  0
ARC
  5
BD2
  8
0
 10
20.463009019742
 20
59.463842474098733
 30
0.0
 40
5.4638473502007328
 50
178.9963055393626
 51
340.18157906150373
  0
ARC
  5
BD4
  8
0
 10
15.814395788479169
 20
64.275609818779401
 30
0.0
 40
0.5000000000000103
 50
128.54560234854111
 51
176.19935274753249
  0
LINE
  5
BD6
  8
0
 10
14.999999999999959
 20
59.559552016529551
 30
0.0
 11
15.315495428702731
 21
64.308752404902521
 31
0.0
  0
LINE
  5
C0C
  8
0
 10
26.000028987419292
 20
29.299999999999969
 30
0.0
 11
26.000025354550139
 21
33.500627290394263
 31
0.0
  0
ARC
  5
C0E
  8
0
 10
15.4965806178281
 20
33.502512724660683
 30
0.0
 40
0.4975048018164114
 50
89.519063672079341
 51
180.28938239331251
  0
LINE
  5
C0F
  8
0
 10
14.99908216150371
 20
29.299999999999919
 30
0.0
 11
15.29911059978674
 21
28.999999999999911
 31
0.0
  0
LINE
  5
C10
  8
0
 10
25.700078525777631
 20
28.999999999999961
 30
0.0
 11
26.000028967032929
 21
29.299999999999962
 31
0.0
  0
LINE
  5
C15
  8
0
 10
16.999999999999972
 20
26.99999999999994
 30
0.0
 11
16.999999999999979
 21
21.0
 31
0.0
  0
LINE
  5
C16
  8
0
 10
23.0
 20
21.000000000000028
 30
0.0
 11
22.999999999999979
 21
26.999999999999972
 31
0.0
  0
LINE
  5
C17
  8
0
 10
16.999999999999979
 20
21.0
 30
0.0
 11
18.000000000000011
 21
20.0
 31
0.0
  0
LINE
  5
C18
  8
0
 10
21.999999999999989
 20
20.000000000000011
 30
0.0
 11
23.0
 21
21.000000000000028
 31
0.0
  0
ARC
  5
C1D
  8
0
 10
25.500025883135692
 20
33.500000135260102
 30
0.0
 40
0.4999998647382641
 50
0.0718667228622079
 51
90.000665617230936
  0
LINE
  5
C1F
  8
0
 10
25.500025883135692
 20
33.999999999999929
 30
0.0
 11
15.500756585496729
 21
33.999999999999872
 31
0.0
  0
LINE
  5
C23
  8
0
 10
17.0
 20
21.0
 30
0.0
 11
23.0
 21
21.000000000000028
 31
0.0
  0
LINE
  5
C24
  8
0
 10
21.999999999999989
 20
20.000000000000011
 30
0.0
 11
18.000000000000011
 21
20.0
 31
0.0
  0
LINE
  5
EFA
  8
3
 10
22.45850000000009
 20
20.458500000000122
 30
0.0
 11
22.45850000000009
 21
26.999999952502488
 31
0.0
  0
LINE
  5
EFB
  8
3
 10
17.54149999999991
 20
20.45850000000009
 30
0.0
 11
17.54149999999991
 21
26.999999952502488
 31
0.0
  0
LINE
  5
F4A
  8
1
 10
19.99999999999994
 20
17.000000000000011
 30
0.0
 11
19.99999999999994
 21
36.999999999999901
 31
0.0
  0
LINE
  5
F4B
  8
1
 10
10.99999983608715
 20
59.559552016529587
 30
0.0
 11
29.99999999999995
 21
59.559552016529587
 31
0.0
  0
LINE
  5
F52
  8
1
 10
19.99999999999994
 20
49.559552016529587
 30
0.0
 11
19.99999999999994
 21
69.559552016529551
 31
0.0
  0
LINE
  5
1641
  8
0
 10
13.99999983608742
 20
32.999999888241241
 30
0.0
 11
15.000000000000201
 21
32.999999888241241
 31
0.0
  0
LINE
  5
1642
  8
0
 10
27.000000104308331
 20
27.99999999999994
 30
0.0
 11
27.000000104308331
 21
26.999999952502488
 31
0.0
  0
LINE
  5
1643
  8
0
 10
27.000000104308331
 20
27.99999999999994
 30
0.0
 11
15.29999995604177
 21
27.99999999999994
 31
0.0
  0
ARC
  5
1644
  8
0
 10
15.299999888241491
 20
28.29999999999994
 30
0.0
 40
0.3000000000000043
 50
180.0
 51
270.0
  0
LINE
  5
1645
  8
0
 10
27.000000104308331
 20
26.999999952502488
 30
0.0
 11
15.29999995604177
 21
26.999999952502488
 31
0.0
  0
ARC
  5
1646
  8
0
 10
15.299999888241491
 20
28.29999999999994
 30
0.0
 40
1.300000000000004
 50
180.0
 51
270.0
  0
LINE
  5
1647
  8
0
 10
13.99999983608742
 20
28.300000014249179
 30
0.0
 11
13.99999983608742
 21
32.999999888241241
 31
0.0
  0
LINE
  5
1648
  8
0
 10
15.000000000000201
 20
28.300000014249179
 30
0.0
 11
15.000000000000201
 21
33.532823083088822
 31
0.0
  0
LINE
  5
164B
  8
0
 10
13.99999983608715
 20
54.559552128288303
 30
0.0
 11
13.99999983608715
 21
64.559551904770885
 31
0.0
  0
LINE
  5
164C
  8
0
 10
14.999999999999931
 20
64.559551904770885
 30
0.0
 11
14.999999999999931
 21
54.559552128288303
 31
0.0
  0
ARC
  5
164D
  8
0
 10
25.99999988824122
 20
55.559552016529601
 30
0.0
 40
1.0000000000000071
 50
270.0
 51
0.0
  0
ARC
  5
164E
  8
0
 10
25.99999988824122
 20
63.559552016529587
 30
0.0
 40
1.0
 50
0.0
 51
90.0
  0
LINE
  5
164F
  8
0
 10
27.000000104308061
 20
55.559551826539789
 30
0.0
 11
27.000000104308061
 21
63.559552206519399
 31
0.0
  0
LINE
  5
1654
  8
0
 10
25.999999940395281
 20
54.559552128288303
 30
0.0
 11
22.871652636030291
 21
54.55955212828831
 31
0.0
  0
LINE
  5
1655
  8
0
 10
25.999999940395281
 20
64.559551904770885
 30
0.0
 11
23.88803018657844
 21
64.559551904770899
 31
0.0
  0
LINE
  5
166E
  8
0
 10
15.40284154928
 20
64.559551904770885
 30
0.0
 11
13.99999983608715
 21
64.559551904770885
 31
0.0
  0
LINE
  5
166F
  8
0
 10
18.054365403453719
 20
54.55955212828831
 30
0.0
 11
13.99999983608715
 21
54.559552128288303
 31
0.0
  0
ARC
  5
17A3
  8
0
 10
16.600000000000009
 20
27.999999999999929
 30
0.0
 40
1.0
 50
0.0000000000008142
 51
90.0
  0
ARC
  5
17A4
  8
0
 10
23.399999999999942
 20
27.999999999999961
 30
0.0
 40
1.0
 50
90.0
 51
180.0
  0
LINE
  5
17BC
  8
0
 10
15.29911059978674
 20
28.999999999999911
 30
0.0
 11
25.700078525777631
 21
28.999999999999961
 31
0.0
  0
LINE
  5
183B
  8
0
 10
50.700027173352133
 20
66.189458903920581
 30
0.0
 11
46.500027173352187
 21
66.189458903920581
 31
0.0
  0
LINE
  5
183C
  8
0
 10
46.50054966276096
 20
54.000005861479131
 30
0.0
 11
50.700027173352147
 21
53.999995125023119
 31
0.0
  0
ARC
  5
183D
  8
0
 10
46.500064229690111
 20
65.689421850039537
 30
0.0
 40
0.5000370552541433
 50
90.004246028861473
 51
180.0028045786849
  0
LINE
  5
183E
  8
0
 10
50.700027173352147
 20
53.999995125023119
 30
0.0
 11
51.000027173352187
 21
54.300071994898779
 31
0.0
  0
LINE
  5
183F
  8
0
 10
51.000027173352159
 20
65.889538076684346
 30
0.0
 11
50.700027173352133
 21
66.189458903920581
 31
0.0
  0
ARC
  5
1840
  8
0
 10
46.500026700023319
 20
54.500005114642043
 30
0.0
 40
0.4999995266532705
 50
179.9978733657552
 51
270.05992718307613
  0
ARC
  5
1841
  8
0
 10
52.000027173352159
 20
56.159552017654761
 30
0.0
 40
1.0
 50
90.0
 51
180.0
  0
ARC
  5
1842
  8
0
 10
52.000027173352159
 20
62.95955201765473
 30
0.0
 40
1.0
 50
180.0
 51
270.0
  0
LINE
  5
1843
  8
0
 10
59.00002717335208
 20
56.559552017654767
 30
0.0
 11
60.00002717335208
 21
57.559552017654767
 31
0.0
  0
LINE
  5
1844
  8
0
 10
60.00002717335208
 20
61.559552017654752
 30
0.0
 11
59.00002717335208
 21
62.559552017654759
 31
0.0
  0
LINE
  5
1845
  8
0
 10
53.000027173352173
 20
56.559552017654752
 30
0.0
 11
59.00002717335208
 21
56.559552017654767
 31
0.0
  0
LINE
  5
1846
  8
0
 10
59.00002717335208
 20
62.559552017654759
 30
0.0
 11
53.000027173352137
 21
62.559552017654759
 31
0.0
  0
LINE
  5
184D
  8
0
 10
46.000027173714479
 20
54.500023673009252
 30
0.0
 11
46.000027175035036
 21
65.689397373659631
 31
0.0
  0
LINE
  5
184E
  8
0
 10
51.000027173352187
 20
54.300071994898779
 30
0.0
 11
51.000027173352159
 21
65.889538076684346
 31
0.0
  0
LINE
  5
184F
  8
0
 10
59.00002717335208
 20
56.559552017654767
 30
0.0
 11
59.00002717335208
 21
62.559552017654759
 31
0.0
  0
LINE
  5
1850
  8
0
 10
60.00002717335208
 20
61.559552017654752
 30
0.0
 11
60.00002717335208
 21
57.559552017654767
 31
0.0
  0
LINE
  5
1851
  8
0
 10
53.000027173352173
 20
54.559552128288288
 30
0.0
 11
53.000027173352123
 21
64.559551904770899
 31
0.0
  0
LINE
  5
1852
  8
3
 10
59.54152717335198
 20
62.018052017654831
 30
0.0
 11
53.00002717335213
 21
62.018052017654817
 31
0.0
  0
LINE
  5
1853
  8
3
 10
59.541527173352009
 20
57.101052017654673
 30
0.0
 11
53.000027173352137
 21
57.101052017654659
 31
0.0
  0
LINE
  5
1854
  8
1
 10
43.000027173352187
 20
59.559552017654738
 30
0.0
 11
63.00002717335208
 21
59.559552017654731
 31
0.0
  0
LINE
  5
1855
  8
1
 10
19.99999999999994
 20
59.559552016529572
 30
0.0
 11
13.180016399374979
 21
66.873089032721282
 31
0.0
  0
LINE
  5
1858
  8
0
 10
51.000027173352173
 20
64.559551904770913
 30
0.0
 11
53.000027173352102
 21
64.559551904770913
 31
0.0
  0
LINE
  5
1859
  8
0
 10
51.000027173352187
 20
54.55955212828831
 30
0.0
 11
53.000027173352152
 21
54.55955212828831
 31
0.0
  0
LINE
  5
185A
  8
0
 10
52.000027173352159
 20
54.559552128288288
 30
0.0
 11
52.00002717335213
 21
64.559551904770899
 31
0.0
  0
ENDSEC
  0
EOF
