  0
SECTION
  2
HEADER
  9
$ACADVER
  1
AC1009
  9
$INSBASE
 10
0.0
 20
0.0
 30
0.0
  9
$EXTMIN
 10
0.0
 20
-1.4802182810368341
 30
0.0
  9
$EXTMAX
 10
91.011860989054625
 20
115.42718223732309
 30
0.0
  9
$LIMMIN
 10
0.0
 20
0.0
  9
$LIMMAX
 10
375.0
 20
270.0
  9
$ORTHOMODE
 70
     1
  9
$REGENMODE
 70
     1
  9
$FILLMODE
 70
     1
  9
$QTEXTMODE
 70
     0
  9
$MIRRTEXT
 70
     0
  9
$DRAGMODE
 70
     2
  9
$LTSCALE
 40
1.0
  9
$OSMODE
 70
    37
  9
$ATTMODE
 70
     1
  9
$TEXTSIZE
 40
6.0
  9
$TRACEWID
 40
0.05
  9
$TEXTSTYLE
  7
STANDARD
  9
$CLAYER
  8
0
  9
$CELTYPE
  6
BYLAYER
  9
$CECOLOR
 62
   256
  9
$DIMSCALE
 40
1.0
  9
$DIMASZ
 40
3.0
  9
$DIMEXO
 40
2.0
  9
$DIMDLI
 40
0.3799999999999999
  9
$DIMRND
 40
0.0
  9
$DIMDLE
 40
0.0
  9
$DIMEXE
 40
2.0
  9
$DIMTP
 40
0.0
  9
$DIMTM
 40
0.0
  9
$DIMTXT
 40
3.2000000000000002
  9
$DIMCEN
 40
0.09
  9
$DIMTSZ
 40
0.0
  9
$DIMTOL
 70
     0
  9
$DIMLIM
 70
     0
  9
$DIMTIH
 70
     0
  9
$DIMTOH
 70
     0
  9
$DIMSE1
 70
     0
  9
$DIMSE2
 70
     0
  9
$DIMTAD
 70
     1
  9
$DIMZIN
 70
     9
  9
$DIMBLK
  1

  9
$DIMASO
 70
     0
  9
$DIMSHO
 70
     0
  9
$DIMPOST
  1

  9
$DIMAPOST
  1

  9
$DIMALT
 70
     0
  9
$DIMALTD
 70
     2
  9
$DIMALTF
 40
25.399999999999999
  9
$DIMLFAC
 40
1.0
  9
$DIMTOFL
 70
     0
  9
$DIMTVP
 40
0.0
  9
$DIMTIX
 70
     0
  9
$DIMSOXD
 70
     0
  9
$DIMSAH
 70
     0
  9
$DIMBLK1
  1

  9
$DIMBLK2
  1

  9
$DIMSTYLE
  2
STANDARD
  9
$DIMCLRD
 70
     0
  9
$DIMCLRE
 70
     0
  9
$DIMCLRT
 70
     0
  9
$DIMTFAC
 40
1.0
  9
$DIMGAP
 40
0.09
  9
$LUNITS
 70
     2
  9
$LUPREC
 70
     1
  9
$SKETCHINC
 40
0.1
  9
$FILLETRAD
 40
20.0
  9
$AUNITS
 70
     0
  9
$AUPREC
 70
     1
  9
$MENU
  1
E:\r13\win\SUPPORT\ACAD
  9
$ELEVATION
 40
0.0
  9
$PELEVATION
 40
0.0
  9
$THICKNESS
 40
0.0
  9
$LIMCHECK
 70
     0
  9
$BLIPMODE
 70
     0
  9
$CHAMFERA
 40
0.0
  9
$CHAMFERB
 40
0.0
  9
$SKPOLY
 70
     0
  9
$TDCREATE
 40
2449840.6320370371
  9
$TDUPDATE
 40
2456927.6947606481
  9
$TDINDWG
 40
1.9351420718000001
  9
$TDUSRTIMER
 40
1.9351420718000001
  9
$USRTIMER
 70
     1
  9
$ANGBASE
 50
0.0
  9
$ANGDIR
 70
     0
  9
$PDMODE
 70
     0
  9
$PDSIZE
 40
0.0
  9
$PLINEWID
 40
0.0
  9
$COORDS
 70
     1
  9
$SPLFRAME
 70
     0
  9
$SPLINETYPE
 70
     6
  9
$SPLINESEGS
 70
     8
  9
$ATTDIA
 70
     0
  9
$ATTREQ
 70
     1
  9
$HANDLING
 70
     1
  9
$HANDSEED
  5
1DC3F
  9
$SURFTAB1
 70
     6
  9
$SURFTAB2
 70
     6
  9
$SURFTYPE
 70
     6
  9
$SURFU
 70
     6
  9
$SURFV
 70
     6
  9
$UCSNAME
  2

  9
$UCSORG
 10
0.0
 20
0.0
 30
0.0
  9
$UCSXDIR
 10
1.0
 20
0.0
 30
0.0
  9
$UCSYDIR
 10
0.0
 20
1.0
 30
0.0
  9
$PUCSNAME
  2

  9
$PUCSORG
 10
0.0
 20
0.0
 30
0.0
  9
$PUCSXDIR
 10
1.0
 20
0.0
 30
0.0
  9
$PUCSYDIR
 10
0.0
 20
1.0
 30
0.0
  9
$USERI1
 70
     0
  9
$USERI2
 70
     1
  9
$USERI3
 70
     0
  9
$USERI4
 70
     0
  9
$USERI5
 70
     0
  9
$USERR1
 40
0.0
  9
$USERR2
 40
0.0
  9
$USERR3
 40
0.0
  9
$USERR4
 40
0.0
  9
$USERR5
 40
0.0
  9
$WORLDVIEW
 70
     1
  9
$SHADEDGE
 70
     3
  9
$SHADEDIF
 70
    70
  9
$TILEMODE
 70
     1
  9
$MAXACTVP
 70
    16
  9
$PLIMCHECK
 70
     0
  9
$PEXTMIN
 10
1.0000000000000000E+020
 20
1.0000000000000000E+020
 30
1.0000000000000000E+020
  9
$PEXTMAX
 10
-1.0000000000000000E+020
 20
-1.0000000000000000E+020
 30
-1.0000000000000000E+020
  9
$PLIMMIN
 10
0.0
 20
0.0
  9
$PLIMMAX
 10
12.0
 20
9.0
  9
$UNITMODE
 70
     0
  9
$VISRETAIN
 70
     0
  9
$PLINEGEN
 70
     0
  9
$PSLTSCALE
 70
     0
  0
ENDSEC
  0
SECTION
  2
TABLES
  0
TABLE
  2
VPORT
 70
     1
  0
VPORT
  2
*ACTIVE
 70
     0
 10
0.0
 20
0.0
 11
1.0
 21
1.0
 12
165.8205841446453
 22
95.0
 13
0.0
 23
0.0
 14
10.0
 24
10.0
 15
10.0
 25
10.0
 16
0.0
 26
0.0
 36
1.0
 17
0.0
 27
0.0
 37
0.0
 40
190.0
 41
1.7454798331015291
 42
50.0
 43
0.0
 44
0.0
 50
0.0
 51
0.0
 71
     0
 72
   500
 73
     1
 74
     0
 75
     0
 76
     0
 77
     0
 78
     0
  0
ENDTAB
  0
TABLE
  2
LTYPE
 70
     4
  0
LTYPE
  2
CONTINUOUS
 70
     0
  3
Solid Line
 72
    65
 73
     0
 40
0.0
  0
LTYPE
  2
CENTER
 70
     0
  3
____ _ ____ _ ____ _ ____ _ ____ _ ____ _ ____
 72
    65
 73
     4
 40
2.0
 49
1.25
 49
-0.25
 49
0.25
 49
-0.25
  0
LTYPE
  2
PHANTOM
 70
     0
  3
_____ _ _ _____ _ _ _____ _ _ _____ _ _ ____
 72
    65
 73
     6
 40
2.5
 49
1.25
 49
-0.25
 49
0.25
 49
-0.25
 49
0.25
 49
-0.25
  0
LTYPE
  2
PHANTOM2
 70
     0
  3
___ _ _ ___ _ _ ___ _ _ ___ _ _
 72
    65
 73
     6
 40
1.25
 49
0.625
 49
-0.125
 49
0.125
 49
-0.125
 49
0.125
 49
-0.125
  0
ENDTAB
  0
TABLE
  2
LAYER
 70
     5
  0
LAYER
  2
0
 70
     0
 62
     7
  6
CONTINUOUS
  0
LAYER
  2
1
 70
     0
 62
     1
  6
CENTER
  0
LAYER
  2
DEFPOINTS
 70
     0
 62
     7
  6
CONTINUOUS
  0
LAYER
  2
5
 70
     0
 62
     3
  6
PHANTOM
  0
LAYER
  2
3
 70
     0
 62
     3
  6
CONTINUOUS
  0
ENDTAB
  0
TABLE
  2
STYLE
 70
     2
  0
STYLE
  2
STANDARD
 70
     0
 40
0.0
 41
1.0
 50
0.0
 71
     0
 42
6.0
  3
TXT
  4
BIGFONT
  0
STYLE
  2
STANDARD1
 70
     0
 40
0.0
 41
1.0
 50
0.0
 71
     0
 42
3.0
  3
txt
  4

  0
ENDTAB
  0
TABLE
  2
VIEW
 70
     1
  0
VIEW
  2
ALL
 70
     0
 40
270.0
 10
213.25689075630251
 20
135.0
 41
0.0
 11
0.0
 21
0.0
 31
1.0
 12
0.0
 22
0.0
 32
0.0
 42
0.0
 43
0.0
 44
0.0
 50
0.0
 71
     0
  0
ENDTAB
  0
TABLE
  2
UCS
 70
     0
  0
ENDTAB
  0
TABLE
  2
APPID
 70
    13
  0
APPID
  2
ACAD
 70
     0
  0
APPID
  2
ACAD_EXEMPT_FROM_CAD_STANDARDS
 70
     0
  0
APPID
  2
ACAD_MLEADERVER
 70
     0
  0
APPID
  2
ACAD_DSTYLE_DIMJAG
 70
     0
  0
APPID
  2
ACAD_DSTYLE_DIMTALN
 70
     0
  0
APPID
  2
ACAD_PSEXT
 70
     0
  0
APPID
  2
ACAD_DSTYLE_DIMBREAK
 70
     0
  0
APPID
  2
ACAECLAYERSTANDARD
 70
     0
  0
APPID
  2
ACCMTRANSPARENCY
 70
     0
  0
APPID
  2
GRADIENTCOLOR1ACI
 70
     0
  0
APPID
  2
GRADIENTCOLOR2ACI
 70
     0
  0
APPID
  2
ACAD_DSTYLE_DIMRADIAL_EXTENSION
 70
     0
  0
APPID
  2
ACAD_NAV_VCDISPLAY
 70
     0
  0
ENDTAB
  0
TABLE
  2
DIMSTYLE
 70
     1
  0
DIMSTYLE
  2
STANDARD
 70
     0
  3

  4

  5

  6

  7

 40
1.0
 41
0.18
 42
0.0625
 43
0.38
 44
0.18
 45
0.0
 46
0.0
 47
0.0
 48
0.0
140
0.18
141
0.09
142
0.0
143
25.399999999999999
144
1.0
145
0.0
146
1.0
147
0.09
 71
     0
 72
     0
 73
     1
 74
     1
 75
     0
 76
     0
 77
     0
 78
     0
170
     0
171
     2
172
     0
173
     0
174
     0
175
     0
176
     0
177
     0
178
     0
  0
ENDTAB
  0
ENDSEC
  0
SECTION
  2
BLOCKS
  0
BLOCK
  8
0
  2
$MODEL_SPACE
 70
     0
 10
0.0
 20
0.0
 30
0.0
  3
$MODEL_SPACE
  1

  0
ENDBLK
  5
126
  8
0
  0
BLOCK
 67
     1
  8
0
  2
$PAPER_SPACE
 70
     0
 10
0.0
 20
0.0
 30
0.0
  3
$PAPER_SPACE
  1

  0
ENDBLK
  5
124
 67
     1
  8
0
  0
ENDSEC
  0
SECTION
  2
ENTITIES
  0
ARC
  5
1D6B7
  8
0
 10
37.236082280500447
 20
48.00947509342631
 30
0.0
 40
0.750020399310444
 50
269.57379267231153
 51
90.418922996491389
  0
ARC
  5
1D6B8
  8
0
 10
22.764363891498419
 20
48.009477562617377
 30
0.0
 40
0.7500171679254378
 50
89.58911684511898
 51
270.3629745371415
  0
LINE
  5
1D6BB
  8
0
 10
23.5
 20
63.0
 30
0.0
 11
23.5
 21
55.0
 31
0.0
  0
LINE
  5
1D6BC
  8
0
 10
36.5
 20
55.0
 30
0.0
 11
36.5
 21
63.0
 31
0.0
  0
LINE
  5
1D6BD
  8
0
 10
26.0
 20
41.018950890100953
 30
0.0
 11
26.0
 21
31.29999999999999
 31
0.0
  0
LINE
  5
1D6BE
  8
0
 10
34.0
 20
31.29999999999999
 30
0.0
 11
34.0
 21
41.018950890100953
 31
0.0
  0
LINE
  5
1D6BF
  8
0
 10
26.0
 20
31.29999999999999
 30
0.0
 11
27.300000000000011
 21
30.0
 31
0.0
  0
LINE
  5
1D6C0
  8
0
 10
32.700000000000053
 20
30.0
 30
0.0
 11
34.0
 21
31.29999999999999
 31
0.0
  0
LINE
  5
1D6C1
  8
0
 10
37.986602540378442
 20
43.459475445049371
 30
0.0
 11
37.986602540378392
 21
47.259475445049389
 31
0.0
  0
LINE
  5
1D6C2
  8
0
 10
37.986602540378392
 20
48.759475445049382
 30
0.0
 11
37.986602540378392
 21
52.559475445049372
 31
0.0
  0
LINE
  5
1D6C3
  8
0
 10
22.013397459621618
 20
47.259475445050541
 30
0.0
 11
22.013397459621562
 21
43.459475445050543
 31
0.0
  0
LINE
  5
1D6C4
  8
0
 10
22.013397459621618
 20
52.559475445050538
 30
0.0
 11
22.013397459621618
 21
48.759475445050541
 31
0.0
  0
LINE
  5
1D6C5
  8
0
 10
22.100000000000019
 20
53.700000000000003
 30
0.0
 11
23.240524554949619
 21
52.559475445050403
 31
0.0
  0
LINE
  5
1D6C6
  8
0
 10
36.759475445049247
 20
52.559475445049237
 30
0.0
 11
37.900000000000041
 21
53.700000000000003
 31
0.0
  0
LINE
  5
1D6C7
  8
0
 10
22.100000000000019
 20
55.0
 30
0.0
 11
22.100000000000019
 21
53.700000000000003
 31
0.0
  0
LINE
  5
1D6C8
  8
0
 10
37.900000000000041
 20
53.700000000000003
 30
0.0
 11
37.900000000000041
 21
55.0
 31
0.0
  0
LINE
  5
1D6C9
  8
0
 10
37.900000000000041
 20
41.018950890100953
 30
0.0
 11
37.900000000000041
 21
42.31895089010095
 31
0.0
  0
LINE
  5
1D6CA
  8
0
 10
22.100000000000019
 20
42.31895089010095
 30
0.0
 11
22.100000000000019
 21
41.018950890100953
 31
0.0
  0
LINE
  5
1D6CB
  8
0
 10
37.900000000000041
 20
42.31895089010095
 30
0.0
 11
36.759475445051748
 21
43.459475445049257
 31
0.0
  0
LINE
  5
1D6CC
  8
0
 10
23.240524554949442
 20
43.459475445050408
 30
0.0
 11
22.100000000000019
 21
42.31895089010095
 31
0.0
  0
LINE
  5
1D6CF
  8
0
 10
23.5
 20
63.0
 30
0.0
 11
36.5
 21
63.0
 31
0.0
  0
LINE
  5
1D6D1
  8
0
 10
26.0
 20
31.29999999999999
 30
0.0
 11
34.000000000000057
 21
31.29999999999999
 31
0.0
  0
LINE
  5
1D6D2
  8
0
 10
32.699999999999989
 20
30.0
 30
0.0
 11
27.300000000000011
 21
30.0
 31
0.0
  0
LINE
  5
1D6D4
  8
0
 10
30.68660254037837
 20
47.259475445049247
 30
0.0
 11
30.68660254037837
 21
43.459475445049257
 31
0.0
  0
LINE
  5
1D6D6
  8
0
 10
37.986602540378442
 20
43.459475445049371
 30
0.0
 11
30.68660254037837
 21
43.459475445049257
 31
0.0
  0
LINE
  5
1D6D7
  8
0
 10
30.68660254037832
 20
52.559475445049301
 30
0.0
 11
30.68660254037837
 21
48.759475445049219
 31
0.0
  0
LINE
  5
1D6D8
  8
0
 10
37.986602540378392
 20
52.559475445049372
 30
0.0
 11
30.68660254037832
 21
52.559475445049301
 31
0.0
  0
LINE
  5
1D6DA
  8
0
 10
37.986602540378392
 20
47.259475445050299
 30
0.0
 11
22.013397459621618
 21
47.259475445050541
 31
0.0
  0
LINE
  5
1D6DB
  8
0
 10
29.313397459621509
 20
47.25947544505042
 30
0.0
 11
29.313397459621509
 21
43.459475445050437
 31
0.0
  0
LINE
  5
1D6DC
  8
0
 10
29.313397459621509
 20
43.459475445050437
 30
0.0
 11
22.013397459621562
 21
43.459475445050543
 31
0.0
  0
LINE
  5
1D6DD
  8
0
 10
29.313397459621569
 20
52.559475445050467
 30
0.0
 11
22.013397459621618
 21
52.559475445050538
 31
0.0
  0
LINE
  5
1D6DE
  8
0
 10
29.313397459621569
 20
52.559475445050467
 30
0.0
 11
29.313397459621569
 21
48.75947544505042
 31
0.0
  0
LINE
  5
1D6DF
  8
0
 10
37.986602540378442
 20
48.759475445050299
 30
0.0
 11
22.013397459621618
 21
48.759475445050541
 31
0.0
  0
LINE
  5
1D6E0
  8
0
 10
22.100000000000019
 20
53.700000000000003
 30
0.0
 11
37.900000000000041
 21
53.700000000000003
 31
0.0
  0
LINE
  5
1D6E1
  8
0
 10
29.313397459621569
 20
50.899999999999991
 30
0.0
 11
30.68660254037832
 21
50.899999999999991
 31
0.0
  0
LINE
  5
1D6E2
  8
0
 10
22.100000000000019
 20
55.0
 30
0.0
 11
37.900000000000041
 21
55.0
 31
0.0
  0
LINE
  5
1D6E3
  8
0
 10
37.900000000000041
 20
41.018950890100953
 30
0.0
 11
22.100000000000019
 21
41.018950890100953
 31
0.0
  0
LINE
  5
1D6E4
  8
0
 10
37.900000000000041
 20
42.31895089010095
 30
0.0
 11
22.100000000000019
 21
42.31895089010095
 31
0.0
  0
LINE
  5
1D6E5
  8
0
 10
30.68660254037837
 20
45.118950890100948
 30
0.0
 11
29.313397459621509
 21
45.118950890100948
 31
0.0
  0
LINE
  5
1D6E6
  8
0
 10
23.478160072238609
 20
106.9853885982554
 30
0.0
 11
22.791557531860182
 21
105.7961581137141
 31
0.0
  0
LINE
  5
1D6E7
  8
0
 10
37.208442468139879
 20
105.7961581137141
 30
0.0
 11
36.521839927761448
 21
106.9853885982554
 31
0.0
  0
LINE
  5
1D6E8
  8
0
 10
29.313397459621569
 20
94.500000000000014
 30
0.0
 11
30.686602540378431
 21
94.500000000000014
 31
0.0
  0
LINE
  5
1D6EF
  8
0
 10
28.267949192431161
 20
99.427182237323123
 30
0.0
 11
31.7320508075689
 21
99.427182237323123
 31
0.0
  0
LINE
  5
1D6F0
  8
0
 10
33.464101615137793
 20
102.42718223732309
 30
0.0
 11
31.7320508075689
 21
99.427182237323123
 31
0.0
  0
LINE
  5
1D6F1
  8
0
 10
33.464101615137793
 20
102.42718223732309
 30
0.0
 11
31.7320508075689
 21
105.42718223732309
 31
0.0
  0
LINE
  5
1D6F2
  8
0
 10
31.7320508075689
 20
105.42718223732309
 30
0.0
 11
28.267949192431161
 21
105.42718223732309
 31
0.0
  0
LINE
  5
1D6F3
  8
0
 10
26.535898384862261
 20
102.42718223732309
 30
0.0
 11
28.267949192431161
 21
105.42718223732309
 31
0.0
  0
LINE
  5
1D6F4
  8
0
 10
26.535898384862261
 20
102.42718223732309
 30
0.0
 11
28.267949192431161
 21
99.427182237323123
 31
0.0
  0
CIRCLE
  5
1D6F5
  8
0
 10
30.0
 20
102.42718223732309
 30
0.0
 40
6.5
  0
LINE
  5
1D6F6
  8
0
 10
30.68660254037832
 20
94.500000000000014
 30
0.0
 11
30.68660254037832
 21
94.557075697285356
 31
0.0
  0
ARC
  5
1D6F7
  8
0
 10
30.086602540378351
 20
102.3771822373232
 30
0.0
 40
7.900000000000027
 50
274.35577262702981
 51
25.644227372968579
  0
LINE
  5
1D6F8
  8
0
 10
37.159013464352029
 20
105.7676202650714
 30
0.0
 11
37.208442468139822
 21
105.7961581137141
 31
0.0
  0
LINE
  5
1D6F9
  8
0
 10
22.791557531860239
 20
105.7961581137142
 30
0.0
 11
22.840986535648089
 21
105.7676202650715
 31
0.0
  0
ARC
  5
1D6FA
  8
0
 10
29.913397459621649
 20
102.3771822373232
 30
0.0
 40
7.9000000000000199
 50
154.35577262703069
 51
265.64422737297019
  0
LINE
  5
1D6FB
  8
0
 10
29.313397459621569
 20
94.557075697285356
 30
0.0
 11
29.313397459621569
 21
94.500000000000014
 31
0.0
  0
LINE
  5
1D6FC
  8
0
 10
36.521839927761448
 20
106.9853885982553
 30
0.0
 11
36.472410923973648
 21
106.9568507496127
 31
0.0
  0
ARC
  5
1D6FD
  8
0
 10
30.0
 20
102.527182237323
 30
0.0
 40
7.9000000000000199
 50
34.355772627029658
 51
145.64422737297031
  0
LINE
  5
1D6FE
  8
0
 10
23.527589076026398
 20
106.9568507496127
 30
0.0
 11
23.478160072238548
 21
106.9853885982553
 31
0.0
  0
CIRCLE
  5
1D6FF
  8
0
 10
30.0
 20
102.42718223732309
 30
0.0
 40
7.9000000000000048
  0
LINE
  5
1D704
  8
0
 10
73.51186098905464
 20
63.0
 30
0.0
 11
73.51186098905464
 21
55.0
 31
0.0
  0
LINE
  5
1D705
  8
0
 10
86.51186098905464
 20
55.0
 30
0.0
 11
86.51186098905464
 21
63.0
 31
0.0
  0
LINE
  5
1D706
  8
0
 10
76.01186098905464
 20
41.018950890100953
 30
0.0
 11
76.01186098905464
 21
31.29999999999999
 31
0.0
  0
LINE
  5
1D707
  8
0
 10
84.01186098905464
 20
31.29999999999999
 30
0.0
 11
84.01186098905464
 21
41.018950890100953
 31
0.0
  0
LINE
  5
1D708
  8
0
 10
76.01186098905464
 20
31.29999999999999
 30
0.0
 11
77.311860989054594
 21
30.0
 31
0.0
  0
LINE
  5
1D709
  8
0
 10
82.711860989054628
 20
30.0
 30
0.0
 11
84.01186098905464
 21
31.29999999999999
 31
0.0
  0
LINE
  5
1D70A
  8
0
 10
88.011860989054597
 20
48.759475445050569
 30
0.0
 11
88.011860989054526
 21
52.559475445050552
 31
0.0
  0
LINE
  5
1D70B
  8
0
 10
88.01186098905464
 20
43.45947544505055
 30
0.0
 11
88.011860989054597
 21
47.259475445050548
 31
0.0
  0
LINE
  5
1D70C
  8
0
 10
72.111860989054605
 20
53.700000000000003
 30
0.0
 11
73.252385544004142
 21
52.559475445050467
 31
0.0
  0
LINE
  5
1D70D
  8
0
 10
86.771336434105024
 20
52.559475445050403
 30
0.0
 11
87.911860989054617
 21
53.700000000000003
 31
0.0
  0
LINE
  5
1D70E
  8
0
 10
72.111860989054605
 20
55.0
 30
0.0
 11
72.111860989054605
 21
53.700000000000003
 31
0.0
  0
LINE
  5
1D70F
  8
0
 10
87.911860989054617
 20
53.700000000000003
 30
0.0
 11
87.911860989054617
 21
55.0
 31
0.0
  0
LINE
  5
1D710
  8
0
 10
87.911860989054617
 20
41.018950890100953
 30
0.0
 11
87.911860989054617
 21
42.31895089010095
 31
0.0
  0
LINE
  5
1D711
  8
0
 10
72.111860989054605
 20
42.31895089010095
 30
0.0
 11
72.111860989054605
 21
41.018950890100953
 31
0.0
  0
LINE
  5
1D712
  8
0
 10
87.911860989054617
 20
42.31895089010095
 30
0.0
 11
86.771336434105123
 21
43.459475445050408
 31
0.0
  0
LINE
  5
1D713
  8
0
 10
73.252385544002891
 20
43.459475445049229
 30
0.0
 11
72.111860989054605
 21
42.31895089010095
 31
0.0
  0
ARC
  5
1D715
  8
0
 10
72.834678751731417
 20
48.009475445049283
 30
0.0
 40
0.75
 50
90.0
 51
270.0
  0
ARC
  5
1D717
  8
0
 10
87.261860989054625
 20
48.009475445049283
 30
0.0
 40
0.7499999999999981
 50
271.82672763626891
 51
90.029286670316253
  0
LINE
  5
1D718
  8
0
 10
73.51186098905464
 20
63.0
 30
0.0
 11
86.51186098905464
 21
63.0
 31
0.0
  0
LINE
  5
1D719
  8
0
 10
76.01186098905464
 20
31.29999999999999
 30
0.0
 11
84.01186098905464
 21
31.29999999999999
 31
0.0
  0
LINE
  5
1D71A
  8
0
 10
82.711860989054628
 20
30.0
 30
0.0
 11
77.311860989054594
 21
30.0
 31
0.0
  0
LINE
  5
1D71B
  8
0
 10
72.084678751731417
 20
47.259475445049233
 30
0.0
 11
72.084678751731417
 21
43.459475445049257
 31
0.0
  0
LINE
  5
1D71C
  8
0
 10
88.011860989054526
 20
47.259475445049269
 30
0.0
 11
72.084678751731417
 21
47.259475445049233
 31
0.0
  0
LINE
  5
1D71D
  8
0
 10
83.380836865445531
 20
47.259475445049262
 30
0.0
 11
83.380836865445531
 21
43.459475445049279
 31
0.0
  0
LINE
  5
1D71E
  8
0
 10
83.380836865445531
 20
43.459475445049279
 30
0.0
 11
72.084678751731417
 21
43.459475445049257
 31
0.0
  0
LINE
  5
1D71F
  8
0
 10
72.084678751731417
 20
52.559475445049301
 30
0.0
 11
72.084678751731417
 21
48.759475445049219
 31
0.0
  0
LINE
  5
1D720
  8
0
 10
83.380836865445588
 20
52.559475445049301
 30
0.0
 11
72.084678751731417
 21
52.559475445049301
 31
0.0
  0
LINE
  5
1D721
  8
0
 10
83.380836865445588
 20
52.559475445049301
 30
0.0
 11
83.380836865445531
 21
48.75947544504924
 31
0.0
  0
LINE
  5
1D722
  8
0
 10
88.01186098905464
 20
48.759475445049262
 30
0.0
 11
72.084678751731417
 21
48.759475445049219
 31
0.0
  0
LINE
  5
1D723
  8
0
 10
83.380836865445644
 20
51.392568641918331
 30
0.0
 11
83.96801635546575
 21
52.559475445050467
 31
0.0
  0
LINE
  5
1D724
  8
0
 10
88.011860989054455
 20
52.559475445050467
 30
0.0
 11
83.96801635546575
 21
52.559475445050467
 31
0.0
  0
LINE
  5
1D725
  8
0
 10
84.5700673499868
 20
52.559475445050467
 30
0.0
 11
84.570067349986843
 21
48.759475445050377
 31
0.0
  0
LINE
  5
1D72A
  8
0
 10
84.570067349986843
 20
47.259475445050391
 30
0.0
 11
84.570067349986843
 21
43.45947544505043
 31
0.0
  0
LINE
  5
1D72B
  8
0
 10
88.011860989054597
 20
43.459475445050359
 30
0.0
 11
83.968016355465807
 21
43.459475445050437
 31
0.0
  0
LINE
  5
1D72C
  8
0
 10
83.968016355465807
 20
43.459475445050437
 30
0.0
 11
83.380836865445644
 21
44.6263822481828
 31
0.0
  0
LINE
  5
1D732
  8
0
 10
72.111860989054605
 20
53.700000000000003
 30
0.0
 11
87.911860989054546
 21
53.700000000000003
 31
0.0
  0
LINE
  5
1D734
  8
0
 10
72.111860989054605
 20
55.0
 30
0.0
 11
87.911860989054546
 21
55.0
 31
0.0
  0
LINE
  5
1D735
  8
0
 10
87.911860989054617
 20
42.31895089010095
 30
0.0
 11
72.111860989054605
 21
42.31895089010095
 31
0.0
  0
LINE
  5
1D736
  8
0
 10
87.911860989054617
 20
41.018950890100953
 30
0.0
 11
72.111860989054605
 21
41.018950890100953
 31
0.0
  0
ARC
  5
1D737
  8
5
 10
39.834158491853721
 20
45.83907295251025
 30
0.0
 40
0.7500203993104423
 50
269.57379267231153
 51
90.418922996491389
  0
ARC
  5
1D73A
  8
5
 10
20.16628768014505
 20
45.839075421701317
 30
0.0
 40
0.7500171679254236
 50
89.58911684511898
 51
270.3629745371415
  0
LINE
  5
1D741
  8
5
 10
19.415321248268238
 20
45.089073304134509
 30
0.0
 11
19.415321248268128
 21
41.289073304134497
 31
0.0
  0
LINE
  5
1D742
  8
5
 10
19.415321248268238
 20
50.389073304134513
 30
0.0
 11
19.415321248268238
 21
46.589073304134509
 31
0.0
  0
LINE
  5
1D743
  8
5
 10
40.584678751731637
 20
41.289073304133431
 30
0.0
 11
40.584678751731524
 21
45.08907330413345
 31
0.0
  0
LINE
  5
1D744
  8
5
 10
40.584678751731524
 20
46.589073304133443
 30
0.0
 11
40.584678751731524
 21
50.38907330413344
 31
0.0
  0
LINE
  5
1D750
  8
5
 10
22.013397459621562
 20
45.089073304134452
 30
0.0
 11
19.415321248268238
 21
45.089073304134509
 31
0.0
  0
LINE
  5
1D752
  8
5
 10
22.099999999999969
 20
41.289073304134462
 30
0.0
 11
19.415321248268128
 21
41.289073304134497
 31
0.0
  0
LINE
  5
1D753
  8
5
 10
22.013397459621618
 20
50.389073304134499
 30
0.0
 11
19.415321248268238
 21
50.389073304134513
 31
0.0
  0
LINE
  5
1D755
  8
5
 10
22.013397459621618
 20
46.589073304134459
 30
0.0
 11
19.415321248268238
 21
46.589073304134509
 31
0.0
  0
LINE
  5
1D757
  8
5
 10
40.584678751731524
 20
45.08907330413345
 30
0.0
 11
37.986602540378442
 21
45.089073304133379
 31
0.0
  0
LINE
  5
1D758
  8
5
 10
40.584678751731637
 20
41.289073304133431
 30
0.0
 11
37.899999999999977
 21
41.289073304133389
 31
0.0
  0
LINE
  5
1D75A
  8
5
 10
40.584678751731524
 20
50.38907330413344
 30
0.0
 11
37.986602540378442
 21
50.389073304133412
 31
0.0
  0
LINE
  5
1D75B
  8
5
 10
40.584678751731524
 20
46.589073304133443
 30
0.0
 11
37.986602540378328
 21
46.589073304133372
 31
0.0
  0
LINE
  5
1D760
  8
5
 10
24.7486759745691
 20
109.1859866929163
 30
0.0
 11
24.78500778700198
 21
109.2308797183467
 31
0.0
  0
LINE
  5
1D761
  8
5
 10
35.220417679985189
 20
109.22820263293031
 30
0.0
 11
35.251324025430677
 21
109.1859866929163
 31
0.0
  0
LINE
  5
1D762
  8
5
 10
23.478160072238548
 20
109.9853885982554
 30
0.0
 11
20.193481320506748
 21
104.2961581137141
 31
0.0
  0
LINE
  5
1D763
  8
5
 10
21.52104162952946
 20
103.5955600190532
 30
0.0
 11
24.7486759745691
 21
109.1859866929163
 31
0.0
  0
LINE
  5
1D764
  8
5
 10
39.806518679493138
 20
104.2961581137141
 30
0.0
 11
36.521839927761341
 21
109.9853885982554
 31
0.0
  0
LINE
  5
1D765
  8
5
 10
35.251324025430677
 20
109.1859866929163
 30
0.0
 11
38.478958370470423
 21
103.5955600190532
 31
0.0
  0
LINE
  5
1D766
  8
5
 10
26.77236565496014
 20
94.500000000000014
 30
0.0
 11
26.71628577148477
 21
94.506629525201035
 31
0.0
  0
LINE
  5
1D767
  8
5
 10
21.500137594546459
 20
103.5476934685223
 30
0.0
 11
21.52104162952946
 21
103.5955600190532
 31
0.0
  0
LINE
  5
1D768
  8
5
 10
38.478958370470423
 20
103.5955600190532
 30
0.0
 11
38.501640490775458
 21
103.5427863401985
 31
0.0
  0
LINE
  5
1D769
  8
5
 10
33.279540011282393
 20
94.505829849928546
 30
0.0
 11
33.22763434503964
 21
94.500000000000014
 31
0.0
  0
LINE
  5
1D76A
  8
5
 10
26.7153212482682
 20
93.000000000000014
 30
0.0
 11
33.28467875173169
 21
93.000000000000014
 31
0.0
  0
LINE
  5
1D76B
  8
5
 10
33.22763434503964
 20
94.500000000000014
 30
0.0
 11
26.77236565496014
 21
94.500000000000014
 31
0.0
  0
ARC
  5
1D779
  8
5
 10
27.315321248268219
 20
100.8771822373233
 30
0.0
 40
6.7000000000000046
 50
155.1378482490357
 51
264.8621517509655
  0
LINE
  5
1D77A
  8
5
 10
26.7153212482682
 20
95.153449923181498
 30
0.0
 11
26.7153212482682
 21
93.000000000000043
 31
0.0
  0
ARC
  5
1D77B
  8
5
 10
27.315321248268219
 20
100.8771822373233
 30
0.0
 40
7.9000000000000536
 50
154.35577262703069
 51
265.64422737297019
  0
LINE
  5
1D77C
  8
5
 10
20.193481320506859
 20
104.2961581137142
 30
0.0
 11
22.058423659759619
 21
103.2194331521235
 31
0.0
  0
ARC
  5
1D77F
  8
5
 10
32.684678751731553
 20
100.8771822373233
 30
0.0
 40
6.7000000000000117
 50
275.13784824903439
 51
24.862151750962251
  0
LINE
  5
1D780
  8
5
 10
37.941576340240367
 20
103.2194331521235
 30
0.0
 11
39.80651867949291
 21
104.2961581137142
 31
0.0
  0
ARC
  5
1D781
  8
5
 10
32.684678751731553
 20
100.8771822373233
 30
0.0
 40
7.9000000000000172
 50
274.35577262702981
 51
25.644227372968579
  0
LINE
  5
1D782
  8
5
 10
33.284678751731462
 20
93.000000000000071
 30
0.0
 11
33.284678751731519
 21
95.153449923181313
 31
0.0
  0
ARC
  5
1D785
  8
5
 10
30.0
 20
105.527182237323
 30
0.0
 40
6.7000000000000188
 50
35.13784824903712
 51
144.86215175096291
  0
LINE
  5
1D786
  8
5
 10
25.343102411491198
 20
108.9086636366646
 30
0.0
 11
23.478160072238548
 21
109.9853885982553
 31
0.0
  0
ARC
  5
1D787
  8
5
 10
30.0
 20
105.527182237323
 30
0.0
 40
7.9000000000000146
 50
34.355772627029658
 51
145.64422737297031
  0
LINE
  5
1D788
  8
5
 10
36.521839927761448
 20
109.9853885982553
 30
0.0
 11
34.656897588508627
 21
108.9086636366646
 31
0.0
  0
LINE
  5
1D796
  8
5
 10
91.011860989054526
 20
46.58907330413453
 30
0.0
 11
91.011860989054526
 21
50.389073304134527
 31
0.0
  0
LINE
  5
1D797
  8
5
 10
91.011860989054625
 20
41.289073304134533
 30
0.0
 11
91.011860989054625
 21
45.089073304134523
 31
0.0
  0
ARC
  5
1D7A1
  8
5
 10
90.26186098905464
 20
45.839073304133237
 30
0.0
 40
0.7499999999999981
 50
271.82672763626891
 51
90.029286670316253
  0
ARC
  5
1D7A2
  8
5
 10
71.334678751731531
 20
45.839073304133237
 30
0.0
 40
0.75
 50
90.0
 51
270.0
  0
LINE
  5
1D7A6
  8
5
 10
70.584678751731531
 20
45.089073304133279
 30
0.0
 11
70.584678751731531
 21
41.289073304133311
 31
0.0
  0
LINE
  5
1D7A7
  8
5
 10
72.084678751731417
 20
45.089073304133287
 30
0.0
 11
70.584678751731531
 21
45.089073304133279
 31
0.0
  0
LINE
  5
1D7A9
  8
5
 10
72.111860989054605
 20
41.289073304133318
 30
0.0
 11
70.584678751731531
 21
41.289073304133311
 31
0.0
  0
LINE
  5
1D7AA
  8
5
 10
70.584678751731531
 20
50.389073304133341
 30
0.0
 11
70.584678751731531
 21
46.589073304133272
 31
0.0
  0
LINE
  5
1D7AB
  8
5
 10
72.084678751731474
 20
50.389073304133362
 30
0.0
 11
70.584678751731531
 21
50.389073304133341
 31
0.0
  0
LINE
  5
1D7AD
  8
5
 10
72.084678751731417
 20
46.589073304133272
 30
0.0
 11
70.584678751731531
 21
46.589073304133272
 31
0.0
  0
LINE
  5
1D7BB
  8
5
 10
91.011860989054526
 20
46.58907330413453
 30
0.0
 11
88.011860989054597
 21
46.589073304134338
 31
0.0
  0
LINE
  5
1D7BC
  8
5
 10
91.011860989054526
 20
50.389073304134527
 30
0.0
 11
88.011860989054526
 21
50.389073304134442
 31
0.0
  0
LINE
  5
1D7BD
  8
5
 10
91.011860989054625
 20
45.089073304134523
 30
0.0
 11
88.011860989054597
 21
45.089073304134367
 31
0.0
  0
LINE
  5
1D7BE
  8
5
 10
91.011860989054625
 20
41.289073304134533
 30
0.0
 11
87.911860989054674
 21
41.289073304134391
 31
0.0
  0
LINE
  5
1D812
  8
3
 10
33.323500000000081
 20
30.623500000000039
 30
0.0
 11
33.323500000000188
 21
41.01895089010096
 31
0.0
  0
LINE
  5
1D813
  8
3
 10
26.676499999999979
 20
30.623500000000181
 30
0.0
 11
26.676499999999749
 21
41.018950890100953
 31
0.0
  0
LINE
  5
1D814
  8
1
 10
30.0
 20
65.0
 30
0.0
 11
30.0
 21
23.618950890100951
 31
0.0
  0
LINE
  5
1D86A
  8
3
 10
83.33536098905472
 20
30.623500000000039
 30
0.0
 11
83.335360989054834
 21
41.01895089010096
 31
0.0
  0
LINE
  5
1D86B
  8
3
 10
76.688360989054615
 20
30.623500000000181
 30
0.0
 11
76.688360989054388
 21
41.018950890100953
 31
0.0
  0
LINE
  5
1D86C
  8
1
 10
80.011860989054625
 20
65.0
 30
0.0
 11
80.011860989054625
 21
23.618950890100951
 31
0.0
  0
LINE
  5
1D944
  8
1
 10
30.0
 20
115.42718223732309
 30
0.0
 11
30.0
 21
89.427182237323123
 31
0.0
  0
LINE
  5
1D945
  8
1
 10
43.0
 20
102.42718223732309
 30
0.0
 11
17.0
 21
102.42718223732309
 31
0.0
  0
TEXT
  5
1DB40
  8
0
 62
     3
 10
0.0
 20
0.0
 30
0.0
 40
5.0
  1
CP131-08001B
  7
STANDARD1
  0
LINE
  5
1DB99
  8
5
 10
26.000000000000028
 20
31.299999999999969
 30
0.0
 11
26.000000000000028
 21
26.918950890100941
 31
0.0
  0
LINE
  5
1DB9A
  8
5
 10
34.000000000000028
 20
26.918950890100941
 30
0.0
 11
34.000000000000028
 21
31.300000000000011
 31
0.0
  0
LINE
  5
1DB9B
  8
5
 10
26.000000000000028
 20
26.918950890100941
 30
0.0
 11
27.30000000000004
 21
25.618950890100951
 31
0.0
  0
LINE
  5
1DB9C
  8
5
 10
32.700000000000081
 20
25.618950890100951
 30
0.0
 11
34.000000000000028
 21
26.918950890100941
 31
0.0
  0
LINE
  5
1DB9D
  8
5
 10
26.000000000000028
 20
26.918950890100941
 30
0.0
 11
34.000000000000092
 21
26.918950890100941
 31
0.0
  0
LINE
  5
1DB9E
  8
5
 10
32.700000000000017
 20
25.618950890100951
 30
0.0
 11
27.30000000000004
 21
25.618950890100951
 31
0.0
  0
LINE
  5
1DB9F
  8
5
 10
33.323500000000109
 20
26.242450890101001
 30
0.0
 11
33.323500000000173
 21
30.623500000000131
 31
0.0
  0
LINE
  5
1DBA0
  8
5
 10
26.676500000000001
 20
26.242450890101129
 30
0.0
 11
26.676499999999908
 21
30.623500000000089
 31
0.0
  0
LINE
  5
1DBA2
  8
5
 10
76.01186098905464
 20
31.299999999999969
 30
0.0
 11
76.01186098905464
 21
26.918950890100941
 31
0.0
  0
LINE
  5
1DBA3
  8
5
 10
84.01186098905464
 20
26.918950890100941
 30
0.0
 11
84.01186098905464
 21
31.300000000000011
 31
0.0
  0
LINE
  5
1DBA4
  8
5
 10
76.01186098905464
 20
26.918950890100941
 30
0.0
 11
77.311860989054651
 21
25.618950890100951
 31
0.0
  0
LINE
  5
1DBA5
  8
5
 10
82.711860989054685
 20
25.618950890100951
 30
0.0
 11
84.01186098905464
 21
26.918950890100941
 31
0.0
  0
LINE
  5
1DBA6
  8
5
 10
76.01186098905464
 20
26.918950890100941
 30
0.0
 11
84.011860989054696
 21
26.918950890100941
 31
0.0
  0
LINE
  5
1DBA7
  8
5
 10
82.711860989054628
 20
25.618950890100951
 30
0.0
 11
77.311860989054651
 21
25.618950890100951
 31
0.0
  0
LINE
  5
1DBA8
  8
5
 10
83.33536098905472
 20
26.242450890101001
 30
0.0
 11
83.335360989054777
 21
30.623500000000131
 31
0.0
  0
LINE
  5
1DBA9
  8
5
 10
76.688360989054615
 20
26.242450890101129
 30
0.0
 11
76.688360989054516
 21
30.623500000000089
 31
0.0
  0
ENDSEC
  0
EOF
