  0
SECTION
  2
HEADER
  9
$ACADVER
  1
AC1009
  9
$INSBASE
 10
0.0
 20
0.0
 30
0.0
  9
$EXTMIN
 10
0.0
 20
-2.960436562073669
 30
0.0
  9
$EXTMAX
 10
170.00000000000011
 20
248.5
 30
0.0
  9
$LIMMIN
 10
0.0
 20
0.0
  9
$LIMMAX
 10
12.0
 20
9.0
  9
$ORTHOMODE
 70
     1
  9
$REGENMODE
 70
     1
  9
$FILLMODE
 70
     1
  9
$QTEXTMODE
 70
     0
  9
$MIRRTEXT
 70
     0
  9
$DRAGMODE
 70
     2
  9
$LTSCALE
 40
5.0
  9
$OSMODE
 70
    37
  9
$ATTMODE
 70
     1
  9
$TEXTSIZE
 40
0.2
  9
$TRACEWID
 40
0.05
  9
$TEXTSTYLE
  7
STANDARD
  9
$CLAYER
  8
0
  9
$CELTYPE
  6
BYLAYER
  9
$CECOLOR
 62
   256
  9
$DIMSCALE
 40
1.0
  9
$DIMASZ
 40
0.18
  9
$DIMEXO
 40
0.0625
  9
$DIMDLI
 40
0.38
  9
$DIMRND
 40
0.0
  9
$DIMDLE
 40
0.0
  9
$DIMEXE
 40
0.18
  9
$DIMTP
 40
0.0
  9
$DIMTM
 40
0.0
  9
$DIMTXT
 40
2.6000000000000001
  9
$DIMCEN
 40
0.09
  9
$DIMTSZ
 40
0.0
  9
$DIMTOL
 70
     0
  9
$DIMLIM
 70
     0
  9
$DIMTIH
 70
     0
  9
$DIMTOH
 70
     0
  9
$DIMSE1
 70
     0
  9
$DIMSE2
 70
     0
  9
$DIMTAD
 70
     1
  9
$DIMZIN
 70
     8
  9
$DIMBLK
  1

  9
$DIMASO
 70
     1
  9
$DIMSHO
 70
     1
  9
$DIMPOST
  1

  9
$DIMAPOST
  1

  9
$DIMALT
 70
     0
  9
$DIMALTD
 70
     2
  9
$DIMALTF
 40
25.399999999999999
  9
$DIMLFAC
 40
1.0
  9
$DIMTOFL
 70
     0
  9
$DIMTVP
 40
0.0
  9
$DIMTIX
 70
     0
  9
$DIMSOXD
 70
     0
  9
$DIMSAH
 70
     0
  9
$DIMBLK1
  1

  9
$DIMBLK2
  1

  9
$DIMSTYLE
  2
STANDARD
  9
$DIMCLRD
 70
     0
  9
$DIMCLRE
 70
     0
  9
$DIMCLRT
 70
     0
  9
$DIMTFAC
 40
1.0
  9
$DIMGAP
 40
0.09
  9
$LUNITS
 70
     2
  9
$LUPREC
 70
     1
  9
$SKETCHINC
 40
0.1
  9
$FILLETRAD
 40
0.0
  9
$AUNITS
 70
     0
  9
$AUPREC
 70
     0
  9
$MENU
  1
.
  9
$ELEVATION
 40
0.0
  9
$PELEVATION
 40
0.0
  9
$THICKNESS
 40
0.0
  9
$LIMCHECK
 70
     0
  9
$BLIPMODE
 70
     0
  9
$CHAMFERA
 40
0.0
  9
$CHAMFERB
 40
0.0
  9
$SKPOLY
 70
     0
  9
$TDCREATE
 40
2453083.4120647679
  9
$TDUPDATE
 40
2456927.6946692942
  9
$TDINDWG
 40
0.6764001389
  9
$TDUSRTIMER
 40
0.6764000231
  9
$USRTIMER
 70
     1
  9
$ANGBASE
 50
0.0
  9
$ANGDIR
 70
     0
  9
$PDMODE
 70
     0
  9
$PDSIZE
 40
0.0
  9
$PLINEWID
 40
0.0
  9
$COORDS
 70
     1
  9
$SPLFRAME
 70
     0
  9
$SPLINETYPE
 70
     6
  9
$SPLINESEGS
 70
     8
  9
$ATTDIA
 70
     0
  9
$ATTREQ
 70
     1
  9
$HANDLING
 70
     1
  9
$HANDSEED
  5
6D02
  9
$SURFTAB1
 70
     6
  9
$SURFTAB2
 70
     6
  9
$SURFTYPE
 70
     6
  9
$SURFU
 70
     6
  9
$SURFV
 70
     6
  9
$UCSNAME
  2

  9
$UCSORG
 10
0.0
 20
0.0
 30
0.0
  9
$UCSXDIR
 10
1.0
 20
0.0
 30
0.0
  9
$UCSYDIR
 10
0.0
 20
1.0
 30
0.0
  9
$PUCSNAME
  2

  9
$PUCSORG
 10
0.0
 20
0.0
 30
0.0
  9
$PUCSXDIR
 10
1.0
 20
0.0
 30
0.0
  9
$PUCSYDIR
 10
0.0
 20
1.0
 30
0.0
  9
$USERI1
 70
     0
  9
$USERI2
 70
     1
  9
$USERI3
 70
     0
  9
$USERI4
 70
     0
  9
$USERI5
 70
     0
  9
$USERR1
 40
0.0
  9
$USERR2
 40
0.0
  9
$USERR3
 40
0.0
  9
$USERR4
 40
0.0
  9
$USERR5
 40
0.0
  9
$WORLDVIEW
 70
     1
  9
$SHADEDGE
 70
     3
  9
$SHADEDIF
 70
    70
  9
$TILEMODE
 70
     1
  9
$MAXACTVP
 70
    64
  9
$PLIMCHECK
 70
     0
  9
$PEXTMIN
 10
0.0
 20
0.0
 30
0.0
  9
$PEXTMAX
 10
0.0
 20
0.0
 30
0.0
  9
$PLIMMIN
 10
0.0
 20
0.0
  9
$PLIMMAX
 10
12.0
 20
9.0
  9
$UNITMODE
 70
     0
  9
$VISRETAIN
 70
     1
  9
$PLINEGEN
 70
     0
  9
$PSLTSCALE
 70
     1
  0
ENDSEC
  0
SECTION
  2
TABLES
  0
TABLE
  2
VPORT
 70
     1
  0
VPORT
  2
*ACTIVE
 70
     0
 10
0.0
 20
0.0
 11
1.0
 21
1.0
 12
314.18636995827541
 22
180.0
 13
0.0
 23
0.0
 14
0.5
 24
0.5
 15
0.5
 25
0.5
 16
0.0
 26
0.0
 36
1.0
 17
0.0
 27
0.0
 37
0.0
 40
360.0
 41
1.7454798331015291
 42
50.0
 43
0.0
 44
0.0
 50
0.0
 51
0.0
 71
     0
 72
  1000
 73
     1
 74
     2
 75
     0
 76
     0
 77
     0
 78
     0
  0
ENDTAB
  0
TABLE
  2
LTYPE
 70
     4
  0
LTYPE
  2
CONTINUOUS
 70
     0
  3
Solid Line
 72
    65
 73
     0
 40
0.0
  0
LTYPE
  2
CENTER
 70
     0
  3
____ _ ____ _ ____ _ ____ _ ____ _ ____ _ ____
 72
    65
 73
     4
 40
2.0
 49
1.25
 49
-0.25
 49
0.25
 49
-0.25
  0
LTYPE
  2
PHANTOM2
 70
     0
  3
___ _ _ ___ _ _ ___ _ _ ___ _ _
 72
    65
 73
     6
 40
1.25
 49
0.625
 49
-0.125
 49
0.125
 49
-0.125
 49
0.125
 49
-0.125
  0
LTYPE
  2
HIDDEN
 70
     0
  3
Hidden __ __ __ __ __ __ __ __ __ __ __ __ __ __
 72
    65
 73
     2
 40
1.905
 49
1.27
 49
-0.635
  0
ENDTAB
  0
TABLE
  2
LAYER
 70
     4
  0
LAYER
  2
0
 70
     0
 62
     7
  6
CONTINUOUS
  0
LAYER
  2
1
 70
     0
 62
     1
  6
CENTER
  0
LAYER
  2
DEFPOINTS
 70
     0
 62
     7
  6
CONTINUOUS
  0
LAYER
  2
2
 70
     0
 62
     2
  6
HIDDEN
  0
ENDTAB
  0
TABLE
  2
STYLE
 70
     2
  0
STYLE
  2
STANDARD
 70
     0
 40
0.0
 41
1.0
 50
0.0
 71
     0
 42
0.2
  3
simplex.shx
  4
bigfont.shx
  0
STYLE
  2
STANDARD1
 70
     0
 40
0.0
 41
1.0
 50
0.0
 71
     0
 42
3.0
  3
txt
  4

  0
ENDTAB
  0
TABLE
  2
VIEW
 70
     0
  0
ENDTAB
  0
TABLE
  2
UCS
 70
     0
  0
ENDTAB
  0
TABLE
  2
APPID
 70
     5
  0
APPID
  2
ACAD
 70
     0
  0
APPID
  2
ACAD_MLEADERVER
 70
     0
  0
APPID
  2
ACAD_NAV_VCDISPLAY
 70
     0
  0
APPID
  2
ACAD_EXEMPT_FROM_CAD_STANDARDS
 70
     0
  0
APPID
  2
ACAD_DSTYLE_DIMRADIAL_EXTENSION
 70
     0
  0
ENDTAB
  0
TABLE
  2
DIMSTYLE
 70
     1
  0
DIMSTYLE
  2
STANDARD
 70
     0
  3

  4

  5

  6

  7

 40
1.0
 41
0.18
 42
0.0625
 43
0.38
 44
0.18
 45
0.0
 46
0.0
 47
0.0
 48
0.0
140
2.6000000000000001
141
0.09
142
0.0
143
25.399999999999999
144
1.0
145
0.0
146
1.0
147
0.09
 71
     0
 72
     0
 73
     0
 74
     0
 75
     0
 76
     0
 77
     1
 78
     8
170
     0
171
     2
172
     0
173
     0
174
     0
175
     0
176
     0
177
     0
178
     0
  0
ENDTAB
  0
ENDSEC
  0
SECTION
  2
BLOCKS
  0
BLOCK
  8
0
  2
$MODEL_SPACE
 70
     0
 10
0.0
 20
0.0
 30
0.0
  3
$MODEL_SPACE
  1

  0
ENDBLK
  5
21
  8
0
  0
BLOCK
 67
     1
  8
0
  2
$PAPER_SPACE
 70
     0
 10
0.0
 20
0.0
 30
0.0
  3
$PAPER_SPACE
  1

  0
ENDBLK
  5
5B
 67
     1
  8
0
  0
ENDSEC
  0
SECTION
  2
ENTITIES
  0
TEXT
  5
1F01
  8
0
 62
     3
 10
0.0
 20
0.0
 30
0.0
 40
10.0
  1
CP127-06501
  7
STANDARD1
  0
ARC
  5
64F8
  8
0
 10
162.22
 20
103.39
 30
0.0
 40
1.3100000000000021
 50
270.0
 51
90.0
  0
ARC
  5
64F9
  8
0
 10
102.78
 20
103.39
 30
0.0
 40
1.3100000000000021
 50
90.0
 51
270.0
  0
LINE
  5
64FA
  8
0
 10
102.78
 20
102.08
 30
0.0
 11
162.22
 21
102.08
 31
0.0
  0
LINE
  5
64FB
  8
0
 10
100.0
 20
117.5
 30
0.0
 11
100.0
 21
105.2
 31
0.0
  0
LINE
  5
64FC
  8
0
 10
165.0
 20
105.2
 30
0.0
 11
165.0
 21
117.5
 31
0.0
  0
LINE
  5
64FD
  8
0
 10
100.0
 20
105.2
 30
0.0
 11
100.5
 21
104.7
 31
0.0
  0
LINE
  5
64FE
  8
0
 10
164.5
 20
104.7
 30
0.0
 11
165.0
 21
105.2
 31
0.0
  0
LINE
  5
64FF
  8
0
 10
100.2171572875254
 20
117.7171572875254
 30
0.0
 11
100.0
 21
117.5
 31
0.0
  0
LINE
  5
6500
  8
0
 10
100.0
 20
128.0
 30
0.0
 11
100.0
 21
118.5
 31
0.0
  0
LINE
  5
6501
  8
0
 10
100.0
 20
118.5
 30
0.0
 11
100.2171572875254
 21
118.2828427124746
 31
0.0
  0
LINE
  5
6502
  8
0
 10
100.5
 20
128.5
 30
0.0
 11
100.0
 21
128.0
 31
0.0
  0
LINE
  5
6503
  8
0
 10
165.0
 20
117.5
 30
0.0
 11
164.7828427124746
 21
117.7171572875254
 31
0.0
  0
LINE
  5
6504
  8
0
 10
165.0
 20
118.5
 30
0.0
 11
165.0
 21
128.0
 31
0.0
  0
LINE
  5
6505
  8
0
 10
164.7828427124746
 20
118.2828427124746
 30
0.0
 11
165.0
 21
118.5
 31
0.0
  0
LINE
  5
6506
  8
0
 10
165.0
 20
128.0
 30
0.0
 11
164.5
 21
128.5
 31
0.0
  0
ARC
  5
6507
  8
0
 10
99.934314575050763
 20
118.0
 30
0.0
 40
0.4000000000000193
 50
315.00000000000023
 51
44.999999999999758
  0
ARC
  5
6508
  8
0
 10
165.06568542494921
 20
118.0
 30
0.0
 40
0.3999999999999992
 50
135.0000000000002
 51
225.00000000000091
  0
LINE
  5
6509
  8
0
 10
123.5
 20
100.5
 30
0.0
 11
124.0
 21
100.0
 31
0.0
  0
LINE
  5
650A
  8
0
 10
141.0
 20
100.0
 30
0.0
 11
141.5
 21
100.5
 31
0.0
  0
LINE
  5
650B
  8
0
 10
123.5
 20
102.08
 30
0.0
 11
123.5
 21
100.5
 31
0.0
  0
LINE
  5
650C
  8
0
 10
141.5
 20
100.5
 30
0.0
 11
141.5
 21
102.08
 31
0.0
  0
LINE
  5
650D
  8
0
 10
143.34658942402041
 20
128.5
 30
0.0
 11
143.53813845690391
 21
128.0
 31
0.0
  0
LINE
  5
650E
  8
0
 10
143.53813845690391
 20
128.0
 30
0.0
 11
121.4618615430963
 21
128.0
 31
0.0
  0
LINE
  5
650F
  8
0
 10
121.65341057597971
 20
128.5
 30
0.0
 11
121.4618615430963
 21
128.0
 31
0.0
  0
LINE
  5
6511
  8
0
 10
100.0
 20
117.5
 30
0.0
 11
101.9318875393618
 21
117.5
 31
0.0
  0
LINE
  5
6512
  8
0
 10
101.9318875393618
 20
109.0
 30
0.0
 11
101.9318875393618
 21
117.5
 31
0.0
  0
POLYLINE
  5
6513
  8
0
 66
     1
 10
0.0
 20
0.0
 30
0.0
 70
   128
  0
VERTEX
  5
6CE6
  8
0
 10
102.47391519338321
 20
107.5
 30
0.0
  0
VERTEX
  5
6CE7
  8
0
 10
102.28752409753641
 20
107.5844518657874
 30
0.0
  0
VERTEX
  5
6CE8
  8
0
 10
102.1280109045759
 20
107.8282395192624
 30
0.0
  0
VERTEX
  5
6CE9
  8
0
 10
102.01032668485441
 20
108.2041809192409
 30
0.0
  0
VERTEX
  5
6CEA
  8
0
 10
101.9443948879628
 20
108.67008941507559
 30
0.0
  0
VERTEX
  5
6CEB
  8
0
 10
101.9318875393618
 20
109.0
 30
0.0
  0
SEQEND
  5
6CEC
  8
0
  0
POLYLINE
  5
6514
  8
0
 66
     1
 10
0.0
 20
0.0
 30
0.0
 70
   128
  0
VERTEX
  5
6CED
  8
0
 10
103.07993783645711
 20
109.0
 30
0.0
  0
VERTEX
  5
6CEE
  8
0
 10
103.0441163221132
 20
108.503791225201
 30
0.0
  0
VERTEX
  5
6CEF
  8
0
 10
102.94185057510541
 20
108.0635299381528
 30
0.0
  0
VERTEX
  5
6CF0
  8
0
 10
102.7874652757295
 20
107.7285160287725
 30
0.0
  0
VERTEX
  5
6CF1
  8
0
 10
102.60171372891089
 20
107.53673012504809
 30
0.0
  0
VERTEX
  5
6CF2
  8
0
 10
102.47391519338321
 20
107.5
 30
0.0
  0
SEQEND
  5
6CF3
  8
0
  0
LINE
  5
6515
  8
0
 10
103.07993783645711
 20
109.0
 30
0.0
 11
103.07993783645711
 21
117.5
 31
0.0
  0
LINE
  5
6516
  8
0
 10
103.07993783645711
 20
117.5
 30
0.0
 11
118.6902229455624
 21
117.5
 31
0.0
  0
LINE
  5
6517
  8
0
 10
118.6902229455624
 20
109.0
 30
0.0
 11
118.6902229455624
 21
117.5
 31
0.0
  0
ARC
  5
6518
  8
0
 10
120.1364969162363
 20
108.9454251533262
 30
0.0
 40
1.447303289617732
 50
177.83898102157929
 51
267.0807695277399
  0
ARC
  5
6519
  8
0
 10
120.01513925539111
 20
108.94691164405801
 30
0.0
 40
1.4476960148040821
 50
271.88616310446997
 51
2.101560584363761
  0
LINE
  5
651A
  8
0
 10
121.4618615430963
 20
109.0
 30
0.0
 11
121.4618615430963
 21
117.5
 31
0.0
  0
LINE
  5
651B
  8
0
 10
121.4618615430963
 20
117.5
 30
0.0
 11
143.53813845690391
 21
117.5
 31
0.0
  0
LINE
  5
651C
  8
0
 10
143.53813845690391
 20
109.0
 30
0.0
 11
143.53813845690391
 21
117.5
 31
0.0
  0
ARC
  5
651D
  8
0
 10
145.00066531516759
 20
108.9616528103552
 30
0.0
 40
1.4630295000772839
 50
178.49805914742211
 51
267.51421716374011
  0
ARC
  5
651E
  8
0
 10
144.8841573205159
 20
108.926525624761
 30
0.0
 40
1.4275118596929131
 50
272.12991839838458
 51
2.950331052299938
  0
LINE
  5
651F
  8
0
 10
146.30977705443769
 20
109.0
 30
0.0
 11
146.30977705443769
 21
117.5
 31
0.0
  0
LINE
  5
6520
  8
0
 10
146.30977705443769
 20
117.5
 30
0.0
 11
161.92006216354289
 21
117.5
 31
0.0
  0
LINE
  5
6521
  8
0
 10
161.92006216354289
 20
109.0
 30
0.0
 11
161.92006216354289
 21
117.5
 31
0.0
  0
POLYLINE
  5
6522
  8
0
 66
     1
 10
0.0
 20
0.0
 30
0.0
 70
   128
  0
VERTEX
  5
6CF4
  8
0
 10
162.52608480661689
 20
107.5
 30
0.0
  0
VERTEX
  5
6CF5
  8
0
 10
162.33269389255599
 20
107.5844518657874
 30
0.0
  0
VERTEX
  5
6CF6
  8
0
 10
162.15524545029109
 20
107.8282395192624
 30
0.0
  0
VERTEX
  5
6CF7
  8
0
 10
162.01652146356071
 20
108.2041809192409
 30
0.0
  0
VERTEX
  5
6CF8
  8
0
 10
161.93566676262191
 20
108.67008941507559
 30
0.0
  0
VERTEX
  5
6CF9
  8
0
 10
161.92006216354289
 20
109.0
 30
0.0
  0
SEQEND
  5
6CFA
  8
0
  0
POLYLINE
  5
6523
  8
0
 66
     1
 10
0.0
 20
0.0
 30
0.0
 70
   128
  0
VERTEX
  5
6CFB
  8
0
 10
163.06811246063819
 20
109.0
 30
0.0
  0
VERTEX
  5
6CFC
  8
0
 10
163.0392974048732
 20
108.503791225201
 30
0.0
  0
VERTEX
  5
6CFD
  8
0
 10
162.9549764618458
 20
108.0635299381528
 30
0.0
  0
VERTEX
  5
6CFE
  8
0
 10
162.82162852021219
 20
107.7285160287725
 30
0.0
  0
VERTEX
  5
6CFF
  8
0
 10
162.6507892247582
 20
107.53673012504809
 30
0.0
  0
VERTEX
  5
6D00
  8
0
 10
162.52608480661689
 20
107.5
 30
0.0
  0
SEQEND
  5
6D01
  8
0
  0
LINE
  5
6524
  8
0
 10
163.06811246063819
 20
109.0
 30
0.0
 11
163.06811246063819
 21
117.5
 31
0.0
  0
LINE
  5
6525
  8
0
 10
163.06811246063819
 20
117.5
 30
0.0
 11
165.0
 21
117.5
 31
0.0
  0
LINE
  5
6527
  8
0
 10
100.0
 20
105.2
 30
0.0
 11
164.99999999999989
 21
105.2
 31
0.0
  0
LINE
  5
6528
  8
0
 10
121.4618615430963
 20
118.5
 30
0.0
 11
121.4618615430963
 21
128.0
 31
0.0
  0
LINE
  5
6529
  8
0
 10
143.53813845690391
 20
118.5
 30
0.0
 11
143.53813845690391
 21
128.0
 31
0.0
  0
LINE
  5
652A
  8
0
 10
121.4618615430963
 20
118.5
 30
0.0
 11
143.53813845690391
 21
118.5
 31
0.0
  0
LINE
  5
652B
  8
0
 10
164.5
 20
104.7
 30
0.0
 11
100.5
 21
104.7
 31
0.0
  0
LINE
  5
652D
  8
0
 10
121.4618615430963
 20
117.5
 30
0.0
 11
121.54505328975191
 21
117.7171572875254
 31
0.0
  0
LINE
  5
652F
  8
0
 10
143.53813845690391
 20
117.5
 30
0.0
 11
143.45494671024829
 21
117.7171572875254
 31
0.0
  0
LINE
  5
6531
  8
0
 10
121.54505328975191
 20
118.2828427124746
 30
0.0
 11
121.4618615430963
 21
118.5
 31
0.0
  0
LINE
  5
6532
  8
0
 10
143.45494671024829
 20
118.2828427124746
 30
0.0
 11
143.53813845690391
 21
118.5
 31
0.0
  0
ARC
  5
6533
  8
0
 10
120.7176218996951
 20
118.0
 30
0.0
 40
0.8744385085592039
 50
341.12791870088029
 51
18.872081299119639
  0
ARC
  5
6534
  8
0
 10
144.2823781003043
 20
118.0
 30
0.0
 40
0.8744385085585316
 50
161.1279187008667
 51
198.87208129913321
  0
LINE
  5
6535
  8
0
 10
103.07993783645711
 20
118.5
 30
0.0
 11
103.07993783645711
 21
128.0
 31
0.0
  0
LINE
  5
6536
  8
0
 10
118.6902229455624
 20
128.0
 30
0.0
 11
103.07993783645711
 21
128.0
 31
0.0
  0
LINE
  5
6537
  8
0
 10
118.6902229455624
 20
118.5
 30
0.0
 11
118.6902229455624
 21
128.0
 31
0.0
  0
LINE
  5
6538
  8
0
 10
103.07993783645711
 20
118.5
 30
0.0
 11
118.6902229455624
 21
118.5
 31
0.0
  0
LINE
  5
653A
  8
0
 10
103.2807804795105
 20
118.2828427124746
 30
0.0
 11
103.07993783645711
 21
118.5
 31
0.0
  0
LINE
  5
653B
  8
0
 10
118.773414692218
 20
118.2828427124746
 30
0.0
 11
118.6902229455624
 21
118.5
 31
0.0
  0
LINE
  5
653C
  8
0
 10
118.8817719784458
 20
128.5
 30
0.0
 11
118.6902229455624
 21
128.0
 31
0.0
  0
LINE
  5
653E
  8
0
 10
118.6902229455624
 20
117.5
 30
0.0
 11
118.773414692218
 21
117.7171572875254
 31
0.0
  0
ARC
  5
653F
  8
0
 10
117.94598330216201
 20
118.0
 30
0.0
 40
0.8744385085585046
 50
341.12791870086681
 51
18.8720812991332
  0
LINE
  5
6540
  8
0
 10
103.07993783645711
 20
117.5
 30
0.0
 11
103.2807804795105
 21
117.7171572875254
 31
0.0
  0
LINE
  5
6542
  8
0
 10
103.5423781095036
 20
128.5
 30
0.0
 11
103.07993783645711
 21
128.0
 31
0.0
  0
LINE
  5
6545
  8
0
 10
146.2265853077821
 20
118.2828427124746
 30
0.0
 11
146.30977705443769
 21
118.5
 31
0.0
  0
LINE
  5
6546
  8
0
 10
146.30977705443769
 20
118.5
 30
0.0
 11
161.92006216354289
 21
118.5
 31
0.0
  0
LINE
  5
6547
  8
0
 10
161.71921952048959
 20
118.2828427124746
 30
0.0
 11
161.92006216354289
 21
118.5
 31
0.0
  0
LINE
  5
6548
  8
0
 10
146.30977705443769
 20
118.5
 30
0.0
 11
146.30977705443769
 21
128.0
 31
0.0
  0
LINE
  5
6549
  8
0
 10
161.92006216354289
 20
128.0
 30
0.0
 11
146.30977705443769
 21
128.0
 31
0.0
  0
LINE
  5
654A
  8
0
 10
161.92006216354289
 20
118.5
 30
0.0
 11
161.92006216354289
 21
128.0
 31
0.0
  0
LINE
  5
654B
  8
0
 10
161.4576218904964
 20
128.5
 30
0.0
 11
161.92006216354289
 21
128.0
 31
0.0
  0
LINE
  5
654C
  8
0
 10
146.1182280215543
 20
128.5
 30
0.0
 11
146.30977705443769
 21
128.0
 31
0.0
  0
LINE
  5
654E
  8
0
 10
146.30977705443769
 20
117.5
 30
0.0
 11
146.2265853077821
 21
117.7171572875254
 31
0.0
  0
LINE
  5
6550
  8
0
 10
161.92006216354289
 20
117.5
 30
0.0
 11
161.71921952048959
 21
117.7171572875254
 31
0.0
  0
ARC
  5
6552
  8
0
 10
147.0540166978389
 20
118.0
 30
0.0
 40
0.8744385085592307
 50
161.12791870088029
 51
198.8720812991196
  0
ARC
  5
6553
  8
0
 10
102.968708836543
 20
118.0
 30
0.0
 40
0.4211753914278625
 50
317.8127557894648
 51
42.187244210534097
  0
ARC
  5
6554
  8
0
 10
162.0312911634569
 20
118.0
 30
0.0
 40
0.4211753914277573
 50
137.8127557894565
 51
222.1872442105518
  0
LINE
  5
6555
  8
0
 10
101.9318875393618
 20
117.5
 30
0.0
 11
102.1327301824151
 21
117.7171572875254
 31
0.0
  0
LINE
  5
6556
  8
0
 10
101.9318875393618
 20
128.0
 30
0.0
 11
100.0
 21
128.0
 31
0.0
  0
LINE
  5
6557
  8
0
 10
101.9318875393618
 20
118.5
 30
0.0
 11
101.9318875393618
 21
128.0
 31
0.0
  0
LINE
  5
6558
  8
0
 10
100.0
 20
118.5
 30
0.0
 11
101.9318875393618
 21
118.5
 31
0.0
  0
LINE
  5
6559
  8
0
 10
102.1327301824151
 20
118.2828427124746
 30
0.0
 11
101.9318875393618
 21
118.5
 31
0.0
  0
LINE
  5
655A
  8
0
 10
102.39432781240831
 20
128.5
 30
0.0
 11
101.9318875393618
 21
128.0
 31
0.0
  0
ARC
  5
655C
  8
0
 10
101.82065853944781
 20
118.0
 30
0.0
 40
0.4211753914277783
 50
317.8127557894565
 51
42.187244210543533
  0
LINE
  5
655D
  8
0
 10
100.5
 20
128.5
 30
0.0
 11
164.49999999999989
 21
128.5
 31
0.0
  0
LINE
  5
655E
  8
0
 10
163.06811246063819
 20
117.5
 30
0.0
 11
162.86726981758491
 21
117.7171572875254
 31
0.0
  0
LINE
  5
655F
  8
0
 10
163.06811246063819
 20
118.5
 30
0.0
 11
163.06811246063819
 21
128.0
 31
0.0
  0
LINE
  5
6560
  8
0
 10
165.0
 20
128.0
 30
0.0
 11
163.06811246063819
 21
128.0
 31
0.0
  0
LINE
  5
6561
  8
0
 10
163.06811246063819
 20
118.5
 30
0.0
 11
165.0
 21
118.5
 31
0.0
  0
LINE
  5
6562
  8
0
 10
162.86726981758491
 20
118.2828427124746
 30
0.0
 11
163.06811246063819
 21
118.5
 31
0.0
  0
LINE
  5
6564
  8
0
 10
162.60567218759169
 20
128.5
 30
0.0
 11
163.06811246063819
 21
128.0
 31
0.0
  0
ARC
  5
6565
  8
0
 10
163.17934146055231
 20
118.0
 30
0.0
 40
0.4211753914278205
 50
137.8127557894565
 51
222.18724421053531
  0
LINE
  5
6568
  8
0
 10
123.5
 20
100.5
 30
0.0
 11
141.49999999999989
 21
100.5
 31
0.0
  0
LINE
  5
6569
  8
0
 10
141.0
 20
100.0
 30
0.0
 11
124.0
 21
100.0
 31
0.0
  0
LINE
  5
6580
  8
2
 10
158.5
 20
106.5
 30
0.0
 11
147.0
 21
106.5
 31
0.0
  0
LINE
  5
658E
  8
2
 10
145.0
 20
103.5
 30
0.0
 11
119.9999999999999
 21
103.5
 31
0.0
  0
LINE
  5
659C
  8
2
 10
125.5
 20
115.4494822575906
 30
0.0
 11
139.5
 21
115.4494822575906
 31
0.0
  0
LINE
  5
65B0
  8
2
 10
158.0
 20
112.0
 30
0.0
 11
150.0
 21
112.0
 31
0.0
  0
LINE
  5
65BE
  8
2
 10
115.0
 20
112.0
 30
0.0
 11
107.0
 21
112.0
 31
0.0
  0
LINE
  5
65D6
  8
2
 10
105.5
 20
105.5
 30
0.0
 11
105.5
 21
104.7
 31
0.0
  0
LINE
  5
65D7
  8
2
 10
159.5
 20
104.7
 30
0.0
 11
159.5
 21
105.5
 31
0.0
  0
ARC
  5
65D8
  8
2
 10
106.5
 20
105.5
 30
0.0
 40
1.0
 50
90.0
 51
180.0
  0
ARC
  5
65D9
  8
2
 10
158.5
 20
105.5
 30
0.0
 40
1.0
 50
0.0
 51
90.0
  0
ARC
  5
65E6
  8
2
 10
117.9999999999999
 20
105.0
 30
0.0
 40
1.5
 50
0.0
 51
90.0
  0
ARC
  5
65E7
  8
2
 10
147.0
 20
105.0
 30
0.0
 40
1.5
 50
90.0
 51
180.0
  0
LINE
  5
65E8
  8
2
 10
119.5
 20
104.0
 30
0.0
 11
119.9999999999999
 21
103.5
 31
0.0
  0
LINE
  5
65E9
  8
2
 10
145.0
 20
103.5
 30
0.0
 11
145.5
 21
104.0
 31
0.0
  0
LINE
  5
65EA
  8
2
 10
119.5
 20
105.0
 30
0.0
 11
119.5
 21
104.0
 31
0.0
  0
LINE
  5
65EB
  8
2
 10
145.5
 20
104.0
 30
0.0
 11
145.5
 21
105.0
 31
0.0
  0
ARC
  5
65EC
  8
2
 10
122.7
 20
102.7
 30
0.0
 40
0.8000000000000113
 50
0.0
 51
90.0
  0
ARC
  5
65ED
  8
2
 10
142.30000000000001
 20
102.7
 30
0.0
 40
0.8000000000000113
 50
90.0
 51
180.0
  0
LINE
  5
65EE
  8
2
 10
123.5
 20
102.7
 30
0.0
 11
123.5
 21
102.08
 31
0.0
  0
LINE
  5
65EF
  8
2
 10
141.5
 20
102.08
 30
0.0
 11
141.5
 21
102.7
 31
0.0
  0
LINE
  5
65F4
  8
2
 10
125.5
 20
115.4494822575906
 30
0.0
 11
125.5
 21
100.0
 31
0.0
  0
LINE
  5
65F5
  8
2
 10
139.5
 20
100.0
 30
0.0
 11
139.5
 21
115.4494822575906
 31
0.0
  0
LINE
  5
65FC
  8
2
 10
120.75
 20
128.5
 30
0.0
 11
125.5
 21
115.4494822575906
 31
0.0
  0
LINE
  5
65FD
  8
2
 10
139.5
 20
115.4494822575906
 30
0.0
 11
144.25
 21
128.5
 31
0.0
  0
LINE
  5
65FE
  8
2
 10
158.0
 20
106.4999999999999
 30
0.0
 11
158.0
 21
112.0
 31
0.0
  0
LINE
  5
65FF
  8
2
 10
115.0
 20
106.4999999999999
 30
0.0
 11
115.0
 21
112.0
 31
0.0
  0
LINE
  5
6600
  8
2
 10
150.0
 20
112.0
 30
0.0
 11
149.99999999999989
 21
106.4999999999999
 31
0.0
  0
LINE
  5
6601
  8
2
 10
107.0
 20
112.0
 30
0.0
 11
107.0
 21
106.4999999999999
 31
0.0
  0
ARC
  5
660E
  8
0
 10
132.5
 20
210.99999999999989
 30
0.0
 40
31.999999999999972
 50
70.186724185690892
 51
109.81327581430909
  0
ARC
  5
660F
  8
0
 10
132.5
 20
210.99999999999989
 30
0.0
 40
11.75
 50
74.834368924248622
 51
105.16563107575131
  0
LINE
  5
6610
  8
0
 10
121.46186154309579
 20
241.56811246063799
 30
0.0
 11
131.26926068299599
 21
217.89095644548561
 31
0.0
  0
LINE
  5
6611
  8
0
 10
143.5381384569036
 20
241.5681124606383
 30
0.0
 11
133.73073931700389
 21
217.89095644548561
 31
0.0
  0
ARC
  5
6614
  8
0
 10
132.5
 20
210.99999999999989
 30
0.0
 40
32.000000000000021
 50
115.1867241856929
 51
154.8132758143083
  0
ARC
  5
6618
  8
0
 10
132.5
 20
210.99999999999989
 30
0.0
 40
32.00000000000005
 50
25.186724185691681
 51
64.813275814307104
  0
ARC
  5
661A
  8
0
 10
132.5
 20
210.99999999999989
 30
0.0
 40
11.75000000000002
 50
119.83436892425
 51
150.16563107575419
  0
LINE
  5
661B
  8
0
 10
103.07993783645711
 20
224.80977705443749
 30
0.0
 11
126.7570938516096
 21
215.0023779145375
 31
0.0
  0
LINE
  5
661C
  8
0
 10
118.690222945562
 20
240.4200621635427
 30
0.0
 11
128.49762208546221
 21
216.74290614839029
 31
0.0
  0
ARC
  5
661D
  8
0
 10
132.5
 20
210.99999999999989
 30
0.0
 40
11.749999999999989
 50
29.834368924245769
 51
60.16563107574823
  0
LINE
  5
661E
  8
0
 10
161.92006216354289
 20
224.8097770544378
 30
0.0
 11
138.2429061483904
 21
215.0023779145377
 31
0.0
  0
LINE
  5
661F
  8
0
 10
146.3097770544374
 20
240.42006216354301
 30
0.0
 11
136.5023779145377
 21
216.7429061483904
 31
0.0
  0
ARC
  5
6625
  8
0
 10
132.5
 20
210.99999999999989
 30
0.0
 40
32.0
 50
340.18672418569582
 51
19.813275814310909
  0
ARC
  5
6627
  8
0
 10
132.5
 20
210.99999999999989
 30
0.0
 40
11.750000000000011
 50
344.83436892424839
 51
15.16563107575154
  0
LINE
  5
6628
  8
0
 10
163.06811246063819
 20
199.96186154309621
 30
0.0
 11
139.3909564454857
 21
209.76926068299599
 31
0.0
  0
LINE
  5
6629
  8
0
 10
163.06811246063819
 20
222.03813845690391
 30
0.0
 11
139.3909564454857
 21
212.23073931700381
 31
0.0
  0
ARC
  5
662C
  8
0
 10
132.5
 20
210.99999999999989
 30
0.0
 40
32.0
 50
160.18672418568909
 51
199.81327581431091
  0
LINE
  5
662E
  8
0
 10
101.9318875393618
 20
222.03813845690371
 30
0.0
 11
125.6090435545143
 21
212.2307393170037
 31
0.0
  0
ARC
  5
662F
  8
0
 10
132.5
 20
210.99999999999989
 30
0.0
 40
11.75000000000002
 50
164.83436892424839
 51
195.16563107575149
  0
LINE
  5
6630
  8
0
 10
101.9318875393619
 20
199.96186154309609
 30
0.0
 11
125.6090435545143
 21
209.76926068299599
 31
0.0
  0
ARC
  5
663F
  8
0
 10
132.5
 20
210.99999999999989
 30
0.0
 40
11.750000000000011
 50
299.83436892424999
 51
330.16563107575422
  0
ARC
  5
6643
  8
0
 10
132.5
 20
210.99999999999989
 30
0.0
 40
11.75000000000002
 50
209.83436892424581
 51
240.1656310757557
  0
ARC
  5
6645
  8
0
 10
132.5
 20
210.99999999999989
 30
0.0
 40
32.000000000000007
 50
295.18672418569292
 51
334.81327581430833
  0
LINE
  5
6646
  8
0
 10
146.30977705443769
 20
181.57993783645711
 30
0.0
 11
136.5023779145377
 21
205.25709385160951
 31
0.0
  0
LINE
  5
6647
  8
0
 10
161.92006216354289
 20
197.19022294556231
 30
0.0
 11
138.2429061483904
 21
206.9976220854621
 31
0.0
  0
LINE
  5
6648
  8
0
 10
118.6902229455625
 20
181.57993783645699
 30
0.0
 11
128.4976220854623
 21
205.2570938516094
 31
0.0
  0
ARC
  5
6649
  8
0
 10
132.5
 20
210.99999999999989
 30
0.0
 40
32.000000000000021
 50
205.1867241856917
 51
244.8132758143071
  0
LINE
  5
664A
  8
0
 10
103.0799378364572
 20
197.1902229455622
 30
0.0
 11
126.7570938516096
 21
206.9976220854621
 31
0.0
  0
ARC
  5
664D
  8
0
 10
132.5
 20
210.99999999999989
 30
0.0
 40
11.750000000000011
 50
254.83436892424859
 51
285.16563107575479
  0
ARC
  5
664F
  8
0
 10
132.5
 20
210.99999999999989
 30
0.0
 40
32.000000000000007
 50
250.18672418569091
 51
289.81327581431168
  0
LINE
  5
6650
  8
0
 10
143.53813845690391
 20
180.43188753936181
 30
0.0
 11
133.73073931700389
 21
204.10904355451419
 31
0.0
  0
LINE
  5
6651
  8
0
 10
121.4618615430963
 20
180.43188753936181
 30
0.0
 11
131.26926068299619
 21
204.10904355451419
 31
0.0
  0
LINE
  5
6697
  8
2
 10
153.0
 20
213.99999999999989
 30
0.0
 11
155.0
 21
213.99999999999989
 31
0.0
  0
ARC
  5
6698
  8
2
 10
110.0
 20
210.99999999999989
 30
0.0
 40
3.0
 50
90.0
 51
270.0
  0
LINE
  5
6699
  8
2
 10
110.0
 20
213.99999999999989
 30
0.0
 11
112.0
 21
213.99999999999989
 31
0.0
  0
ARC
  5
669A
  8
2
 10
153.0
 20
210.99999999999989
 30
0.0
 40
3.0
 50
90.0
 51
270.0
  0
ARC
  5
669B
  8
2
 10
155.0
 20
210.99999999999989
 30
0.0
 40
3.0
 50
270.0
 51
90.0
  0
ARC
  5
669C
  8
2
 10
112.0
 20
210.99999999999989
 30
0.0
 40
3.0
 50
270.0
 51
90.0
  0
LINE
  5
669D
  8
2
 10
112.0
 20
207.99999999999989
 30
0.0
 11
110.0
 21
207.99999999999989
 31
0.0
  0
LINE
  5
669E
  8
2
 10
155.0
 20
207.99999999999989
 30
0.0
 11
153.0
 21
207.99999999999989
 31
0.0
  0
CIRCLE
  5
67FD
  8
0
 10
132.50000000000011
 20
211.0
 30
0.0
 40
32.5
  0
LINE
  5
6800
  8
2
 10
117.9999999999999
 20
106.5
 30
0.0
 11
106.5
 21
106.5
 31
0.0
  0
CIRCLE
  5
6805
  8
0
 10
132.5
 20
210.99999999999989
 30
0.0
 40
7.0
  0
LINE
  5
6854
  8
1
 10
132.49999999999989
 20
248.5
 30
0.0
 11
132.49999999999989
 21
173.5
 31
0.0
  0
LINE
  5
6855
  8
1
 10
170.00000000000011
 20
210.99999999999989
 30
0.0
 11
95.000000000000114
 21
210.99999999999989
 31
0.0
  0
LINE
  5
685D
  8
1
 10
110.0
 20
215.99999999999989
 30
0.0
 11
110.0
 21
205.99999999999989
 31
0.0
  0
LINE
  5
685E
  8
1
 10
112.0
 20
215.99999999999989
 30
0.0
 11
112.0
 21
205.99999999999989
 31
0.0
  0
LINE
  5
685F
  8
1
 10
155.0
 20
215.99999999999989
 30
0.0
 11
155.0
 21
205.99999999999989
 31
0.0
  0
LINE
  5
6860
  8
1
 10
153.0
 20
215.99999999999989
 30
0.0
 11
153.0
 21
205.99999999999989
 31
0.0
  0
LINE
  5
68AF
  8
1
 10
132.5
 20
133.5
 30
0.0
 11
132.5
 21
95.0
 31
0.0
  0
LINE
  5
68B0
  8
1
 10
110.0
 20
102.7
 30
0.0
 11
110.0
 21
114.0
 31
0.0
  0
LINE
  5
68B1
  8
1
 10
112.0
 20
102.7
 30
0.0
 11
112.0
 21
114.0
 31
0.0
  0
LINE
  5
68B2
  8
1
 10
153.0
 20
102.7
 30
0.0
 11
153.0
 21
114.0
 31
0.0
  0
LINE
  5
68B3
  8
1
 10
155.0
 20
102.7
 30
0.0
 11
155.0
 21
114.0
 31
0.0
  0
ENDSEC
  0
EOF
