  0
SECTION
  2
HEADER
  9
$ACADVER
  1
AC1009
  9
$INSBASE
 10
99.991215075660193
 20
253.2012945081045
 30
0.0
  9
$EXTMIN
 10
0.0
 20
-2.960436562073669
 30
0.0
  9
$EXTMAX
 10
289.16369254346182
 20
254.26126167884661
 30
0.0
  9
$LIMMIN
 10
0.0
 20
0.0
  9
$LIMMAX
 10
375.0
 20
270.0
  9
$ORTHOMODE
 70
     0
  9
$REGENMODE
 70
     1
  9
$FILLMODE
 70
     1
  9
$QTEXTMODE
 70
     0
  9
$MIRRTEXT
 70
     0
  9
$DRAGMODE
 70
     2
  9
$LTSCALE
 40
5.0
  9
$OSMODE
 70
    37
  9
$ATTMODE
 70
     1
  9
$TEXTSIZE
 40
0.2
  9
$TRACEWID
 40
0.05
  9
$TEXTSTYLE
  7
STANDARD
  9
$CLAYER
  8
0
  9
$CELTYPE
  6
BYLAYER
  9
$CECOLOR
 62
   256
  9
$DIMSCALE
 40
1.0
  9
$DIMASZ
 40
3.0
  9
$DIMEXO
 40
2.0
  9
$DIMDLI
 40
0.38
  9
$DIMRND
 40
0.0
  9
$DIMDLE
 40
0.0
  9
$DIMEXE
 40
2.0
  9
$DIMTP
 40
0.0
  9
$DIMTM
 40
0.0
  9
$DIMTXT
 40
3.2000000000000002
  9
$DIMCEN
 40
0.0
  9
$DIMTSZ
 40
0.0
  9
$DIMTOL
 70
     0
  9
$DIMLIM
 70
     0
  9
$DIMTIH
 70
     0
  9
$DIMTOH
 70
     0
  9
$DIMSE1
 70
     0
  9
$DIMSE2
 70
     0
  9
$DIMTAD
 70
     1
  9
$DIMZIN
 70
     0
  9
$DIMBLK
  1

  9
$DIMASO
 70
     0
  9
$DIMSHO
 70
     0
  9
$DIMPOST
  1

  9
$DIMAPOST
  1

  9
$DIMALT
 70
     0
  9
$DIMALTD
 70
     2
  9
$DIMALTF
 40
25.399999999999999
  9
$DIMLFAC
 40
1.0
  9
$DIMTOFL
 70
     1
  9
$DIMTVP
 40
1.6000000000000001
  9
$DIMTIX
 70
     1
  9
$DIMSOXD
 70
     0
  9
$DIMSAH
 70
     0
  9
$DIMBLK1
  1

  9
$DIMBLK2
  1

  9
$DIMSTYLE
  2
STANDARD
  9
$DIMCLRD
 70
     0
  9
$DIMCLRE
 70
     0
  9
$DIMCLRT
 70
     0
  9
$DIMTFAC
 40
1.0
  9
$DIMGAP
 40
0.09
  9
$LUNITS
 70
     2
  9
$LUPREC
 70
     4
  9
$SKETCHINC
 40
0.1
  9
$FILLETRAD
 40
2.0
  9
$AUNITS
 70
     0
  9
$AUPREC
 70
     4
  9
$MENU
  1
E:\r13\win\SUPPORT\ACAD
  9
$ELEVATION
 40
0.0
  9
$PELEVATION
 40
0.0
  9
$THICKNESS
 40
0.0
  9
$LIMCHECK
 70
     0
  9
$BLIPMODE
 70
     0
  9
$CHAMFERA
 40
0.0
  9
$CHAMFERB
 40
0.0
  9
$SKPOLY
 70
     0
  9
$TDCREATE
 40
2449840.6513888892
  9
$TDUPDATE
 40
2457420.6502100229
  9
$TDINDWG
 40
0.7614225579
  9
$TDUSRTIMER
 40
0.7614225579
  9
$USRTIMER
 70
     1
  9
$ANGBASE
 50
0.0
  9
$ANGDIR
 70
     0
  9
$PDMODE
 70
     0
  9
$PDSIZE
 40
0.0
  9
$PLINEWID
 40
0.0
  9
$COORDS
 70
     1
  9
$SPLFRAME
 70
     0
  9
$SPLINETYPE
 70
     6
  9
$SPLINESEGS
 70
     8
  9
$ATTDIA
 70
     0
  9
$ATTREQ
 70
     1
  9
$HANDLING
 70
     1
  9
$HANDSEED
  5
844
  9
$SURFTAB1
 70
     6
  9
$SURFTAB2
 70
     6
  9
$SURFTYPE
 70
     6
  9
$SURFU
 70
     6
  9
$SURFV
 70
     6
  9
$UCSNAME
  2

  9
$UCSORG
 10
0.0
 20
0.0
 30
0.0
  9
$UCSXDIR
 10
1.0
 20
0.0
 30
0.0
  9
$UCSYDIR
 10
0.0
 20
1.0
 30
0.0
  9
$PUCSNAME
  2

  9
$PUCSORG
 10
0.0
 20
0.0
 30
0.0
  9
$PUCSXDIR
 10
1.0
 20
0.0
 30
0.0
  9
$PUCSYDIR
 10
0.0
 20
1.0
 30
0.0
  9
$USERI1
 70
     0
  9
$USERI2
 70
     1
  9
$USERI3
 70
     0
  9
$USERI4
 70
     0
  9
$USERI5
 70
     0
  9
$USERR1
 40
0.0
  9
$USERR2
 40
0.0
  9
$USERR3
 40
0.0
  9
$USERR4
 40
0.0
  9
$USERR5
 40
0.0
  9
$WORLDVIEW
 70
     1
  9
$SHADEDGE
 70
     3
  9
$SHADEDIF
 70
    70
  9
$TILEMODE
 70
     1
  9
$MAXACTVP
 70
    16
  9
$PLIMCHECK
 70
     0
  9
$PEXTMIN
 10
1.0000000000000000E+020
 20
1.0000000000000000E+020
 30
1.0000000000000000E+020
  9
$PEXTMAX
 10
-1.0000000000000000E+020
 20
-1.0000000000000000E+020
 30
-1.0000000000000000E+020
  9
$PLIMMIN
 10
0.0
 20
0.0
  9
$PLIMMAX
 10
12.0
 20
9.0
  9
$UNITMODE
 70
     0
  9
$VISRETAIN
 70
     0
  9
$PLINEGEN
 70
     0
  9
$PSLTSCALE
 70
     0
  0
ENDSEC
  0
SECTION
  2
TABLES
  0
TABLE
  2
VPORT
 70
     1
  0
VPORT
  2
*ACTIVE
 70
     0
 10
0.0
 20
0.0
 11
1.0
 21
1.0
 12
245.19230769230771
 22
135.0
 13
0.0
 23
0.0
 14
5.0
 24
5.0
 15
10.0
 25
10.0
 16
0.0
 26
0.0
 36
1.0
 17
0.0
 27
0.0
 37
0.0
 40
270.0
 41
1.816239316239316
 42
50.0
 43
0.0
 44
0.0
 50
0.0
 51
0.0
 71
     0
 72
   500
 73
     1
 74
     0
 75
     0
 76
     0
 77
     0
 78
     2
  0
ENDTAB
  0
TABLE
  2
LTYPE
 70
     4
  0
LTYPE
  2
CONTINUOUS
 70
     0
  3
Solid Line
 72
    65
 73
     0
 40
0.0
  0
LTYPE
  2
CENTER
 70
     0
  3
____ _ ____ _ ____ _ ____ _ ____ _ ____ _ ____
 72
    65
 73
     4
 40
2.0
 49
1.25
 49
-0.25
 49
0.25
 49
-0.25
  0
LTYPE
  2
HIDDEN
 70
     0
  3
_ _ _ _ _ _ _ _ _ _ _ _ _ _ _ _ _ _ _ _ _ _ _
 72
    65
 73
     2
 40
0.375
 49
0.25
 49
-0.125
  0
LTYPE
  2
PHANTOM2
 70
     0
  3
Phantom (.5x) ___ _ _ ___ _ _ ___ _ _ ___ _ _
 72
    65
 73
     6
 40
1.25
 49
0.625
 49
-0.125
 49
0.125
 49
-0.125
 49
0.125
 49
-0.125
  0
ENDTAB
  0
TABLE
  2
LAYER
 70
     5
  0
LAYER
  2
0
 70
     0
 62
     7
  6
CONTINUOUS
  0
LAYER
  2
1
 70
     0
 62
     1
  6
CENTER
  0
LAYER
  2
2
 70
     0
 62
     2
  6
HIDDEN
  0
LAYER
  2
5
 70
     0
 62
     3
  6
PHANTOM2
  0
LAYER
  2
3
 70
     0
 62
     3
  6
CONTINUOUS
  0
ENDTAB
  0
TABLE
  2
STYLE
 70
     2
  0
STYLE
  2
STANDARD
 70
     0
 40
0.0
 41
1.0
 50
0.0
 71
     0
 42
0.2
  3
TXT
  4
BIGFONT
  0
STYLE
  2
STANDARD1
 70
     0
 40
0.0
 41
1.0
 50
0.0
 71
     0
 42
3.0
  3
txt
  4

  0
ENDTAB
  0
TABLE
  2
VIEW
 70
     1
  0
VIEW
  2
ALL
 70
     0
 40
270.0
 10
220.99159663865549
 20
135.0
 41
0.0
 11
0.0
 21
0.0
 31
1.0
 12
0.0
 22
0.0
 32
0.0
 42
0.0
 43
0.0
 44
0.0
 50
0.0
 71
     0
  0
ENDTAB
  0
TABLE
  2
UCS
 70
     0
  0
ENDTAB
  0
TABLE
  2
APPID
 70
     4
  0
APPID
  2
ACAD
 70
     0
  0
APPID
  2
ACAD_MLEADERVER
 70
     0
  0
APPID
  2
ACAD_EXEMPT_FROM_CAD_STANDARDS
 70
     0
  0
APPID
  2
ACAD_NAV_VCDISPLAY
 70
     0
  0
ENDTAB
  0
TABLE
  2
DIMSTYLE
 70
     1
  0
DIMSTYLE
  2
STANDARD
 70
     0
  3

  4

  5

  6

  7

 40
1.0
 41
0.18
 42
0.0625
 43
0.38
 44
0.18
 45
0.0
 46
0.0
 47
0.0
 48
0.0
140
0.18
141
0.09
142
0.0
143
25.399999999999999
144
1.0
145
0.0
146
1.0
147
0.09
 71
     0
 72
     0
 73
     1
 74
     1
 75
     0
 76
     0
 77
     0
 78
     0
170
     0
171
     2
172
     0
173
     0
174
     0
175
     0
176
     0
177
     0
178
     0
  0
ENDTAB
  0
ENDSEC
  0
SECTION
  2
BLOCKS
  0
BLOCK
  8
0
  2
$MODEL_SPACE
 70
     0
 10
0.0
 20
0.0
 30
0.0
  3
$MODEL_SPACE
  1

  0
ENDBLK
  5
9
  8
0
  0
BLOCK
 67
     1
  8
0
  2
$PAPER_SPACE
 70
     0
 10
0.0
 20
0.0
 30
0.0
  3
$PAPER_SPACE
  1

  0
ENDBLK
  5
F
 67
     1
  8
0
  0
ENDSEC
  0
SECTION
  2
ENTITIES
  0
LINE
  5
423
  8
0
 10
142.1636925434621
 20
196.1056680638992
 30
0.0
 11
102.16369254346201
 21
196.10566806389929
 31
0.0
  0
POLYLINE
  5
424
  8
0
 66
     1
 10
0.0
 20
0.0
 30
0.0
 70
   128
  0
VERTEX
  5
6DB
  8
0
 10
102.3814722241604
 20
168.35368919562171
 30
0.0
  0
VERTEX
  5
6DC
  8
0
 10
103.3811290359051
 20
170.21799800506381
 30
0.0
  0
VERTEX
  5
6DD
  8
0
 10
103.7858333980591
 20
170.75816882363111
 30
0.0
  0
VERTEX
  5
6DE
  8
0
 10
104.2253263836653
 20
171.15405169835839
 30
0.0
  0
VERTEX
  5
6DF
  8
0
 10
104.6885103529246
 20
171.39565167537481
 30
0.0
  0
VERTEX
  5
6E0
  8
0
 10
105.16369161959
 20
171.4768704544619
 30
0.0
  0
SEQEND
  5
6E1
  8
0
  0
POLYLINE
  5
425
  8
0
 66
     1
 10
0.0
 20
0.0
 30
0.0
 70
   128
  0
VERTEX
  5
6E2
  8
0
 10
141.94591286276361
 20
168.3536891956218
 30
0.0
  0
VERTEX
  5
6E3
  8
0
 10
140.94625605101891
 20
170.21799800506389
 30
0.0
  0
VERTEX
  5
6E4
  8
0
 10
140.5415516888649
 20
170.75816882363119
 30
0.0
  0
VERTEX
  5
6E5
  8
0
 10
140.10205870325871
 20
171.15405169835839
 30
0.0
  0
VERTEX
  5
6E6
  8
0
 10
139.6388747339995
 20
171.39565167537489
 30
0.0
  0
VERTEX
  5
6E7
  8
0
 10
139.16369346733401
 20
171.4768704544619
 30
0.0
  0
SEQEND
  5
6E8
  8
0
  0
LINE
  5
426
  8
0
 10
139.16369346733401
 20
171.4768704544619
 30
0.0
 11
139.16369346733401
 21
174.8651858936862
 31
0.0
  0
POLYLINE
  5
427
  8
0
 66
     1
 10
0.0
 20
0.0
 30
0.0
 70
   128
  0
VERTEX
  5
6E9
  8
0
 10
139.16369346733401
 20
174.8651858936862
 30
0.0
  0
VERTEX
  5
6EA
  8
0
 10
139.9210896884949
 20
174.97051475158489
 30
0.0
  0
VERTEX
  5
6EB
  8
0
 10
140.58350590820621
 20
175.2574291597918
 30
0.0
  0
VERTEX
  5
6EC
  8
0
 10
141.2955280935318
 20
175.86842147222319
 30
0.0
  0
VERTEX
  5
6ED
  8
0
 10
141.66407665069411
 20
176.4161173771933
 30
0.0
  0
VERTEX
  5
6EE
  8
0
 10
141.91861828620739
 20
177.01381040325921
 30
0.0
  0
VERTEX
  5
6EF
  8
0
 10
142.1064399724753
 20
177.82910508623871
 30
0.0
  0
VERTEX
  5
6F0
  8
0
 10
142.16369209642721
 20
178.67813972345149
 30
0.0
  0
SEQEND
  5
6F1
  8
0
  0
LINE
  5
428
  8
0
 10
139.16369346733401
 20
171.4768704544619
 30
0.0
 11
105.16369161959
 21
171.4768704544619
 31
0.0
  0
LINE
  5
429
  8
0
 10
105.16369161959
 20
174.8651858936862
 30
0.0
 11
105.16369161959
 21
171.4768704544619
 31
0.0
  0
LINE
  5
42A
  8
0
 10
105.16369161959
 20
174.8651858936862
 30
0.0
 11
139.16369346733401
 21
174.8651858936862
 31
0.0
  0
POLYLINE
  5
42B
  8
0
 66
     1
 10
0.0
 20
0.0
 30
0.0
 70
   128
  0
VERTEX
  5
6F2
  8
0
 10
102.1636929904969
 20
178.67813972345149
 30
0.0
  0
VERTEX
  5
6F3
  8
0
 10
102.2704039310963
 20
177.53684861174381
 30
0.0
  0
VERTEX
  5
6F4
  8
0
 10
102.6343573426754
 20
176.471419311674
 30
0.0
  0
VERTEX
  5
6F5
  8
0
 10
103.1952556764633
 20
175.6890934478358
 30
0.0
  0
VERTEX
  5
6F6
  8
0
 10
103.5888922011406
 20
175.35819453707489
 30
0.0
  0
VERTEX
  5
6F7
  8
0
 10
104.0591858869345
 20
175.09486121645719
 30
0.0
  0
VERTEX
  5
6F8
  8
0
 10
104.7479063814432
 20
174.89645970574179
 30
0.0
  0
VERTEX
  5
6F9
  8
0
 10
105.16369161959
 20
174.8651858936862
 30
0.0
  0
SEQEND
  5
6FA
  8
0
  0
LINE
  5
42C
  8
5
 10
276.1636925434621
 20
113.2612632881719
 30
0.0
 11
262.1636925434621
 21
99.261263288171975
 31
0.0
  0
LINE
  5
42D
  8
5
 10
287.4774010424469
 20
113.2612632881719
 30
0.0
 11
273.4774010424469
 21
99.261263288171975
 31
0.0
  0
LINE
  5
42E
  8
5
 10
254.16369254346199
 20
113.2612632881719
 30
0.0
 11
287.4774010424469
 21
113.2612632881719
 31
0.0
  0
LINE
  5
42F
  8
5
 10
229.94231449609009
 20
121.261263288172
 30
0.0
 11
233.76761448909059
 21
121.261263288172
 31
0.0
  0
LINE
  5
430
  8
5
 10
226.1636925434621
 20
118.615443712897
 30
0.0
 11
229.94231449609009
 21
121.261263288172
 31
0.0
  0
LINE
  5
431
  8
5
 10
228.6636925434621
 20
117.17462626112579
 30
0.0
 11
226.1636925434621
 21
117.615443712897
 31
0.0
  0
LINE
  5
432
  8
5
 10
226.1636925434621
 20
117.615443712897
 30
0.0
 11
226.1636925434621
 21
118.615443712897
 31
0.0
  0
LINE
  5
433
  8
5
 10
226.1636925434621
 20
115.4241074156017
 30
0.0
 11
228.6636925434621
 21
117.17462626112579
 31
0.0
  0
LINE
  5
434
  8
5
 10
228.6636925434621
 20
113.9832899638305
 30
0.0
 11
226.1636925434621
 21
114.4241074156017
 31
0.0
  0
LINE
  5
435
  8
5
 10
226.1636925434621
 20
114.4241074156017
 30
0.0
 11
226.1636925434621
 21
115.4241074156017
 31
0.0
  0
LINE
  5
436
  8
5
 10
226.1636925434621
 20
112.2327711183062
 30
0.0
 11
228.6636925434621
 21
113.9832899638305
 31
0.0
  0
LINE
  5
437
  8
5
 10
228.6636925434621
 20
110.79195366653499
 30
0.0
 11
226.1636925434621
 21
111.2327711183062
 31
0.0
  0
LINE
  5
438
  8
5
 10
226.1636925434621
 20
111.2327711183062
 30
0.0
 11
226.1636925434621
 21
112.2327711183062
 31
0.0
  0
LINE
  5
439
  8
5
 10
226.1636925434621
 20
109.0414348210108
 30
0.0
 11
228.6636925434621
 21
110.79195366653499
 31
0.0
  0
LINE
  5
43A
  8
5
 10
228.6636925434621
 20
107.6006173692396
 30
0.0
 11
226.1636925434621
 21
108.0414348210108
 31
0.0
  0
LINE
  5
43B
  8
5
 10
226.1636925434621
 20
108.0414348210108
 30
0.0
 11
226.1636925434621
 21
109.0414348210108
 31
0.0
  0
LINE
  5
43C
  8
5
 10
226.1636925434621
 20
105.8500985237154
 30
0.0
 11
228.6636925434621
 21
107.6006173692396
 31
0.0
  0
LINE
  5
43D
  8
5
 10
228.6636925434621
 20
104.40928107194431
 30
0.0
 11
226.1636925434621
 21
104.8500985237154
 31
0.0
  0
LINE
  5
43E
  8
5
 10
226.1636925434621
 20
104.8500985237154
 30
0.0
 11
226.1636925434621
 21
105.8500985237154
 31
0.0
  0
LINE
  5
43F
  8
5
 10
226.22036060461369
 20
102.6984416300142
 30
0.0
 11
228.6636925434621
 21
104.40928107194431
 31
0.0
  0
LINE
  5
440
  8
5
 10
241.1636925434621
 20
116.2242516189802
 30
0.0
 11
241.1636925434621
 21
99.261263288171975
 31
0.0
  0
ARC
  5
441
  8
5
 10
254.16369254346199
 20
143.2612632881719
 30
0.0
 40
30.0
 50
227.16657193393391
 51
244.32071138053931
  0
ARC
  5
442
  8
5
 10
254.16369254346199
 20
143.2612632881719
 30
0.0
 40
30.0
 50
244.3207113805459
 51
270.0
  0
LINE
  5
443
  8
0
 10
102.16369254346201
 20
99.261263288172017
 30
0.0
 11
74.163692543462034
 21
99.261263288172017
 31
0.0
  0
LINE
  5
444
  8
0
 10
136.66369254346199
 20
86.817887615198174
 30
0.0
 11
136.66369254346199
 21
89.704638961146784
 31
0.0
  0
LINE
  5
445
  8
0
 10
134.16369254346219
 20
85.374511942224103
 30
0.0
 11
136.66369254346199
 21
86.817887615198174
 31
0.0
  0
LINE
  5
446
  8
0
 10
131.6636925434623
 20
86.817887615198174
 30
0.0
 11
134.16369254346219
 21
85.374511942224103
 31
0.0
  0
LINE
  5
447
  8
0
 10
131.66369254346179
 20
89.704638961145847
 30
0.0
 11
131.6636925434623
 21
86.817887615198174
 31
0.0
  0
LINE
  5
448
  8
0
 10
134.16369254346199
 20
91.148014634120258
 30
0.0
 11
131.66369254346179
 21
89.704638961145847
 31
0.0
  0
CIRCLE
  5
449
  8
0
 10
134.16369254346199
 20
88.261263288172003
 30
0.0
 40
4.3071796769724946
  0
LINE
  5
44A
  8
0
 10
136.66369254346199
 20
89.704638961146784
 30
0.0
 11
134.16369254346199
 21
91.148014634120258
 31
0.0
  0
CIRCLE
  5
44B
  8
0
 10
134.16369254346199
 20
88.261263288172003
 30
0.0
 40
5.0
  0
CIRCLE
  5
44C
  8
0
 10
110.16369254346201
 20
88.261263288172003
 30
0.0
 40
5.0
  0
LINE
  5
44D
  8
0
 10
107.66369254346181
 20
89.704638961145847
 30
0.0
 11
107.6636925434623
 21
86.817887615198174
 31
0.0
  0
LINE
  5
44E
  8
0
 10
110.16369254346201
 20
91.148014634120258
 30
0.0
 11
107.66369254346181
 21
89.704638961145847
 31
0.0
  0
LINE
  5
44F
  8
0
 10
112.66369254346201
 20
89.704638961146784
 30
0.0
 11
110.16369254346201
 21
91.148014634120258
 31
0.0
  0
LINE
  5
450
  8
0
 10
112.66369254346201
 20
86.817887615198174
 30
0.0
 11
112.66369254346201
 21
89.704638961146784
 31
0.0
  0
LINE
  5
451
  8
0
 10
110.1636925434622
 20
85.374511942224103
 30
0.0
 11
112.66369254346201
 21
86.817887615198174
 31
0.0
  0
LINE
  5
452
  8
0
 10
107.6636925434623
 20
86.817887615198174
 30
0.0
 11
110.1636925434622
 21
85.374511942224103
 31
0.0
  0
CIRCLE
  5
453
  8
0
 10
110.16369254346201
 20
88.261263288172003
 30
0.0
 40
4.3071796769724946
  0
LINE
  5
454
  8
0
 10
227.16369254346199
 20
79.061263288171972
 30
0.0
 11
227.963692543462
 21
78.261263288171904
 31
0.0
  0
LINE
  5
455
  8
0
 10
232.1636925434621
 20
71.261263288171904
 30
0.0
 11
232.1636925434621
 21
78.261263288171904
 31
0.0
  0
LINE
  5
456
  8
0
 10
232.1636925434621
 20
78.261263288171904
 30
0.0
 11
227.56369254346191
 21
78.261263288171904
 31
0.0
  0
LINE
  5
458
  8
0
 10
232.1636925434621
 20
71.261263288171904
 30
0.0
 11
234.16369254346171
 21
71.261263288171904
 31
0.0
  0
LINE
  5
459
  8
0
 10
262.1636925434621
 20
99.261263288171904
 30
0.0
 11
234.16369254346199
 21
71.261263288171904
 31
0.0
  0
ARC
  5
45B
  8
0
 10
240.16369254346199
 20
129.2612632881719
 30
0.0
 40
30.0
 50
244.3207113805459
 51
270.0
  0
LINE
  5
45D
  8
0
 10
142.1636925434621
 20
182.26126328817199
 30
0.0
 11
102.16369254346201
 21
182.26126328817199
 31
0.0
  0
LINE
  5
45F
  8
0
 10
107.1660428126516
 20
228.5749717871567
 30
0.0
 11
117.16369254346181
 21
228.5749717871567
 31
0.0
  0
LINE
  5
460
  8
0
 10
142.1636925434621
 20
217.2612632881719
 30
0.0
 11
132.5425401207554
 21
217.2612632881719
 31
0.0
  0
ARC
  5
461
  8
0
 10
120.03664382955741
 20
227.71117151641911
 30
0.0
 40
7.000000000001247
 50
310.87996939671899
 51
343.26572651653652
  0
ARC
  5
462
  8
0
 10
117.16369254346171
 20
228.5749717871567
 30
0.0
 40
10.000000000000719
 50
343.26572651653652
 51
0.0
  0
ARC
  5
463
  8
0
 10
127.1636925434624
 20
228.5749717871567
 30
0.0
 40
10.000000000000719
 50
180.0
 51
196.73427348346351
  0
ARC
  5
464
  8
0
 10
124.29074125736661
 20
227.71117151641911
 30
0.0
 40
7.000000000001247
 50
196.73427348346351
 51
229.12003060328101
  0
ARC
  5
465
  8
0
 10
122.1636925434621
 20
225.25390397528969
 30
0.0
 40
3.749999999999488
 50
229.12003060328101
 51
310.87996939671899
  0
LINE
  5
467
  8
0
 10
111.78484496616871
 20
217.2612632881719
 30
0.0
 11
107.1660428126517
 21
228.5749717871567
 31
0.0
  0
LINE
  5
468
  8
0
 10
132.5425401207554
 20
217.2612632881719
 30
0.0
 11
137.16134227427241
 21
228.5749717871567
 31
0.0
  0
LINE
  5
469
  8
0
 10
127.1636925434626
 20
228.5749717871567
 30
0.0
 11
137.16134227427241
 21
228.5749717871567
 31
0.0
  0
LINE
  5
46A
  8
0
 10
111.78484496616871
 20
217.2612632881719
 30
0.0
 11
102.16369254346201
 21
217.2612632881719
 31
0.0
  0
ARC
  5
46C
  8
0
 10
227.56369254346191
 20
78.661263288171881
 30
0.0
 40
0.4
 50
180.0
 51
270.0
  0
LINE
  5
46D
  8
0
 10
140.1636925434621
 20
167.26126328817199
 30
0.0
 11
126.1636925434621
 21
167.26126328817199
 31
0.0
  0
ARC
  5
46E
  8
0
 10
104.16369254346191
 20
169.26126328817199
 30
0.0
 40
2.0
 50
180.0
 51
270.0
  0
ARC
  5
46F
  8
0
 10
140.16369254346191
 20
169.26126328817199
 30
0.0
 40
2.0
 50
270.0
 51
0.0
  0
LINE
  5
470
  8
0
 10
118.16369254346201
 20
167.26126328817199
 30
0.0
 11
122.1636925434621
 21
171.26126328817199
 31
0.0
  0
LINE
  5
471
  8
0
 10
122.1636925434621
 20
171.26126328817199
 30
0.0
 11
126.1636925434621
 21
167.26126328817199
 31
0.0
  0
LINE
  5
472
  8
0
 10
118.16369254346201
 20
167.26126328817199
 30
0.0
 11
104.16369254346201
 21
167.26126328817199
 31
0.0
  0
LINE
  5
474
  8
0
 10
102.16369254346201
 20
169.26126328817199
 30
0.0
 11
102.16369254346201
 21
217.2612632881719
 31
0.0
  0
LINE
  5
475
  8
0
 10
142.1636925434621
 20
169.26126328817199
 30
0.0
 11
142.1636925434621
 21
217.2612632881719
 31
0.0
  0
LINE
  5
476
  8
3
 10
104.16369254346201
 20
94.041434821010796
 30
0.0
 11
118.16369254346201
 21
94.041434821010796
 31
0.0
  0
LINE
  5
477
  8
3
 10
140.16369254346199
 20
94.041434821010796
 30
0.0
 11
126.16369254346201
 21
94.041434821010796
 31
0.0
  0
LINE
  5
478
  8
1
 10
120.66369254346201
 20
88.261263288172003
 30
0.0
 11
99.663692543462034
 21
88.261263288172003
 31
0.0
  0
LINE
  5
479
  8
3
 10
104.16369254346201
 20
82.276089631829336
 30
0.0
 11
118.16369254346201
 21
82.276089631829336
 31
0.0
  0
LINE
  5
47A
  8
3
 10
104.16369254346201
 20
81.276089631829336
 30
0.0
 11
118.16369254346201
 21
81.276089631829336
 31
0.0
  0
LINE
  5
47B
  8
3
 10
104.16369254346201
 20
79.084753334533957
 30
0.0
 11
118.16369254346201
 21
79.084753334533957
 31
0.0
  0
LINE
  5
47C
  8
3
 10
104.16369254346201
 20
78.084753334533957
 30
0.0
 11
118.16369254346201
 21
78.084753334533957
 31
0.0
  0
LINE
  5
47D
  8
3
 10
104.16369254346201
 20
75.893417037238564
 30
0.0
 11
118.16369254346201
 21
75.893417037238564
 31
0.0
  0
LINE
  5
47E
  8
3
 10
104.16369254346201
 20
74.893417037238578
 30
0.0
 11
118.16369254346201
 21
74.893417037238578
 31
0.0
  0
LINE
  5
47F
  8
3
 10
104.16369254346201
 20
72.702080739943199
 30
0.0
 11
118.16369254346201
 21
72.702080739943199
 31
0.0
  0
LINE
  5
480
  8
1
 10
110.16369254346201
 20
98.761263288172074
 30
0.0
 11
110.16369254346201
 21
77.761263288172017
 31
0.0
  0
CIRCLE
  5
481
  8
0
 10
110.16369254346201
 20
88.261263288172003
 30
0.0
 40
5.5
  0
LINE
  5
482
  8
3
 10
104.16369254346201
 20
97.232771118306175
 30
0.0
 11
118.16369254346201
 21
97.232771118306175
 31
0.0
  0
LINE
  5
483
  8
3
 10
104.16369254346201
 20
98.232771118306175
 30
0.0
 11
118.16369254346201
 21
98.232771118306175
 31
0.0
  0
LINE
  5
484
  8
3
 10
104.16369254346201
 20
100.4241074156015
 30
0.0
 11
118.16369254346201
 21
100.4241074156015
 31
0.0
  0
LINE
  5
485
  8
3
 10
104.16369254346201
 20
101.4241074156015
 30
0.0
 11
118.16369254346201
 21
101.4241074156015
 31
0.0
  0
LINE
  5
486
  8
3
 10
104.16369254346201
 20
104.61544371289691
 30
0.0
 11
118.16369254346201
 21
104.61544371289691
 31
0.0
  0
LINE
  5
487
  8
3
 10
104.16369254346201
 20
103.61544371289691
 30
0.0
 11
118.16369254346201
 21
103.61544371289691
 31
0.0
  0
LINE
  5
488
  8
3
 10
104.16369254346201
 20
95.041434821010796
 30
0.0
 11
118.16369254346201
 21
95.041434821010796
 31
0.0
  0
LINE
  5
489
  8
3
 10
104.16369254346201
 20
91.850098523715474
 30
0.0
 11
106.11989315514499
 21
91.850098523715474
 31
0.0
  0
LINE
  5
48A
  8
3
 10
114.3314571303986
 20
91.850098523715474
 30
0.0
 11
118.16369254346201
 21
91.850098523715474
 31
0.0
  0
LINE
  5
48B
  8
3
 10
104.16369254346201
 20
90.850098523715474
 30
0.0
 11
105.3110713833873
 21
90.850098523715474
 31
0.0
  0
LINE
  5
48C
  8
3
 10
115.01631370353741
 20
90.850098523715474
 30
0.0
 11
118.16369254346201
 21
90.850098523715474
 31
0.0
  0
LINE
  5
48D
  8
3
 10
104.16369254346201
 20
88.658762226420095
 30
0.0
 11
104.6780754775257
 21
88.658762226420095
 31
0.0
  0
LINE
  5
48E
  8
3
 10
115.6493096093984
 20
88.658762226420095
 30
0.0
 11
118.16369254346201
 21
88.658762226420095
 31
0.0
  0
LINE
  5
48F
  8
3
 10
104.16369254346201
 20
87.658762226420095
 30
0.0
 11
104.69679283059099
 21
87.658762226420095
 31
0.0
  0
LINE
  5
490
  8
3
 10
115.6305922563331
 20
87.658762226420095
 30
0.0
 11
118.16369254346201
 21
87.658762226420095
 31
0.0
  0
LINE
  5
491
  8
3
 10
104.16369254346201
 20
85.467425929124715
 30
0.0
 11
105.426132748463
 21
85.467425929124715
 31
0.0
  0
LINE
  5
492
  8
3
 10
114.9012523384613
 20
85.467425929124715
 30
0.0
 11
118.16369254346201
 21
85.467425929124715
 31
0.0
  0
LINE
  5
493
  8
3
 10
104.16369254346201
 20
84.467425929124715
 30
0.0
 11
106.181633014387
 21
84.467425929124715
 31
0.0
  0
LINE
  5
494
  8
3
 10
114.14575207253711
 20
84.467425929124715
 30
0.0
 11
118.16369254346201
 21
84.467425929124715
 31
0.0
  0
LINE
  5
495
  8
3
 10
130.18163301438699
 20
84.467425929124715
 30
0.0
 11
126.16369254346201
 21
84.467425929124715
 31
0.0
  0
LINE
  5
496
  8
3
 10
129.42613274846281
 20
85.467425929124715
 30
0.0
 11
126.16369254346201
 21
85.467425929124715
 31
0.0
  0
LINE
  5
497
  8
3
 10
128.69679283059119
 20
87.658762226420095
 30
0.0
 11
126.16369254346201
 21
87.658762226420095
 31
0.0
  0
LINE
  5
498
  8
3
 10
128.6780754775256
 20
88.658762226420095
 30
0.0
 11
126.16369254346201
 21
88.658762226420095
 31
0.0
  0
LINE
  5
499
  8
3
 10
129.3110713833866
 20
90.850098523715474
 30
0.0
 11
126.16369254346201
 21
90.850098523715474
 31
0.0
  0
LINE
  5
49A
  8
3
 10
129.99592795652529
 20
91.850098523715474
 30
0.0
 11
126.16369254346201
 21
91.850098523715474
 31
0.0
  0
LINE
  5
49B
  8
3
 10
140.16369254346199
 20
103.61544371289691
 30
0.0
 11
126.16369254346201
 21
103.61544371289691
 31
0.0
  0
LINE
  5
49C
  8
3
 10
140.16369254346199
 20
104.61544371289691
 30
0.0
 11
126.16369254346201
 21
104.61544371289691
 31
0.0
  0
LINE
  5
49D
  8
3
 10
140.16369254346199
 20
101.4241074156015
 30
0.0
 11
126.16369254346201
 21
101.4241074156015
 31
0.0
  0
LINE
  5
49E
  8
3
 10
140.16369254346199
 20
100.4241074156015
 30
0.0
 11
126.16369254346201
 21
100.4241074156015
 31
0.0
  0
LINE
  5
49F
  8
3
 10
140.16369254346199
 20
98.232771118306175
 30
0.0
 11
126.16369254346201
 21
98.232771118306175
 31
0.0
  0
LINE
  5
4A0
  8
3
 10
140.16369254346199
 20
97.232771118306175
 30
0.0
 11
126.16369254346201
 21
97.232771118306175
 31
0.0
  0
LINE
  5
4A1
  8
3
 10
140.16369254346199
 20
95.041434821010796
 30
0.0
 11
126.16369254346201
 21
95.041434821010796
 31
0.0
  0
LINE
  5
4A2
  8
3
 10
140.16369254346199
 20
91.850098523715474
 30
0.0
 11
138.33145713039829
 21
91.850098523715474
 31
0.0
  0
LINE
  5
4A3
  8
3
 10
140.16369254346199
 20
90.850098523715474
 30
0.0
 11
139.01631370353689
 21
90.850098523715474
 31
0.0
  0
LINE
  5
4A4
  8
3
 10
140.16369254346199
 20
88.658762226420095
 30
0.0
 11
139.64930960939839
 21
88.658762226420095
 31
0.0
  0
LINE
  5
4A5
  8
3
 10
140.16369254346199
 20
87.658762226420095
 30
0.0
 11
139.63059225633279
 21
87.658762226420095
 31
0.0
  0
LINE
  5
4A6
  8
3
 10
140.16369254346199
 20
85.467425929124715
 30
0.0
 11
138.90125233846101
 21
85.467425929124715
 31
0.0
  0
LINE
  5
4A7
  8
3
 10
140.16369254346199
 20
84.467425929124715
 30
0.0
 11
138.14575207253711
 21
84.467425929124715
 31
0.0
  0
LINE
  5
4A8
  8
1
 10
134.16369254346199
 20
98.761263288172074
 30
0.0
 11
134.16369254346199
 21
77.761263288172017
 31
0.0
  0
LINE
  5
4A9
  8
1
 10
123.66369254346201
 20
88.261263288172003
 30
0.0
 11
144.66369254346199
 21
88.261263288172003
 31
0.0
  0
CIRCLE
  5
4AA
  8
0
 10
134.16369254346199
 20
88.261263288172003
 30
0.0
 40
5.5
  0
LINE
  5
4AB
  8
0
 10
118.16369254346201
 20
71.261263288172017
 30
0.0
 11
118.16369254346201
 21
107.261263288172
 31
0.0
  0
LINE
  5
4AC
  8
3
 10
140.16369254346199
 20
72.702080739943199
 30
0.0
 11
126.16369254346201
 21
72.702080739943199
 31
0.0
  0
LINE
  5
4AD
  8
3
 10
140.16369254346199
 20
74.893417037238578
 30
0.0
 11
126.16369254346201
 21
74.893417037238578
 31
0.0
  0
LINE
  5
4AE
  8
3
 10
140.16369254346199
 20
75.893417037238564
 30
0.0
 11
126.16369254346201
 21
75.893417037238564
 31
0.0
  0
LINE
  5
4AF
  8
3
 10
140.16369254346199
 20
78.084753334533957
 30
0.0
 11
126.16369254346201
 21
78.084753334533957
 31
0.0
  0
LINE
  5
4B0
  8
3
 10
140.16369254346199
 20
79.084753334533957
 30
0.0
 11
126.16369254346201
 21
79.084753334533957
 31
0.0
  0
LINE
  5
4B1
  8
3
 10
140.16369254346199
 20
81.276089631829336
 30
0.0
 11
126.16369254346201
 21
81.276089631829336
 31
0.0
  0
LINE
  5
4B2
  8
3
 10
140.16369254346199
 20
82.276089631829336
 30
0.0
 11
126.16369254346201
 21
82.276089631829336
 31
0.0
  0
LINE
  5
4B3
  8
0
 10
126.16369254346201
 20
71.261263288172017
 30
0.0
 11
126.16369254346201
 21
107.261263288172
 31
0.0
  0
ARC
  5
4B4
  8
0
 10
106.16369254346201
 20
103.261263288172
 30
0.0
 40
4.0
 50
90.0
 51
180.0
  0
LINE
  5
4B5
  8
0
 10
102.16369254346201
 20
71.761260881097769
 30
0.0
 11
102.16369254346201
 21
103.261263288172
 31
0.0
  0
LINE
  5
4B6
  8
0
 10
103.16369254346201
 20
71.261263288172017
 30
0.0
 11
102.16369254346201
 21
72.261263288172003
 31
0.0
  0
LINE
  5
4B7
  8
0
 10
141.16369254346199
 20
71.261263288172017
 30
0.0
 11
142.16369254346199
 21
72.261263288172003
 31
0.0
  0
LINE
  5
4B8
  8
0
 10
103.16369254346201
 20
71.261263288172017
 30
0.0
 11
141.16369254346199
 21
71.261263288172017
 31
0.0
  0
ARC
  5
4B9
  8
0
 10
138.16369254346199
 20
103.261263288172
 30
0.0
 40
4.0
 50
0.0
 51
90.0
  0
LINE
  5
4BA
  8
0
 10
138.16369254346199
 20
107.261263288172
 30
0.0
 11
106.16369254346201
 21
107.261263288172
 31
0.0
  0
LINE
  5
4BB
  8
0
 10
142.16369254346199
 20
71.761260881097769
 30
0.0
 11
142.16369254346199
 21
103.261263288172
 31
0.0
  0
LINE
  5
4BC
  8
3
 10
140.16369254346199
 20
71.702080739943199
 30
0.0
 11
126.16369254346201
 21
71.702080739943199
 31
0.0
  0
LINE
  5
4BD
  8
3
 10
104.16369254346201
 20
71.702080739943199
 30
0.0
 11
118.16369254346201
 21
71.702080739943199
 31
0.0
  0
ARC
  5
4BE
  8
0
 10
240.16369254346199
 20
129.2612632881719
 30
0.0
 40
30.0
 50
227.16657193393391
 51
244.32071138053931
  0
LINE
  5
4BF
  8
0
 10
232.1636925434621
 20
71.761263288171904
 30
0.0
 11
231.66369254346199
 21
71.261263288171904
 31
0.0
  0
LINE
  5
4C0
  8
0
 10
231.66369254346199
 20
78.261263288171904
 30
0.0
 11
232.1636925434621
 21
77.761263288171904
 31
0.0
  0
LINE
  5
4C1
  8
0
 10
214.66369254346199
 20
71.261263288171904
 30
0.0
 11
231.66369254346199
 21
71.261263288171904
 31
0.0
  0
LINE
  5
4C2
  8
0
 10
214.66369254346199
 20
71.261263288171904
 30
0.0
 11
212.1636925434621
 21
71.702080739943085
 31
0.0
  0
LINE
  5
4C3
  8
0
 10
212.1636925434621
 20
71.702080739943085
 30
0.0
 11
212.1636925434621
 21
72.702080739943085
 31
0.0
  0
LINE
  5
4C4
  8
0
 10
212.1636925434621
 20
72.702080739943085
 30
0.0
 11
214.66369254346199
 21
74.452599585467283
 31
0.0
  0
LINE
  5
4C5
  8
0
 10
212.1636925434621
 20
75.893417037238464
 30
0.0
 11
214.66369254346199
 21
77.643935882762662
 31
0.0
  0
LINE
  5
4C6
  8
0
 10
214.66369254346199
 20
74.452599585467283
 30
0.0
 11
212.1636925434621
 21
74.893417037238464
 31
0.0
  0
LINE
  5
4C7
  8
0
 10
212.1636925434621
 20
74.893417037238464
 30
0.0
 11
212.1636925434621
 21
75.893417037238464
 31
0.0
  0
LINE
  5
4C8
  8
0
 10
227.16369254346199
 20
102.2242516189802
 30
0.0
 11
227.16369254346199
 21
78.661263288171881
 31
0.0
  0
LINE
  5
4CB
  8
0
 10
212.1636925434621
 20
78.084753334533843
 30
0.0
 11
212.1636925434621
 21
79.084753334533843
 31
0.0
  0
LINE
  5
4CC
  8
0
 10
214.66369254346199
 20
77.643935882762662
 30
0.0
 11
212.1636925434621
 21
78.084753334533843
 31
0.0
  0
LINE
  5
4CD
  8
0
 10
212.1636925434621
 20
79.084753334533843
 30
0.0
 11
214.66369254346199
 21
80.835272180058027
 31
0.0
  0
LINE
  5
4CE
  8
0
 10
212.1636925434621
 20
81.276089631829223
 30
0.0
 11
212.1636925434621
 21
82.276089631829208
 31
0.0
  0
LINE
  5
4CF
  8
0
 10
214.66369254346199
 20
80.835272180058027
 30
0.0
 11
212.1636925434621
 21
81.276089631829223
 31
0.0
  0
LINE
  5
4D0
  8
0
 10
212.1636925434621
 20
82.276089631829208
 30
0.0
 11
214.66369254346199
 21
84.02660847735342
 31
0.0
  0
LINE
  5
4D1
  8
0
 10
212.1636925434621
 20
84.467425929124602
 30
0.0
 11
212.1636925434621
 21
85.467425929124602
 31
0.0
  0
LINE
  5
4D2
  8
0
 10
214.66369254346199
 20
84.02660847735342
 30
0.0
 11
212.1636925434621
 21
84.467425929124602
 31
0.0
  0
LINE
  5
4D3
  8
0
 10
212.1636925434621
 20
85.467425929124602
 30
0.0
 11
214.66369254346199
 21
87.217944774648814
 31
0.0
  0
LINE
  5
4D4
  8
0
 10
212.1636925434621
 20
87.658762226420095
 30
0.0
 11
212.1636925434621
 21
88.658762226420095
 31
0.0
  0
LINE
  5
4D5
  8
0
 10
214.66369254346199
 20
87.217944774648913
 30
0.0
 11
212.1636925434621
 21
87.658762226420095
 31
0.0
  0
LINE
  5
4D6
  8
0
 10
212.1636925434621
 20
88.658762226420095
 30
0.0
 11
214.66369254346199
 21
90.409281071944307
 31
0.0
  0
LINE
  5
4D7
  8
0
 10
212.1636925434621
 20
90.850098523715474
 30
0.0
 11
212.1636925434621
 21
91.850098523715474
 31
0.0
  0
LINE
  5
4D8
  8
0
 10
214.66369254346199
 20
90.409281071944307
 30
0.0
 11
212.1636925434621
 21
90.850098523715474
 31
0.0
  0
LINE
  5
4D9
  8
0
 10
212.1636925434621
 20
91.850098523715474
 30
0.0
 11
214.66369254346199
 21
93.600617369239671
 31
0.0
  0
LINE
  5
4DA
  8
0
 10
212.1636925434621
 20
94.041434821010853
 30
0.0
 11
212.1636925434621
 21
95.041434821010853
 31
0.0
  0
LINE
  5
4DB
  8
0
 10
214.66369254346199
 20
93.600617369239671
 30
0.0
 11
212.1636925434621
 21
94.041434821010853
 31
0.0
  0
LINE
  5
4DC
  8
0
 10
212.1636925434621
 20
95.041434821010853
 30
0.0
 11
214.66369254346199
 21
96.791953666535051
 31
0.0
  0
LINE
  5
4DD
  8
0
 10
212.1636925434621
 20
97.232771118306246
 30
0.0
 11
212.1636925434621
 21
98.232771118306232
 31
0.0
  0
LINE
  5
4DE
  8
0
 10
214.66369254346199
 20
96.791953666535051
 30
0.0
 11
212.1636925434621
 21
97.232771118306246
 31
0.0
  0
LINE
  5
4DF
  8
0
 10
212.1636925434621
 20
98.232771118306232
 30
0.0
 11
214.66369254346199
 21
99.983289963830543
 31
0.0
  0
LINE
  5
4E0
  8
0
 10
212.1636925434621
 20
100.4241074156017
 30
0.0
 11
212.1636925434621
 21
101.4241074156017
 31
0.0
  0
LINE
  5
4E1
  8
0
 10
214.66369254346199
 20
99.983289963830543
 30
0.0
 11
212.1636925434621
 21
100.4241074156017
 31
0.0
  0
LINE
  5
4E2
  8
0
 10
212.1636925434621
 20
101.4241074156017
 30
0.0
 11
214.66369254346199
 21
103.17462626112579
 31
0.0
  0
LINE
  5
4E3
  8
0
 10
212.1636925434621
 20
103.615443712897
 30
0.0
 11
212.1636925434621
 21
104.615443712897
 31
0.0
  0
LINE
  5
4E4
  8
0
 10
214.66369254346199
 20
103.17462626112579
 30
0.0
 11
212.1636925434621
 21
103.615443712897
 31
0.0
  0
LINE
  5
4E5
  8
0
 10
212.1636925434621
 20
104.615443712897
 30
0.0
 11
215.94231449609009
 21
107.261263288172
 31
0.0
  0
LINE
  5
4E6
  8
0
 10
215.94231449609009
 20
107.261263288172
 30
0.0
 11
219.76761448909059
 21
107.261263288172
 31
0.0
  0
LINE
  5
4E7
  8
0
 10
244.16369287873789
 20
79.139943279888712
 30
0.0
 11
244.16369287873789
 21
69.261263288172003
 31
0.0
  0
POLYLINE
  5
4E8
  8
0
 66
     1
 10
0.0
 20
0.0
 30
0.0
 70
   128
  0
VERTEX
  5
6FB
  8
0
 10
102.0689253305943
 20
71.261263288172017
 30
0.0
  0
VERTEX
  5
6FC
  8
0
 10
101.8137988245041
 20
70.914872146524544
 30
0.0
  0
VERTEX
  5
6FD
  8
0
 10
101.6668547486813
 20
70.764425570225399
 30
0.0
  0
VERTEX
  5
6FE
  8
0
 10
101.66369197721789
 20
70.761263264423292
 30
0.0
  0
SEQEND
  5
6FF
  8
0
  0
LINE
  5
4E9
  8
0
 10
111.7824949866087
 20
69.261263288172003
 30
0.0
 11
111.7824949866087
 21
71.261263288171904
 31
0.0
  0
POLYLINE
  5
4EA
  8
0
 66
     1
 10
0.0
 20
0.0
 30
0.0
 70
   128
  0
VERTEX
  5
700
  8
0
 10
73.742641190246104
 20
73.309360839041005
 30
0.0
  0
VERTEX
  5
701
  8
0
 10
73.122719356969355
 20
74.202895233022105
 30
0.0
  0
VERTEX
  5
702
  8
0
 10
72.614187428906916
 20
74.97599355279101
 30
0.0
  0
VERTEX
  5
703
  8
0
 10
72.28284520860052
 20
75.657782446207534
 30
0.0
  0
VERTEX
  5
704
  8
0
 10
72.163721600726603
 20
76.301286764057409
 30
0.0
  0
VERTEX
  5
705
  8
0
 10
72.163691798404216
 20
76.311515945555698
 30
0.0
  0
SEQEND
  5
706
  8
0
  0
POLYLINE
  5
4EB
  8
0
 66
     1
 10
0.0
 20
0.0
 30
0.0
 70
   128
  0
VERTEX
  5
707
  8
0
 10
76.265482286170482
 20
70.761263264423292
 30
0.0
  0
VERTEX
  5
708
  8
0
 10
75.316028723672389
 20
71.509591372298132
 30
0.0
  0
VERTEX
  5
709
  8
0
 10
74.470793882564067
 20
72.363288210319411
 30
0.0
  0
VERTEX
  5
70A
  8
0
 10
73.742641190246104
 20
73.309360839041005
 30
0.0
  0
SEQEND
  5
70B
  8
0
  0
LINE
  5
4EC
  8
0
 10
101.6636920009703
 20
70.761263288172017
 30
0.0
 11
76.265482136467881
 21
70.761263288172017
 31
0.0
  0
LINE
  5
4ED
  8
0
 10
82.163692543462275
 20
70.761263288172017
 30
0.0
 11
82.163692543462275
 21
69.261263288172003
 31
0.0
  0
LINE
  5
4EE
  8
0
 10
171.16369254346199
 20
69.261263288172003
 30
0.0
 11
73.163692543462275
 21
69.261263288172003
 31
0.0
  0
LINE
  5
4EF
  8
0
 10
72.163692543462034
 20
70.261263288172017
 30
0.0
 11
73.163692543462275
 21
69.261263288172003
 31
0.0
  0
LINE
  5
4F0
  8
0
 10
132.54489010031531
 20
69.261263193177115
 30
0.0
 11
132.54489010031531
 21
71.261263288171904
 31
0.0
  0
POLYLINE
  5
4F1
  8
0
 66
     1
 10
0.0
 20
0.0
 30
0.0
 70
   128
  0
VERTEX
  5
70C
  8
0
 10
102.1636929904969
 20
95.261263496788274
 30
0.0
  0
VERTEX
  5
70D
  8
0
 10
102.15609712357831
 20
95.752415082963239
 30
0.0
  0
VERTEX
  5
70E
  8
0
 10
102.133538628176
 20
96.228643156202565
 30
0.0
  0
VERTEX
  5
70F
  8
0
 10
102.0967048203499
 20
96.675476826341878
 30
0.0
  0
VERTEX
  5
710
  8
0
 10
102.0467151498348
 20
97.079341135533582
 30
0.0
  0
VERTEX
  5
711
  8
0
 10
101.98508580978221
 20
97.427964977534543
 30
0.0
  0
VERTEX
  5
712
  8
0
 10
101.9136924838574
 20
97.710753626735936
 30
0.0
  0
VERTEX
  5
713
  8
0
 10
101.83470329101389
 20
97.919114701064359
 30
0.0
  0
VERTEX
  5
714
  8
0
 10
101.7505173182041
 20
98.046720794947873
 30
0.0
  0
VERTEX
  5
715
  8
0
 10
101.66369197721789
 20
98.089690155895482
 30
0.0
  0
SEQEND
  5
716
  8
0
  0
POLYLINE
  5
4F2
  8
0
 66
     1
 10
0.0
 20
0.0
 30
0.0
 70
   128
  0
VERTEX
  5
717
  8
0
 10
100.5195327951003
 20
99.261263288172017
 30
0.0
  0
VERTEX
  5
718
  8
0
 10
100.5228367244751
 20
95.607646576674711
 30
0.0
  0
VERTEX
  5
719
  8
0
 10
100.0491958653481
 20
93.137890867503415
 30
0.0
  0
VERTEX
  5
71A
  8
0
 10
99.136326516226063
 20
90.799999259026777
 30
0.0
  0
VERTEX
  5
71B
  8
0
 10
97.814438918784376
 20
88.691209278615247
 30
0.0
  0
VERTEX
  5
71C
  8
0
 10
96.719089949682484
 20
87.429064161690007
 30
0.0
  0
VERTEX
  5
71D
  8
0
 10
95.483779961422215
 20
86.32192464879347
 30
0.0
  0
VERTEX
  5
71E
  8
0
 10
94.108507091358433
 20
85.369788877280484
 30
0.0
  0
VERTEX
  5
71F
  8
0
 10
93.004975522115956
 20
84.769409916909467
 30
0.0
  0
VERTEX
  5
720
  8
0
 10
91.860180774882565
 20
84.27896613589121
 30
0.0
  0
VERTEX
  5
721
  8
0
 10
90.674122849658488
 20
83.898456602903138
 30
0.0
  0
VERTEX
  5
722
  8
0
 10
89.446796158507823
 20
83.627883180590402
 30
0.0
  0
VERTEX
  5
723
  8
0
 10
88.200340101674556
 20
83.471098750444185
 30
0.0
  0
VERTEX
  5
724
  8
0
 10
87.163692543462275
 20
83.438310874098647
 30
0.0
  0
SEQEND
  5
725
  8
0
  0
LINE
  5
4F3
  8
0
 10
101.66369254346201
 20
98.089690412918245
 30
0.0
 11
100.5190294777901
 21
98.089690155895482
 31
0.0
  0
LINE
  5
4F4
  8
0
 10
112.9136924242527
 20
69.261263193177115
 30
0.0
 11
112.9136924242527
 21
71.261263288172017
 31
0.0
  0
LINE
  5
4F5
  8
0
 10
131.41369266267131
 20
71.261263288172017
 30
0.0
 11
131.41369266267131
 21
69.261263193177115
 31
0.0
  0
POLYLINE
  5
4F6
  8
0
 66
     1
 10
0.0
 20
0.0
 30
0.0
 70
   128
  0
VERTEX
  5
726
  8
0
 10
116.3252099027784
 20
71.261263288172017
 30
0.0
  0
VERTEX
  5
727
  8
0
 10
117.2078438645155
 20
70.323095667256098
 30
0.0
  0
VERTEX
  5
728
  8
0
 10
118.2819500641824
 20
69.464343086430858
 30
0.0
  0
VERTEX
  5
729
  8
0
 10
118.59784117731461
 20
69.261263193177115
 30
0.0
  0
SEQEND
  5
72A
  8
0
  0
POLYLINE
  5
4F7
  8
0
 66
     1
 10
0.0
 20
0.0
 30
0.0
 70
   128
  0
VERTEX
  5
72B
  8
0
 10
125.7295439096094
 20
69.261263193177115
 30
0.0
  0
VERTEX
  5
72C
  8
0
 10
126.8404122052641
 20
70.072970538014602
 30
0.0
  0
VERTEX
  5
72D
  8
0
 10
127.7917996590884
 20
71.01534374974301
 30
0.0
  0
VERTEX
  5
72E
  8
0
 10
128.0021751841457
 20
71.261263288172017
 30
0.0
  0
SEQEND
  5
72F
  8
0
  0
LINE
  5
4F8
  8
2
 10
74.163692543462275
 20
82.261263288172003
 30
0.0
 11
100.16369254346201
 21
82.261263288172003
 31
0.0
  0
LINE
  5
4F9
  8
2
 10
74.163692044873642
 20
99.261263288171975
 30
0.0
 11
74.163692543462275
 21
82.261263288172003
 31
0.0
  0
LINE
  5
4FA
  8
2
 10
100.16369254346201
 20
82.261263288172003
 30
0.0
 11
100.1636926852748
 21
99.261263288172017
 31
0.0
  0
LINE
  5
4FB
  8
2
 10
78.163692781880854
 20
82.261263228567373
 30
0.0
 11
78.163692781880854
 21
69.261263288172003
 31
0.0
  0
LINE
  5
4FC
  8
2
 10
96.163692007020472
 20
69.261263242642997
 30
0.0
 11
96.163692007020245
 21
82.261263228567373
 31
0.0
  0
LINE
  5
4FD
  8
1
 10
87.163692543462275
 20
64.261263288172003
 30
0.0
 11
87.163692543462034
 21
104.261263288172
 31
0.0
  0
LINE
  5
4FE
  8
1
 10
122.16369254346201
 20
59.26126328817201
 30
0.0
 11
122.1636925434621
 21
117.2612632881721
 31
0.0
  0
POLYLINE
  5
4FF
  8
0
 66
     1
 10
0.0
 20
0.0
 30
0.0
 70
   128
  0
VERTEX
  5
730
  8
0
 10
102.163692990497
 20
214.67547525194109
 30
0.0
  0
VERTEX
  5
731
  8
0
 10
102.15609712357841
 20
215.2894142107908
 30
0.0
  0
VERTEX
  5
732
  8
0
 10
102.1335386281761
 20
215.8846990695094
 30
0.0
  0
VERTEX
  5
733
  8
0
 10
102.09670482035
 20
216.4432422049214
 30
0.0
  0
VERTEX
  5
734
  8
0
 10
102.04671514983499
 20
216.94807259141101
 30
0.0
  0
VERTEX
  5
735
  8
0
 10
101.9850858097824
 20
217.38385122975899
 30
0.0
  0
VERTEX
  5
736
  8
0
 10
101.9136924838575
 20
217.73733750692199
 30
0.0
  0
VERTEX
  5
737
  8
0
 10
101.83470329101399
 20
217.99779024681641
 30
0.0
  0
VERTEX
  5
738
  8
0
 10
101.7505173182043
 20
218.157296467187
 30
0.0
  0
VERTEX
  5
739
  8
0
 10
101.66369197721799
 20
218.211009099694
 30
0.0
  0
SEQEND
  5
73A
  8
0
  0
LINE
  5
500
  8
0
 10
101.6636925434621
 20
218.21100914715271
 30
0.0
 11
100.1289529111251
 21
218.21100908352119
 31
0.0
  0
POLYLINE
  5
501
  8
0
 66
     1
 10
0.0
 20
0.0
 30
0.0
 70
   128
  0
VERTEX
  5
73B
  8
0
 10
131.16369215603191
 20
228.57496973833631
 30
0.0
  0
VERTEX
  5
73C
  8
0
 10
131.11438980157689
 20
229.90540035775501
 30
0.0
  0
VERTEX
  5
73D
  8
0
 10
130.96702104266009
 20
231.2212548475583
 30
0.0
  0
VERTEX
  5
73E
  8
0
 10
130.72320079262579
 20
232.50811354032351
 30
0.0
  0
VERTEX
  5
73F
  8
0
 10
130.3856019472631
 20
233.75188180020641
 30
0.0
  0
VERTEX
  5
740
  8
0
 10
129.95792139153201
 20
234.9389306526501
 30
0.0
  0
VERTEX
  5
741
  8
0
 10
129.44484554062799
 20
236.05625510922269
 30
0.0
  0
VERTEX
  5
742
  8
0
 10
128.85199585761151
 20
237.09161200335811
 30
0.0
  0
VERTEX
  5
743
  8
0
 10
128.18586785177911
 20
238.03365968874289
 30
0.0
  0
VERTEX
  5
744
  8
0
 10
127.4537598324867
 20
238.8720753859599
 30
0.0
  0
VERTEX
  5
745
  8
0
 10
126.663692349747
 20
239.5976743917783
 30
0.0
  0
VERTEX
  5
746
  8
0
 10
125.8243222797217
 20
240.20250507405589
 30
0.0
  0
VERTEX
  5
747
  8
0
 10
124.9448455015125
 20
240.6799438666423
 30
0.0
  0
VERTEX
  5
748
  8
0
 10
124.034897711307
 20
241.02475673666791
 30
0.0
  0
VERTEX
  5
749
  8
0
 10
123.10444871726649
 20
241.23316810241531
 30
0.0
  0
VERTEX
  5
74A
  8
0
 10
122.1636925434621
 20
241.3028924982865
 30
0.0
  0
VERTEX
  5
74B
  8
0
 10
121.2229363696577
 20
241.23316810241531
 30
0.0
  0
VERTEX
  5
74C
  8
0
 10
120.2924873756172
 20
241.02475673666791
 30
0.0
  0
VERTEX
  5
74D
  8
0
 10
119.38253958541181
 20
240.6799438666423
 30
0.0
  0
VERTEX
  5
74E
  8
0
 10
118.5030628072025
 20
240.20250507405589
 30
0.0
  0
VERTEX
  5
74F
  8
0
 10
117.6636927371772
 20
239.5976743917783
 30
0.0
  0
VERTEX
  5
750
  8
0
 10
116.8736252544375
 20
238.8720753859599
 30
0.0
  0
VERTEX
  5
751
  8
0
 10
116.1415172351452
 20
238.03365968874289
 30
0.0
  0
VERTEX
  5
752
  8
0
 10
115.4753892293127
 20
237.09161200335811
 30
0.0
  0
VERTEX
  5
753
  8
0
 10
114.8825395462962
 20
236.05625510922269
 30
0.0
  0
VERTEX
  5
754
  8
0
 10
114.3694636953922
 20
234.9389306526501
 30
0.0
  0
VERTEX
  5
755
  8
0
 10
113.9417831396612
 20
233.75188180020641
 30
0.0
  0
VERTEX
  5
756
  8
0
 10
113.60418429429851
 20
232.50811354032351
 30
0.0
  0
VERTEX
  5
757
  8
0
 10
113.3603640442642
 20
231.2212548475583
 30
0.0
  0
VERTEX
  5
758
  8
0
 10
113.2129952853473
 20
229.90540035775501
 30
0.0
  0
VERTEX
  5
759
  8
0
 10
113.1636929308923
 20
228.57496973833631
 30
0.0
  0
SEQEND
  5
75A
  8
0
  0
LINE
  5
502
  8
0
 10
99.039336890480058
 20
244.26126167884661
 30
0.0
 11
145.28804819644421
 21
244.26126167884661
 31
0.0
  0
ARC
  5
503
  8
0
 10
99.039336890480058
 20
237.26126167884661
 30
0.0
 40
7.0000000000000178
 50
90.0
 51
119.9999999999997
  0
LINE
  5
504
  8
0
 10
75.663692543462162
 20
231.84823089126979
 30
0.0
 11
95.539336890480058
 21
243.32343950533769
 31
0.0
  0
ARC
  5
505
  8
0
 10
79.163692543462162
 20
225.78605306477871
 30
0.0
 40
7.0000000000000151
 50
119.9999999999997
 51
180.0
  0
POLYLINE
  5
506
  8
0
 66
     1
 10
0.0
 20
0.0
 30
0.0
 70
   128
  0
VERTEX
  5
75B
  8
0
 10
72.163691798404102
 20
220.21100896185831
 30
0.0
  0
VERTEX
  5
75C
  8
0
 10
72.2043868696245
 20
220.04474739319281
 30
0.0
  0
VERTEX
  5
75D
  8
0
 10
72.324806878522281
 20
219.8852514173706
 30
0.0
  0
VERTEX
  5
75E
  8
0
 10
72.520056793645253
 20
219.7390114214142
 30
0.0
  0
VERTEX
  5
75F
  8
0
 10
72.782194296077137
 20
219.61197809091399
 30
0.0
  0
VERTEX
  5
760
  8
0
 10
73.100546429112796
 20
219.50932119748191
 30
0.0
  0
VERTEX
  5
761
  8
0
 10
73.462160358384494
 20
219.43521772286491
 30
0.0
  0
SEQEND
  5
762
  8
0
  0
LINE
  5
508
  8
0
 10
72.163691798404102
 20
199.26126201412279
 30
0.0
 11
72.163692543462147
 21
225.78605306477871
 31
0.0
  0
LINE
  5
509
  8
0
 10
77.17670370398298
 20
191.52902863181299
 30
0.0
 11
102.1636925434621
 21
191.52902863181311
 31
0.0
  0
POLYLINE
  5
50A
  8
0
 66
     1
 10
0.0
 20
0.0
 30
0.0
 70
   128
  0
VERTEX
  5
763
  8
0
 10
76.408391872599964
 20
191.34949886015261
 30
0.0
  0
VERTEX
  5
764
  8
0
 10
76.505431959584584
 20
191.41606793514089
 30
0.0
  0
VERTEX
  5
765
  8
0
 10
76.676702181056385
 20
191.4786174218973
 30
0.0
  0
VERTEX
  5
766
  8
0
 10
77.176703194335346
 20
191.529028050216
 30
0.0
  0
SEQEND
  5
767
  8
0
  0
POLYLINE
  5
50B
  8
0
 66
     1
 10
0.0
 20
0.0
 30
0.0
 70
   128
  0
VERTEX
  5
768
  8
0
 10
73.74264119024599
 20
193.86813037803969
 30
0.0
  0
VERTEX
  5
769
  8
0
 10
73.122719356969242
 20
194.9879936199506
 30
0.0
  0
VERTEX
  5
76A
  8
0
 10
72.614187428906803
 20
196.29360914936859
 30
0.0
  0
VERTEX
  5
76B
  8
0
 10
72.282845208600406
 20
197.72215180805529
 30
0.0
  0
VERTEX
  5
76C
  8
0
 10
72.16372160072649
 20
199.23668161741099
 30
0.0
  0
VERTEX
  5
76D
  8
0
 10
72.163691798404102
 20
199.26126201412279
 30
0.0
  0
SEQEND
  5
76E
  8
0
  0
POLYLINE
  5
50C
  8
0
 66
     1
 10
0.0
 20
0.0
 30
0.0
 70
   128
  0
VERTEX
  5
76F
  8
0
 10
76.265482286170354
 20
191.18592136314709
 30
0.0
  0
VERTEX
  5
770
  8
0
 10
76.266339102939014
 20
191.1855898123105
 30
0.0
  0
VERTEX
  5
771
  8
0
 10
76.283985803082814
 20
191.19784788003761
 30
0.0
  0
VERTEX
  5
772
  8
0
 10
76.33363274689043
 20
191.2535297941287
 30
0.0
  0
VERTEX
  5
773
  8
0
 10
76.408391872599964
 20
191.34949886015261
 30
0.0
  0
SEQEND
  5
774
  8
0
  0
POLYLINE
  5
50D
  8
0
 66
     1
 10
0.0
 20
0.0
 30
0.0
 70
   128
  0
VERTEX
  5
775
  8
0
 10
76.265482286170354
 20
191.18592136314709
 30
0.0
  0
VERTEX
  5
776
  8
0
 10
75.316028723672275
 20
191.97363585940201
 30
0.0
  0
VERTEX
  5
777
  8
0
 10
74.470793882563953
 20
192.87226342371309
 30
0.0
  0
VERTEX
  5
778
  8
0
 10
73.74264119024599
 20
193.86813037803969
 30
0.0
  0
SEQEND
  5
779
  8
0
  0
ARC
  5
50E
  8
0
 10
82.163692543462176
 20
199.26126167884669
 30
0.0
 40
10.0
 50
233.85569026478001
 51
270.0
  0
LINE
  5
50F
  8
0
 10
102.1636925434621
 20
189.26126167884669
 30
0.0
 11
82.163692543462176
 21
189.26126167884669
 31
0.0
  0
POLYLINE
  5
510
  8
0
 66
     1
 10
0.0
 20
0.0
 30
0.0
 70
   128
  0
VERTEX
  5
77A
  8
0
 10
126.547780873433
 20
225.1750369813164
 30
0.0
  0
VERTEX
  5
77B
  8
0
 10
126.1636927334519
 20
225.34222149065329
 30
0.0
  0
VERTEX
  5
77C
  8
0
 10
125.2251600922944
 20
225.66949383130861
 30
0.0
  0
VERTEX
  5
77D
  8
0
 10
124.234244980097
 20
225.90734337231709
 30
0.0
  0
VERTEX
  5
77E
  8
0
 10
123.2079021243306
 20
226.05170116535021
 30
0.0
  0
VERTEX
  5
77F
  8
0
 10
122.1636925434621
 20
226.1000964116175
 30
0.0
  0
VERTEX
  5
780
  8
0
 10
121.11948296259359
 20
226.05170116535021
 30
0.0
  0
VERTEX
  5
781
  8
0
 10
120.09314010682721
 20
225.90734337231709
 30
0.0
  0
VERTEX
  5
782
  8
0
 10
119.10222499462979
 20
225.66949383130861
 30
0.0
  0
VERTEX
  5
783
  8
0
 10
118.1636923534723
 20
225.34222149065329
 30
0.0
  0
VERTEX
  5
784
  8
0
 10
117.7796042134913
 20
225.1750369813164
 30
0.0
  0
SEQEND
  5
785
  8
0
  0
LINE
  5
511
  8
0
 10
122.1636925434621
 20
223.27166975251029
 30
0.0
 11
119.8320857325496
 21
222.3197947513182
 31
0.0
  0
LINE
  5
512
  8
0
 10
124.49529935437459
 20
222.3197947513182
 30
0.0
 11
122.1636925434621
 21
223.27166975251029
 31
0.0
  0
LINE
  5
513
  8
0
 10
122.1636925434621
 20
221.5039021592458
 30
0.0
 11
122.1636925434621
 21
223.27166975251029
 31
0.0
  0
LINE
  5
514
  8
0
 10
276.75066175588489
 20
70.261263288172017
 30
0.0
 11
275.88463635210042
 21
69.261263288172003
 31
0.0
  0
LINE
  5
515
  8
0
 10
276.75066175588489
 20
97.261263288172003
 30
0.0
 11
276.75066175588489
 21
70.261263288172017
 31
0.0
  0
LINE
  5
516
  8
0
 10
270.6884839293939
 20
69.261263288172003
 30
0.0
 11
270.68848392939373
 21
99.261263288172017
 31
0.0
  0
LINE
  5
517
  8
0
 10
287.16369254346182
 20
99.261263288172017
 30
0.0
 11
240.16369254346199
 21
99.261263288172046
 31
0.0
  0
POLYLINE
  5
518
  8
0
 66
     1
 10
0.0
 20
0.0
 30
0.0
 70
   128
  0
VERTEX
  5
786
  8
0
 10
275.01861094831611
 20
99.261263288172017
 30
0.0
  0
VERTEX
  5
787
  8
0
 10
275.35651729811298
 20
99.222833848978496
 30
0.0
  0
VERTEX
  5
788
  8
0
 10
275.68143809638718
 20
99.109022353194632
 30
0.0
  0
VERTEX
  5
789
  8
0
 10
275.98088681907888
 20
98.924202512777114
 30
0.0
  0
VERTEX
  5
78A
  8
0
 10
276.24335581970757
 20
98.675476850545124
 30
0.0
  0
VERTEX
  5
78B
  8
0
 10
276.45875856177372
 20
98.372403754211234
 30
0.0
  0
VERTEX
  5
78C
  8
0
 10
276.61881723869851
 20
98.026630152902214
 30
0.0
  0
VERTEX
  5
78D
  8
0
 10
276.7173808852902
 20
97.651443932204316
 30
0.0
  0
VERTEX
  5
78E
  8
0
 10
276.75066175588489
 20
97.261263288172003
 30
0.0
  0
SEQEND
  5
78F
  8
0
  0
LINE
  5
519
  8
0
 10
234.16369254346179
 20
70.261263288172017
 30
0.0
 11
235.16369254346179
 21
69.261263288172003
 31
0.0
  0
ARC
  5
51A
  8
0
 10
234.66369254346179
 20
70.761263288172017
 30
0.0
 40
0.5
 50
90.0
 51
180.0
  0
LINE
  5
51B
  8
0
 10
234.66369254346179
 20
71.261263288172017
 30
0.0
 11
236.28501288702131
 21
71.261263288172017
 31
0.0
  0
LINE
  5
51C
  8
0
 10
289.16369254346182
 20
70.261263288172017
 30
0.0
 11
288.16369254346182
 21
69.261263288172003
 31
0.0
  0
LINE
  5
51D
  8
0
 10
289.16369254346182
 20
97.261263288172003
 30
0.0
 11
289.16369254346182
 21
70.261263288172017
 31
0.0
  0
ARC
  5
51E
  8
0
 10
287.16369254346182
 20
97.261263288172003
 30
0.0
 40
2.0
 50
0.0
 51
90.0
  0
LINE
  5
51F
  8
0
 10
234.16369254346179
 20
70.261263288172074
 30
0.0
 11
234.16369254346179
 21
71.261263288172074
 31
0.0
  0
LINE
  5
520
  8
5
 10
285.00252730829402
 20
99.261263288172017
 30
0.0
 11
285.00252730829402
 21
99.472681055034386
 31
0.0
  0
LINE
  5
521
  8
0
 10
236.28501288702131
 20
71.261263288172017
 30
0.0
 11
264.28501288702068
 21
99.261263288172017
 31
0.0
  0
LINE
  5
522
  8
5
 10
279.34567305880159
 20
105.1295353045267
 30
0.0
 11
285.00252730829402
 21
99.472681055034386
 31
0.0
  0
LINE
  5
523
  8
5
 10
283.79973151278318
 20
99.261263288172017
 30
0.0
 11
278.63856627761493
 21
104.4224285233402
 31
0.0
  0
LINE
  5
524
  8
1
 10
122.1636925434621
 20
157.26126328817199
 30
0.0
 11
122.1636925434621
 21
254.26126167884661
 31
0.0
  0
LINE
  5
525
  8
1
 10
87.163692543462176
 20
199.26125985414089
 30
0.0
 11
87.163692543462176
 21
235.26125985414089
 31
0.0
  0
LINE
  5
526
  8
1
 10
69.163692543462162
 20
217.2612578601871
 30
0.0
 11
105.16369254346191
 21
217.26126184809459
 31
0.0
  0
CIRCLE
  5
527
  8
0
 10
87.163692543462176
 20
217.26125985414089
 30
0.0
 40
13.0
  0
CIRCLE
  5
528
  8
0
 10
87.163692543462176
 20
217.26125985414089
 30
0.0
 40
9.0
  0
LINE
  5
529
  8
0
 10
73.462160358384494
 20
219.43521772286491
 30
0.0
 11
74.346754251302968
 21
219.43521772286491
 31
0.0
  0
LINE
  5
52A
  8
0
 10
170.8652247285396
 20
219.43521772286491
 30
0.0
 11
169.9806308356211
 21
219.43521772286491
 31
0.0
  0
CIRCLE
  5
52B
  8
0
 10
157.1636925434621
 20
217.26125985414089
 30
0.0
 40
9.0
  0
CIRCLE
  5
52C
  8
0
 10
157.1636925434621
 20
217.26125985414089
 30
0.0
 40
13.0
  0
LINE
  5
52D
  8
1
 10
175.16369254346191
 20
217.2612578601871
 30
0.0
 11
139.1636925434621
 21
217.26126184809459
 31
0.0
  0
LINE
  5
52E
  8
1
 10
157.1636925434621
 20
199.26125985414089
 30
0.0
 11
157.1636925434621
 21
235.26125985414089
 31
0.0
  0
LINE
  5
52F
  8
0
 10
142.1636925434621
 20
189.26126167884669
 30
0.0
 11
162.16369254346191
 21
189.26126167884669
 31
0.0
  0
ARC
  5
530
  8
0
 10
162.16369254346191
 20
199.26126167884669
 30
0.0
 40
10.0
 50
270.0
 51
306.14430973522002
  0
POLYLINE
  5
531
  8
0
 66
     1
 10
0.0
 20
0.0
 30
0.0
 70
   128
  0
VERTEX
  5
790
  8
0
 10
168.0619028007537
 20
191.18592136314709
 30
0.0
  0
VERTEX
  5
791
  8
0
 10
169.01135636325179
 20
191.97363585940201
 30
0.0
  0
VERTEX
  5
792
  8
0
 10
169.85659120436009
 20
192.87226342371309
 30
0.0
  0
VERTEX
  5
793
  8
0
 10
170.58474389667811
 20
193.86813037803969
 30
0.0
  0
SEQEND
  5
794
  8
0
  0
POLYLINE
  5
532
  8
0
 66
     1
 10
0.0
 20
0.0
 30
0.0
 70
   128
  0
VERTEX
  5
795
  8
0
 10
168.0619028007537
 20
191.18592136314709
 30
0.0
  0
VERTEX
  5
796
  8
0
 10
168.06104598398511
 20
191.1855898123105
 30
0.0
  0
VERTEX
  5
797
  8
0
 10
168.04339928384121
 20
191.19784788003761
 30
0.0
  0
VERTEX
  5
798
  8
0
 10
167.99375234003361
 20
191.2535297941287
 30
0.0
  0
VERTEX
  5
799
  8
0
 10
167.9189932143241
 20
191.34949886015261
 30
0.0
  0
SEQEND
  5
79A
  8
0
  0
POLYLINE
  5
533
  8
0
 66
     1
 10
0.0
 20
0.0
 30
0.0
 70
   128
  0
VERTEX
  5
79B
  8
0
 10
170.58474389667811
 20
193.86813037803969
 30
0.0
  0
VERTEX
  5
79C
  8
0
 10
171.2046657299548
 20
194.9879936199506
 30
0.0
  0
VERTEX
  5
79D
  8
0
 10
171.71319765801729
 20
196.29360914936859
 30
0.0
  0
VERTEX
  5
79E
  8
0
 10
172.04453987832369
 20
197.72215180805529
 30
0.0
  0
VERTEX
  5
79F
  8
0
 10
172.16366348619761
 20
199.23668161741099
 30
0.0
  0
VERTEX
  5
7A0
  8
0
 10
172.16369328851999
 20
199.26126201412279
 30
0.0
  0
SEQEND
  5
7A1
  8
0
  0
POLYLINE
  5
534
  8
0
 66
     1
 10
0.0
 20
0.0
 30
0.0
 70
   128
  0
VERTEX
  5
7A2
  8
0
 10
167.9189932143241
 20
191.34949886015261
 30
0.0
  0
VERTEX
  5
7A3
  8
0
 10
167.8219531273395
 20
191.41606793514089
 30
0.0
  0
VERTEX
  5
7A4
  8
0
 10
167.65068290586771
 20
191.4786174218973
 30
0.0
  0
VERTEX
  5
7A5
  8
0
 10
167.15068189258869
 20
191.529028050216
 30
0.0
  0
SEQEND
  5
7A6
  8
0
  0
LINE
  5
535
  8
0
 10
167.15068138294109
 20
191.52902863181299
 30
0.0
 11
142.1636925434621
 21
191.52902863181311
 31
0.0
  0
LINE
  5
536
  8
0
 10
172.16369328851999
 20
199.26126201412279
 30
0.0
 11
172.16369254346219
 21
225.78605306477871
 31
0.0
  0
POLYLINE
  5
538
  8
0
 66
     1
 10
0.0
 20
0.0
 30
0.0
 70
   128
  0
VERTEX
  5
7A7
  8
0
 10
172.16369328851999
 20
220.21100896185831
 30
0.0
  0
VERTEX
  5
7A8
  8
0
 10
172.1229982172996
 20
220.04474739319281
 30
0.0
  0
VERTEX
  5
7A9
  8
0
 10
172.00257820840179
 20
219.8852514173706
 30
0.0
  0
VERTEX
  5
7AA
  8
0
 10
171.8073282932788
 20
219.7390114214142
 30
0.0
  0
VERTEX
  5
7AB
  8
0
 10
171.5451907908469
 20
219.61197809091399
 30
0.0
  0
VERTEX
  5
7AC
  8
0
 10
171.2268386578113
 20
219.50932119748191
 30
0.0
  0
VERTEX
  5
7AD
  8
0
 10
170.8652247285396
 20
219.43521772286491
 30
0.0
  0
SEQEND
  5
7AE
  8
0
  0
ARC
  5
539
  8
0
 10
165.1636925434621
 20
225.78605306477871
 30
0.0
 40
7.0000000000000151
 50
0.0
 51
60.000000000000277
  0
LINE
  5
53A
  8
0
 10
168.66369254346191
 20
231.84823089126979
 30
0.0
 11
148.78804819644421
 21
243.32343950533769
 31
0.0
  0
ARC
  5
53B
  8
0
 10
145.28804819644421
 20
237.26126167884661
 30
0.0
 40
7.0000000000000178
 50
60.000000000000277
 51
90.0
  0
LINE
  5
53C
  8
0
 10
142.6636925434621
 20
218.21100914715271
 30
0.0
 11
144.19843217579921
 21
218.21100908352119
 31
0.0
  0
POLYLINE
  5
53D
  8
0
 66
     1
 10
0.0
 20
0.0
 30
0.0
 70
   128
  0
VERTEX
  5
7AF
  8
0
 10
142.1636920964273
 20
214.67547525194109
 30
0.0
  0
VERTEX
  5
7B0
  8
0
 10
142.17128796334589
 20
215.2894142107908
 30
0.0
  0
VERTEX
  5
7B1
  8
0
 10
142.1938464587482
 20
215.8846990695094
 30
0.0
  0
VERTEX
  5
7B2
  8
0
 10
142.23068026657421
 20
216.4432422049214
 30
0.0
  0
VERTEX
  5
7B3
  8
0
 10
142.2806699370893
 20
216.94807259141101
 30
0.0
  0
VERTEX
  5
7B4
  8
0
 10
142.3422992771419
 20
217.38385122975899
 30
0.0
  0
VERTEX
  5
7B5
  8
0
 10
142.41369260306681
 20
217.73733750692199
 30
0.0
  0
VERTEX
  5
7B6
  8
0
 10
142.49268179591019
 20
217.99779024681641
 30
0.0
  0
VERTEX
  5
7B7
  8
0
 10
142.57686776872001
 20
218.157296467187
 30
0.0
  0
VERTEX
  5
7B8
  8
0
 10
142.6636931097062
 20
218.211009099694
 30
0.0
  0
SEQEND
  5
7B9
  8
0
  0
LINE
  5
53E
  8
0
 10
170.16369254346199
 20
99.261263288172017
 30
0.0
 11
142.16369254346199
 21
99.261263288172017
 31
0.0
  0
ARC
  5
53F
  8
0
 10
74.163692543462034
 20
97.261263288172003
 30
0.0
 40
2.0
 50
90.0
 51
179.999997962328
  0
POLYLINE
  5
540
  8
0
 66
     1
 10
0.0
 20
0.0
 30
0.0
 70
   128
  0
VERTEX
  5
7BA
  8
0
 10
102.0689253305943
 20
71.261263288172074
 30
0.0
  0
VERTEX
  5
7BB
  8
0
 10
102.1177173202784
 20
71.51126330004638
 30
0.0
  0
VERTEX
  5
7BC
  8
0
 10
102.1636929904969
 20
71.761263311920743
 30
0.0
  0
SEQEND
  5
7BD
  8
0
  0
LINE
  5
541
  8
0
 10
72.163692543462034
 20
97.261263359300074
 30
0.0
 11
72.163692543462034
 21
70.261263288172017
 31
0.0
  0
LINE
  5
542
  8
0
 10
172.16369254346199
 20
97.261263359300074
 30
0.0
 11
172.16369254346199
 21
70.261263288172017
 31
0.0
  0
ARC
  5
543
  8
0
 10
170.16369254346199
 20
97.261263288172003
 30
0.0
 40
2.0
 50
0.0000020376719733
 51
90.0
  0
LINE
  5
544
  8
1
 10
157.16369254346199
 20
64.261263288172003
 30
0.0
 11
157.16369254346199
 21
104.2612632881719
 31
0.0
  0
LINE
  5
545
  8
2
 10
148.16369307990379
 20
69.261263242642997
 30
0.0
 11
148.16369307990379
 21
82.261263228567373
 31
0.0
  0
LINE
  5
546
  8
2
 10
166.16369230504341
 20
82.261263228567373
 30
0.0
 11
166.16369230504341
 21
69.261263288172003
 31
0.0
  0
LINE
  5
547
  8
2
 10
144.16369254346199
 20
82.261263288172003
 30
0.0
 11
144.16369240164951
 21
99.261263288172017
 31
0.0
  0
LINE
  5
548
  8
2
 10
170.16369304205071
 20
99.261263288171975
 30
0.0
 11
170.16369254346199
 21
82.261263288172003
 31
0.0
  0
LINE
  5
549
  8
2
 10
170.16369254346199
 20
82.261263288172003
 30
0.0
 11
144.16369254346199
 21
82.261263288172003
 31
0.0
  0
LINE
  5
54A
  8
0
 10
172.16369254346199
 20
70.261263288172017
 30
0.0
 11
171.16369254346199
 21
69.261263288172003
 31
0.0
  0
LINE
  5
54B
  8
0
 10
162.16369254346199
 20
70.761263288172017
 30
0.0
 11
162.16369254346199
 21
69.261263288172003
 31
0.0
  0
POLYLINE
  5
54C
  8
0
 66
     1
 10
0.0
 20
0.0
 30
0.0
 70
   128
  0
VERTEX
  5
7BE
  8
0
 10
168.06190280075381
 20
70.761263264423292
 30
0.0
  0
VERTEX
  5
7BF
  8
0
 10
169.01135636325191
 20
71.509591372298132
 30
0.0
  0
VERTEX
  5
7C0
  8
0
 10
169.8565912043602
 20
72.363288210319411
 30
0.0
  0
VERTEX
  5
7C1
  8
0
 10
170.58474389667819
 20
73.309360839041005
 30
0.0
  0
SEQEND
  5
7C2
  8
0
  0
POLYLINE
  5
54D
  8
0
 66
     1
 10
0.0
 20
0.0
 30
0.0
 70
   128
  0
VERTEX
  5
7C3
  8
0
 10
170.58474389667819
 20
73.309360839041005
 30
0.0
  0
VERTEX
  5
7C4
  8
0
 10
171.20466572995491
 20
74.202895233022105
 30
0.0
  0
VERTEX
  5
7C5
  8
0
 10
171.71319765801741
 20
74.97599355279101
 30
0.0
  0
VERTEX
  5
7C6
  8
0
 10
172.0445398783238
 20
75.657782446207534
 30
0.0
  0
VERTEX
  5
7C7
  8
0
 10
172.16366348619769
 20
76.301286764057409
 30
0.0
  0
VERTEX
  5
7C8
  8
0
 10
172.16369328852011
 20
76.311515945555698
 30
0.0
  0
SEQEND
  5
7C9
  8
0
  0
LINE
  5
54E
  8
0
 10
142.66369308595401
 20
70.761263288172017
 30
0.0
 11
168.06190295045619
 21
70.761263288172017
 31
0.0
  0
POLYLINE
  5
54F
  8
0
 66
     1
 10
0.0
 20
0.0
 30
0.0
 70
   128
  0
VERTEX
  5
7CA
  8
0
 10
142.25845975632981
 20
71.261263288172074
 30
0.0
  0
VERTEX
  5
7CB
  8
0
 10
142.20966776664559
 20
71.51126330004638
 30
0.0
  0
VERTEX
  5
7CC
  8
0
 10
142.16369209642721
 20
71.761263311920743
 30
0.0
  0
SEQEND
  5
7CD
  8
0
  0
POLYLINE
  5
550
  8
0
 66
     1
 10
0.0
 20
0.0
 30
0.0
 70
   128
  0
VERTEX
  5
7CE
  8
0
 10
142.25845975632981
 20
71.261263288172017
 30
0.0
  0
VERTEX
  5
7CF
  8
0
 10
142.51358626241989
 20
70.914872146524544
 30
0.0
  0
VERTEX
  5
7D0
  8
0
 10
142.66053033824269
 20
70.764425570225399
 30
0.0
  0
VERTEX
  5
7D1
  8
0
 10
142.66369310970609
 20
70.761263264423292
 30
0.0
  0
SEQEND
  5
7D2
  8
0
  0
LINE
  5
551
  8
0
 10
142.66369254346199
 20
98.089690412918245
 30
0.0
 11
143.80835560913391
 21
98.089690155895482
 31
0.0
  0
POLYLINE
  5
552
  8
0
 66
     1
 10
0.0
 20
0.0
 30
0.0
 70
   128
  0
VERTEX
  5
7D3
  8
0
 10
142.16369209642721
 20
95.261263496788274
 30
0.0
  0
VERTEX
  5
7D4
  8
0
 10
142.17128796334569
 20
95.752415082963239
 30
0.0
  0
VERTEX
  5
7D5
  8
0
 10
142.19384645874811
 20
96.228643156202565
 30
0.0
  0
VERTEX
  5
7D6
  8
0
 10
142.2306802665741
 20
96.675476826341878
 30
0.0
  0
VERTEX
  5
7D7
  8
0
 10
142.28066993708919
 20
97.079341135533582
 30
0.0
  0
VERTEX
  5
7D8
  8
0
 10
142.34229927714179
 20
97.427964977534543
 30
0.0
  0
VERTEX
  5
7D9
  8
0
 10
142.41369260306669
 20
97.710753626735936
 30
0.0
  0
VERTEX
  5
7DA
  8
0
 10
142.4926817959101
 20
97.919114701064359
 30
0.0
  0
VERTEX
  5
7DB
  8
0
 10
142.57686776871989
 20
98.046720794947873
 30
0.0
  0
VERTEX
  5
7DC
  8
0
 10
142.66369310970609
 20
98.089690155895482
 30
0.0
  0
SEQEND
  5
7DD
  8
0
  0
LINE
  5
553
  8
0
 10
235.16369254346179
 20
69.261263288172003
 30
0.0
 11
288.16369254346182
 21
69.261263288172003
 31
0.0
  0
LINE
  5
554
  8
1
 10
262.16369254346182
 20
123.261263288172
 30
0.0
 11
262.16369254346182
 21
59.26126328817201
 31
0.0
  0
POLYLINE
  5
555
  8
0
 66
     1
 10
0.0
 20
0.0
 30
0.0
 70
   128
  0
VERTEX
  5
7DE
  8
0
 10
73.807823431085808
 20
99.229347934435054
 30
0.0
  0
VERTEX
  5
7DF
  8
0
 10
73.804548362448941
 20
95.607646576674711
 30
0.0
  0
VERTEX
  5
7E0
  8
0
 10
74.278189221575985
 20
93.137890867503415
 30
0.0
  0
VERTEX
  5
7E1
  8
0
 10
75.191058570698033
 20
90.799999259026777
 30
0.0
  0
VERTEX
  5
7E2
  8
0
 10
76.512946168139706
 20
88.691209278615247
 30
0.0
  0
VERTEX
  5
7E3
  8
0
 10
77.608295137241612
 20
87.429064161690007
 30
0.0
  0
VERTEX
  5
7E4
  8
0
 10
78.843605125501881
 20
86.32192464879347
 30
0.0
  0
VERTEX
  5
7E5
  8
0
 10
80.218877995565663
 20
85.369788877280484
 30
0.0
  0
VERTEX
  5
7E6
  8
0
 10
81.32240956480814
 20
84.769409916909467
 30
0.0
  0
VERTEX
  5
7E7
  8
0
 10
82.467204312041531
 20
84.27896613589121
 30
0.0
  0
VERTEX
  5
7E8
  8
0
 10
83.653262237265835
 20
83.898456602903138
 30
0.0
  0
VERTEX
  5
7E9
  8
0
 10
84.8805889284165
 20
83.627883180590402
 30
0.0
  0
VERTEX
  5
7EA
  8
0
 10
86.127044985249753
 20
83.471098750444185
 30
0.0
  0
VERTEX
  5
7EB
  8
0
 10
87.163692543462034
 20
83.438310874098647
 30
0.0
  0
SEQEND
  5
7EC
  8
0
  0
POLYLINE
  5
556
  8
0
 66
     1
 10
0.0
 20
0.0
 30
0.0
 70
   128
  0
VERTEX
  5
7ED
  8
0
 10
143.80785229182419
 20
99.261263288171904
 30
0.0
  0
VERTEX
  5
7EE
  8
0
 10
143.8045483624494
 20
95.607646576674597
 30
0.0
  0
VERTEX
  5
7EF
  8
0
 10
144.27818922157641
 20
93.137890867503316
 30
0.0
  0
VERTEX
  5
7F0
  8
0
 10
145.19105857069849
 20
90.799999259026663
 30
0.0
  0
VERTEX
  5
7F1
  8
0
 10
146.51294616813991
 20
88.691209278615133
 30
0.0
  0
VERTEX
  5
7F2
  8
0
 10
147.60829513724181
 20
87.429064161689894
 30
0.0
  0
VERTEX
  5
7F3
  8
0
 10
148.84360512550211
 20
86.321924648793356
 30
0.0
  0
VERTEX
  5
7F4
  8
0
 10
150.21887799556589
 20
85.369788877280385
 30
0.0
  0
VERTEX
  5
7F5
  8
0
 10
151.3224095648084
 20
84.769409916909353
 30
0.0
  0
VERTEX
  5
7F6
  8
0
 10
152.4672043120417
 20
84.278966135891096
 30
0.0
  0
VERTEX
  5
7F7
  8
0
 10
153.65326223726609
 20
83.898456602903025
 30
0.0
  0
VERTEX
  5
7F8
  8
0
 10
154.8805889284167
 20
83.627883180590217
 30
0.0
  0
VERTEX
  5
7F9
  8
0
 10
156.12704498525
 20
83.471098750444014
 30
0.0
  0
VERTEX
  5
7FA
  8
0
 10
157.16369254346219
 20
83.438310874098534
 30
0.0
  0
SEQEND
  5
7FB
  8
0
  0
POLYLINE
  5
557
  8
0
 66
     1
 10
0.0
 20
0.0
 30
0.0
 70
   128
  0
VERTEX
  5
7FC
  8
0
 10
170.51956165583869
 20
99.229347934434884
 30
0.0
  0
VERTEX
  5
7FD
  8
0
 10
170.52283672447561
 20
95.607646576674483
 30
0.0
  0
VERTEX
  5
7FE
  8
0
 10
170.04919586534851
 20
93.137890867503174
 30
0.0
  0
VERTEX
  5
7FF
  8
0
 10
169.13632651622649
 20
90.799999259026535
 30
0.0
  0
VERTEX
  5
800
  8
0
 10
167.81443891878459
 20
88.691209278615005
 30
0.0
  0
VERTEX
  5
801
  8
0
 10
166.71908994968271
 20
87.42906416168978
 30
0.0
  0
VERTEX
  5
802
  8
0
 10
165.48377996142241
 20
86.321924648793285
 30
0.0
  0
VERTEX
  5
803
  8
0
 10
164.1085070913586
 20
85.369788877280314
 30
0.0
  0
VERTEX
  5
804
  8
0
 10
163.00497552211621
 20
84.769409916909296
 30
0.0
  0
VERTEX
  5
805
  8
0
 10
161.86018077488279
 20
84.278966135891025
 30
0.0
  0
VERTEX
  5
806
  8
0
 10
160.67412284965869
 20
83.898456602902954
 30
0.0
  0
VERTEX
  5
807
  8
0
 10
159.44679615850799
 20
83.627883180590217
 30
0.0
  0
VERTEX
  5
808
  8
0
 10
158.20034010167481
 20
83.471098750444014
 30
0.0
  0
VERTEX
  5
809
  8
0
 10
157.1636925434625
 20
83.438310874098534
 30
0.0
  0
SEQEND
  5
80A
  8
0
  0
TEXT
  5
616
  8
0
 62
     3
 10
0.0
 20
0.0
 30
0.0
 40
10.0
  1
CP105-16030
  7
STANDARD1
  0
ENDSEC
  0
EOF
