  0
SECTION
  2
HEADER
  9
$ACADVER
  1
AC1009
  9
$INSBASE
 10
52.341704733837332
 20
279.76240635115028
 30
0.0
  9
$EXTMIN
 10
0.0
 20
-2.960436562073669
 30
0.0
  9
$EXTMAX
 10
288.02057720699361
 20
241.98073053422661
 30
0.0
  9
$LIMMIN
 10
0.0
 20
0.0
  9
$LIMMAX
 10
375.0
 20
270.0
  9
$ORTHOMODE
 70
     1
  9
$REGENMODE
 70
     1
  9
$FILLMODE
 70
     1
  9
$QTEXTMODE
 70
     0
  9
$MIRRTEXT
 70
     0
  9
$DRAGMODE
 70
     2
  9
$LTSCALE
 40
5.0
  9
$OSMODE
 70
  3071
  9
$ATTMODE
 70
     1
  9
$TEXTSIZE
 40
0.2
  9
$TRACEWID
 40
0.05
  9
$TEXTSTYLE
  7
STANDARD
  9
$CLAYER
  8
0
  9
$CELTYPE
  6
BYLAYER
  9
$CECOLOR
 62
   256
  9
$DIMSCALE
 40
1.0
  9
$DIMASZ
 40
3.0
  9
$DIMEXO
 40
2.0
  9
$DIMDLI
 40
0.38
  9
$DIMRND
 40
0.0
  9
$DIMDLE
 40
0.0
  9
$DIMEXE
 40
2.0
  9
$DIMTP
 40
0.0
  9
$DIMTM
 40
0.0
  9
$DIMTXT
 40
3.2000000000000002
  9
$DIMCEN
 40
0.0
  9
$DIMTSZ
 40
0.0
  9
$DIMTOL
 70
     0
  9
$DIMLIM
 70
     0
  9
$DIMTIH
 70
     0
  9
$DIMTOH
 70
     0
  9
$DIMSE1
 70
     0
  9
$DIMSE2
 70
     0
  9
$DIMTAD
 70
     1
  9
$DIMZIN
 70
     0
  9
$DIMBLK
  1

  9
$DIMASO
 70
     0
  9
$DIMSHO
 70
     0
  9
$DIMPOST
  1

  9
$DIMAPOST
  1

  9
$DIMALT
 70
     0
  9
$DIMALTD
 70
     2
  9
$DIMALTF
 40
25.399999999999999
  9
$DIMLFAC
 40
1.0
  9
$DIMTOFL
 70
     1
  9
$DIMTVP
 40
1.6000000000000001
  9
$DIMTIX
 70
     1
  9
$DIMSOXD
 70
     0
  9
$DIMSAH
 70
     0
  9
$DIMBLK1
  1

  9
$DIMBLK2
  1

  9
$DIMSTYLE
  2
STANDARD
  9
$DIMCLRD
 70
     0
  9
$DIMCLRE
 70
     0
  9
$DIMCLRT
 70
     0
  9
$DIMTFAC
 40
1.0
  9
$DIMGAP
 40
0.09
  9
$LUNITS
 70
     2
  9
$LUPREC
 70
     4
  9
$SKETCHINC
 40
0.1
  9
$FILLETRAD
 40
2.0
  9
$AUNITS
 70
     0
  9
$AUPREC
 70
     4
  9
$MENU
  1
E:\r13\win\SUPPORT\ACAD
  9
$ELEVATION
 40
0.0
  9
$PELEVATION
 40
0.0
  9
$THICKNESS
 40
0.0
  9
$LIMCHECK
 70
     0
  9
$BLIPMODE
 70
     0
  9
$CHAMFERA
 40
0.0
  9
$CHAMFERB
 40
0.0
  9
$SKPOLY
 70
     0
  9
$TDCREATE
 40
2449840.6513888892
  9
$TDUPDATE
 40
2456598.4962480902
  9
$TDINDWG
 40
0.5927995718
  9
$TDUSRTIMER
 40
0.5927995718
  9
$USRTIMER
 70
     1
  9
$ANGBASE
 50
0.0
  9
$ANGDIR
 70
     0
  9
$PDMODE
 70
     0
  9
$PDSIZE
 40
0.0
  9
$PLINEWID
 40
0.0
  9
$COORDS
 70
     1
  9
$SPLFRAME
 70
     0
  9
$SPLINETYPE
 70
     6
  9
$SPLINESEGS
 70
     8
  9
$ATTDIA
 70
     0
  9
$ATTREQ
 70
     1
  9
$HANDLING
 70
     1
  9
$HANDSEED
  5
66B
  9
$SURFTAB1
 70
     6
  9
$SURFTAB2
 70
     6
  9
$SURFTYPE
 70
     6
  9
$SURFU
 70
     6
  9
$SURFV
 70
     6
  9
$UCSNAME
  2

  9
$UCSORG
 10
0.0
 20
0.0
 30
0.0
  9
$UCSXDIR
 10
1.0
 20
0.0
 30
0.0
  9
$UCSYDIR
 10
0.0
 20
1.0
 30
0.0
  9
$PUCSNAME
  2

  9
$PUCSORG
 10
0.0
 20
0.0
 30
0.0
  9
$PUCSXDIR
 10
1.0
 20
0.0
 30
0.0
  9
$PUCSYDIR
 10
0.0
 20
1.0
 30
0.0
  9
$USERI1
 70
     0
  9
$USERI2
 70
     1
  9
$USERI3
 70
     0
  9
$USERI4
 70
     0
  9
$USERI5
 70
     0
  9
$USERR1
 40
0.0
  9
$USERR2
 40
0.0
  9
$USERR3
 40
0.0
  9
$USERR4
 40
0.0
  9
$USERR5
 40
0.0
  9
$WORLDVIEW
 70
     1
  9
$SHADEDGE
 70
     3
  9
$SHADEDIF
 70
    70
  9
$TILEMODE
 70
     1
  9
$MAXACTVP
 70
    16
  9
$PLIMCHECK
 70
     0
  9
$PEXTMIN
 10
1.0000000000000000E+020
 20
1.0000000000000000E+020
 30
1.0000000000000000E+020
  9
$PEXTMAX
 10
-1.0000000000000000E+020
 20
-1.0000000000000000E+020
 30
-1.0000000000000000E+020
  9
$PLIMMIN
 10
0.0
 20
0.0
  9
$PLIMMAX
 10
12.0
 20
9.0
  9
$UNITMODE
 70
     0
  9
$VISRETAIN
 70
     0
  9
$PLINEGEN
 70
     0
  9
$PSLTSCALE
 70
     0
  0
ENDSEC
  0
SECTION
  2
TABLES
  0
TABLE
  2
VPORT
 70
     1
  0
VPORT
  2
*ACTIVE
 70
     0
 10
0.0
 20
0.0
 11
1.0
 21
1.0
 12
195.0581083320873
 22
133.5127261426681
 13
0.0
 23
0.0
 14
5.0
 24
5.0
 15
10.0
 25
10.0
 16
0.0
 26
0.0
 36
1.0
 17
0.0
 27
0.0
 37
0.0
 40
275.42274993631997
 41
1.831871345029239
 42
50.0
 43
0.0
 44
0.0
 50
0.0
 51
0.0
 71
     0
 72
   500
 73
     1
 74
     0
 75
     0
 76
     0
 77
     0
 78
     2
  0
ENDTAB
  0
TABLE
  2
LTYPE
 70
     4
  0
LTYPE
  2
CONTINUOUS
 70
     0
  3
Solid Line
 72
    65
 73
     0
 40
0.0
  0
LTYPE
  2
CENTER
 70
     0
  3
____ _ ____ _ ____ _ ____ _ ____ _ ____ _ ____
 72
    65
 73
     4
 40
2.0
 49
1.25
 49
-0.25
 49
0.25
 49
-0.25
  0
LTYPE
  2
HIDDEN
 70
     0
  3
_ _ _ _ _ _ _ _ _ _ _ _ _ _ _ _ _ _ _ _ _ _ _
 72
    65
 73
     2
 40
0.375
 49
0.25
 49
-0.125
  0
LTYPE
  2
PHANTOM2
 70
     0
  3
Phantom (.5x) ___ _ _ ___ _ _ ___ _ _ ___ _ _
 72
    65
 73
     6
 40
1.25
 49
0.625
 49
-0.125
 49
0.125
 49
-0.125
 49
0.125
 49
-0.125
  0
ENDTAB
  0
TABLE
  2
LAYER
 70
     5
  0
LAYER
  2
0
 70
     0
 62
     7
  6
CONTINUOUS
  0
LAYER
  2
1
 70
     0
 62
     1
  6
CENTER
  0
LAYER
  2
2
 70
     0
 62
     2
  6
HIDDEN
  0
LAYER
  2
5
 70
     0
 62
     3
  6
PHANTOM2
  0
LAYER
  2
3
 70
     0
 62
     3
  6
CONTINUOUS
  0
ENDTAB
  0
TABLE
  2
STYLE
 70
     2
  0
STYLE
  2
STANDARD
 70
     0
 40
0.0
 41
1.0
 50
0.0
 71
     0
 42
0.2
  3
TXT
  4
BIGFONT
  0
STYLE
  2
STANDARD1
 70
     0
 40
0.0
 41
1.0
 50
0.0
 71
     0
 42
3.0
  3
txt
  4

  0
ENDTAB
  0
TABLE
  2
VIEW
 70
     1
  0
VIEW
  2
ALL
 70
     0
 40
270.0
 10
220.99159663865549
 20
135.0
 41
0.0
 11
0.0
 21
0.0
 31
1.0
 12
0.0
 22
0.0
 32
0.0
 42
0.0
 43
0.0
 44
0.0
 50
0.0
 71
     0
  0
ENDTAB
  0
TABLE
  2
UCS
 70
     0
  0
ENDTAB
  0
TABLE
  2
APPID
 70
     3
  0
APPID
  2
ACAD
 70
     0
  0
APPID
  2
ACAD_MLEADERVER
 70
     0
  0
APPID
  2
ACAD_NAV_VCDISPLAY
 70
     0
  0
ENDTAB
  0
TABLE
  2
DIMSTYLE
 70
     1
  0
DIMSTYLE
  2
STANDARD
 70
     0
  3

  4

  5

  6

  7

 40
1.0
 41
0.18
 42
0.0625
 43
0.38
 44
0.18
 45
0.0
 46
0.0
 47
0.0
 48
0.0
140
0.18
141
0.09
142
0.0
143
25.399999999999999
144
1.0
145
0.0
146
1.0
147
0.09
 71
     0
 72
     0
 73
     1
 74
     1
 75
     0
 76
     0
 77
     0
 78
     0
170
     0
171
     2
172
     0
173
     0
174
     0
175
     0
176
     0
177
     0
178
     0
  0
ENDTAB
  0
ENDSEC
  0
SECTION
  2
BLOCKS
  0
BLOCK
  8
0
  2
$MODEL_SPACE
 70
     0
 10
0.0
 20
0.0
 30
0.0
  3
$MODEL_SPACE
  1

  0
ENDBLK
  5
9
  8
0
  0
BLOCK
 67
     1
  8
0
  2
$PAPER_SPACE
 70
     0
 10
0.0
 20
0.0
 30
0.0
  3
$PAPER_SPACE
  1

  0
ENDBLK
  5
F
 67
     1
  8
0
  0
ENDSEC
  0
SECTION
  2
ENTITIES
  0
POLYLINE
  5
2F9
  8
0
 66
     1
 10
0.0
 20
0.0
 30
0.0
 70
   128
  0
VERTEX
  5
51E
  8
0
 10
169.37644631937059
 20
94.948816789814984
 30
0.0
  0
VERTEX
  5
51F
  8
0
 10
169.3797213880074
 20
91.327115432054583
 30
0.0
  0
VERTEX
  5
520
  8
0
 10
168.90608052888041
 20
88.857359722883302
 30
0.0
  0
VERTEX
  5
521
  8
0
 10
167.9932111797583
 20
86.519468114406664
 30
0.0
  0
VERTEX
  5
522
  8
0
 10
166.67132358231649
 20
84.410678133995134
 30
0.0
  0
VERTEX
  5
523
  8
0
 10
165.57597461321461
 20
83.148533017069894
 30
0.0
  0
VERTEX
  5
524
  8
0
 10
164.3406646249544
 20
82.041393504173399
 30
0.0
  0
VERTEX
  5
525
  8
0
 10
162.96539175489059
 20
81.089257732660414
 30
0.0
  0
VERTEX
  5
526
  8
0
 10
161.86186018564811
 20
80.488878772289397
 30
0.0
  0
VERTEX
  5
527
  8
0
 10
160.71706543841469
 20
79.998434991271154
 30
0.0
  0
VERTEX
  5
528
  8
0
 10
159.5310075131905
 20
79.617925458283082
 30
0.0
  0
VERTEX
  5
529
  8
0
 10
158.30368082203989
 20
79.347352035970346
 30
0.0
  0
VERTEX
  5
52A
  8
0
 10
157.0572247652066
 20
79.190567605824128
 30
0.0
  0
VERTEX
  5
52B
  8
0
 10
156.02057720699429
 20
79.157779729478634
 30
0.0
  0
SEQEND
  5
52C
  8
0
  0
POLYLINE
  5
2FA
  8
0
 66
     1
 10
0.0
 20
0.0
 30
0.0
 70
   128
  0
VERTEX
  5
52D
  8
0
 10
142.66473695535609
 20
94.980732143552004
 30
0.0
  0
VERTEX
  5
52E
  8
0
 10
142.66143302598121
 20
91.327115432054725
 30
0.0
  0
VERTEX
  5
52F
  8
0
 10
143.13507388510831
 20
88.857359722883416
 30
0.0
  0
VERTEX
  5
530
  8
0
 10
144.0479432342303
 20
86.519468114406777
 30
0.0
  0
VERTEX
  5
531
  8
0
 10
145.36983083167189
 20
84.410678133995248
 30
0.0
  0
VERTEX
  5
532
  8
0
 10
146.4651798007738
 20
83.148533017070008
 30
0.0
  0
VERTEX
  5
533
  8
0
 10
147.70048978903401
 20
82.041393504173485
 30
0.0
  0
VERTEX
  5
534
  8
0
 10
149.07576265909779
 20
81.089257732660485
 30
0.0
  0
VERTEX
  5
535
  8
0
 10
150.1792942283403
 20
80.488878772289468
 30
0.0
  0
VERTEX
  5
536
  8
0
 10
151.32408897557369
 20
79.99843499127121
 30
0.0
  0
VERTEX
  5
537
  8
0
 10
152.51014690079791
 20
79.617925458283139
 30
0.0
  0
VERTEX
  5
538
  8
0
 10
153.7374735919486
 20
79.347352035970346
 30
0.0
  0
VERTEX
  5
539
  8
0
 10
154.98392964878181
 20
79.190567605824128
 30
0.0
  0
VERTEX
  5
53A
  8
0
 10
156.02057720699409
 20
79.157779729478634
 30
0.0
  0
SEQEND
  5
53B
  8
0
  0
POLYLINE
  5
2FB
  8
0
 66
     1
 10
0.0
 20
0.0
 30
0.0
 70
   128
  0
VERTEX
  5
53C
  8
0
 10
72.664708094617765
 20
94.948816789815169
 30
0.0
  0
VERTEX
  5
53D
  8
0
 10
72.661433025980898
 20
91.327115432054825
 30
0.0
  0
VERTEX
  5
53E
  8
0
 10
73.135073885107943
 20
88.85735972288353
 30
0.0
  0
VERTEX
  5
53F
  8
0
 10
74.04794323422999
 20
86.519468114406891
 30
0.0
  0
VERTEX
  5
540
  8
0
 10
75.369830831671663
 20
84.410678133995361
 30
0.0
  0
VERTEX
  5
541
  8
0
 10
76.465179800773569
 20
83.148533017070122
 30
0.0
  0
VERTEX
  5
542
  8
0
 10
77.700489789033838
 20
82.041393504173584
 30
0.0
  0
VERTEX
  5
543
  8
0
 10
79.07576265909762
 20
81.089257732660599
 30
0.0
  0
VERTEX
  5
544
  8
0
 10
80.179294228340098
 20
80.488878772289581
 30
0.0
  0
VERTEX
  5
545
  8
0
 10
81.324088975573488
 20
79.998434991271324
 30
0.0
  0
VERTEX
  5
546
  8
0
 10
82.510146900797679
 20
79.617925458283253
 30
0.0
  0
VERTEX
  5
547
  8
0
 10
83.737473591948344
 20
79.347352035970516
 30
0.0
  0
VERTEX
  5
548
  8
0
 10
84.983929648781626
 20
79.190567605824299
 30
0.0
  0
VERTEX
  5
549
  8
0
 10
86.020577206993906
 20
79.157779729478762
 30
0.0
  0
SEQEND
  5
54A
  8
0
  0
LINE
  5
2FC
  8
1
 10
261.02057720699361
 20
115.7645419976878
 30
0.0
 11
261.02057720699361
 21
51.764541997687843
 31
0.0
  0
LINE
  5
2FD
  8
0
 10
234.02057720699361
 20
61.764541997687843
 30
0.0
 11
287.02057720699372
 21
61.764541997687843
 31
0.0
  0
POLYLINE
  5
2FE
  8
0
 66
     1
 10
0.0
 20
0.0
 30
0.0
 70
   128
  0
VERTEX
  5
54B
  8
0
 10
141.0205767599592
 20
90.980732352168388
 30
0.0
  0
VERTEX
  5
54C
  8
0
 10
141.0281726268777
 20
91.471883938343353
 30
0.0
  0
VERTEX
  5
54D
  8
0
 10
141.0507311222801
 20
91.94811201158268
 30
0.0
  0
VERTEX
  5
54E
  8
0
 10
141.08756493010611
 20
92.394945681721993
 30
0.0
  0
VERTEX
  5
54F
  8
0
 10
141.1375546006212
 20
92.798809990913696
 30
0.0
  0
VERTEX
  5
550
  8
0
 10
141.19918394067381
 20
93.147433832914658
 30
0.0
  0
VERTEX
  5
551
  8
0
 10
141.27057726659859
 20
93.430222482116051
 30
0.0
  0
VERTEX
  5
552
  8
0
 10
141.34956645944209
 20
93.638583556444473
 30
0.0
  0
VERTEX
  5
553
  8
0
 10
141.43375243225191
 20
93.766189650327988
 30
0.0
  0
VERTEX
  5
554
  8
0
 10
141.5205777732381
 20
93.809159011275597
 30
0.0
  0
SEQEND
  5
555
  8
0
  0
LINE
  5
2FF
  8
0
 10
141.52057720699401
 20
93.809159268298345
 30
0.0
 11
142.6652402726659
 21
93.809159011275597
 31
0.0
  0
POLYLINE
  5
300
  8
0
 66
     1
 10
0.0
 20
0.0
 30
0.0
 70
   128
  0
VERTEX
  5
556
  8
0
 10
141.11534441986171
 20
66.980732143552132
 30
0.0
  0
VERTEX
  5
557
  8
0
 10
141.37047092595191
 20
66.634341001904659
 30
0.0
  0
VERTEX
  5
558
  8
0
 10
141.51741500177471
 20
66.483894425605513
 30
0.0
  0
VERTEX
  5
559
  8
0
 10
141.5205777732381
 20
66.480732119803406
 30
0.0
  0
SEQEND
  5
55A
  8
0
  0
POLYLINE
  5
301
  8
0
 66
     1
 10
0.0
 20
0.0
 30
0.0
 70
   128
  0
VERTEX
  5
55B
  8
0
 10
141.11534441986171
 20
66.980732143552174
 30
0.0
  0
VERTEX
  5
55C
  8
0
 10
141.06655243017761
 20
67.230732155426495
 30
0.0
  0
VERTEX
  5
55D
  8
0
 10
141.0205767599592
 20
67.480732167300857
 30
0.0
  0
SEQEND
  5
55E
  8
0
  0
LINE
  5
302
  8
0
 10
141.5205777494858
 20
66.480732143552132
 30
0.0
 11
166.91878761398809
 21
66.480732143552132
 31
0.0
  0
POLYLINE
  5
303
  8
0
 66
     1
 10
0.0
 20
0.0
 30
0.0
 70
   128
  0
VERTEX
  5
55F
  8
0
 10
169.44162856021001
 20
69.02882969442112
 30
0.0
  0
VERTEX
  5
560
  8
0
 10
170.06155039348681
 20
69.922364088402219
 30
0.0
  0
VERTEX
  5
561
  8
0
 10
170.57008232154919
 20
70.695462408171124
 30
0.0
  0
VERTEX
  5
562
  8
0
 10
170.90142454185559
 20
71.377251301587648
 30
0.0
  0
VERTEX
  5
563
  8
0
 10
171.02054814972951
 20
72.020755619437523
 30
0.0
  0
VERTEX
  5
564
  8
0
 10
171.02057795205189
 20
72.030984800935812
 30
0.0
  0
SEQEND
  5
565
  8
0
  0
POLYLINE
  5
304
  8
0
 66
     1
 10
0.0
 20
0.0
 30
0.0
 70
   128
  0
VERTEX
  5
566
  8
0
 10
166.9187874642856
 20
66.480732119803406
 30
0.0
  0
VERTEX
  5
567
  8
0
 10
167.86824102678369
 20
67.229060227678247
 30
0.0
  0
VERTEX
  5
568
  8
0
 10
168.7134758678921
 20
68.082757065699525
 30
0.0
  0
VERTEX
  5
569
  8
0
 10
169.44162856021001
 20
69.02882969442112
 30
0.0
  0
SEQEND
  5
56A
  8
0
  0
LINE
  5
305
  8
0
 10
161.02057720699389
 20
66.480732143552132
 30
0.0
 11
161.02057720699389
 21
64.980732143552132
 31
0.0
  0
LINE
  5
306
  8
0
 10
171.02057720699401
 20
65.980732143552132
 30
0.0
 11
170.02057720699389
 21
64.980732143552132
 31
0.0
  0
LINE
  5
307
  8
2
 10
169.02057720699389
 20
77.980732143552132
 30
0.0
 11
143.02057720699401
 21
77.980732143552132
 31
0.0
  0
LINE
  5
308
  8
2
 10
169.0205777055825
 20
94.980732143552075
 30
0.0
 11
169.02057720699389
 21
77.980732143552132
 31
0.0
  0
LINE
  5
309
  8
2
 10
143.02057720699401
 20
77.980732143552132
 30
0.0
 11
143.02057706518141
 21
94.980732143552146
 31
0.0
  0
LINE
  5
30A
  8
2
 10
165.02057696857531
 20
77.980732083947487
 30
0.0
 11
165.02057696857531
 21
64.980732143552132
 31
0.0
  0
LINE
  5
30B
  8
2
 10
147.02057774343569
 20
64.980732098023111
 30
0.0
 11
147.02057774343581
 21
77.980732083947487
 31
0.0
  0
LINE
  5
30C
  8
1
 10
156.02057720699401
 20
59.980732143552132
 30
0.0
 11
156.02057720699401
 21
99.980732143552075
 31
0.0
  0
ARC
  5
30D
  8
0
 10
169.02057720699401
 20
92.980732143552132
 30
0.0
 40
2.0
 50
0.0000020376719733
 51
90.0
  0
LINE
  5
30E
  8
0
 10
171.02057720699401
 20
92.980732214680188
 30
0.0
 11
171.02057720699401
 21
65.980732143552132
 31
0.0
  0
LINE
  5
30F
  8
0
 10
71.020577206994005
 20
92.980732214680188
 30
0.0
 11
71.020577206994005
 21
65.980732143552132
 31
0.0
  0
ARC
  5
310
  8
0
 10
105.02057720699401
 20
74.980732143552132
 30
0.0
 40
4.0
 50
90.0
 51
180.0
  0
ARC
  5
311
  8
0
 10
137.02057720699401
 20
74.980732143552132
 30
0.0
 40
4.0
 50
0.0
 51
90.0
  0
LINE
  5
312
  8
0
 10
117.02057720699401
 20
66.980732143552132
 30
0.0
 11
117.02057720699401
 21
78.980732143552132
 31
0.0
  0
LINE
  5
313
  8
3
 10
103.02057720699401
 20
77.554741035438269
 30
0.0
 11
117.02057720699401
 21
77.554741035438269
 31
0.0
  0
LINE
  5
314
  8
3
 10
103.02057720699401
 20
76.554741035438269
 30
0.0
 11
117.02057720699401
 21
76.554741035438269
 31
0.0
  0
LINE
  5
315
  8
3
 10
103.02057720699401
 20
74.36340473814289
 30
0.0
 11
117.02057720699401
 21
74.36340473814289
 31
0.0
  0
LINE
  5
316
  8
3
 10
103.02057720699401
 20
73.363404738142876
 30
0.0
 11
117.02057720699401
 21
73.363404738142876
 31
0.0
  0
LINE
  5
317
  8
3
 10
103.02057720699401
 20
71.172068440847511
 30
0.0
 11
117.02057720699401
 21
71.172068440847511
 31
0.0
  0
LINE
  5
318
  8
3
 10
103.02057720699401
 20
70.172068440847511
 30
0.0
 11
117.02057720699401
 21
70.172068440847511
 31
0.0
  0
LINE
  5
319
  8
3
 10
103.02057720699401
 20
67.980732143552132
 30
0.0
 11
117.02057720699401
 21
67.980732143552132
 31
0.0
  0
LINE
  5
31A
  8
3
 10
139.02057720699401
 20
67.980732143552132
 30
0.0
 11
125.02057720699401
 21
67.980732143552132
 31
0.0
  0
LINE
  5
31B
  8
3
 10
139.02057720699401
 20
70.172068440847511
 30
0.0
 11
125.02057720699401
 21
70.172068440847511
 31
0.0
  0
LINE
  5
31C
  8
3
 10
139.02057720699401
 20
71.172068440847511
 30
0.0
 11
125.02057720699401
 21
71.172068440847511
 31
0.0
  0
LINE
  5
31D
  8
3
 10
139.02057720699401
 20
73.363404738142876
 30
0.0
 11
125.02057720699401
 21
73.363404738142876
 31
0.0
  0
LINE
  5
31E
  8
3
 10
139.02057720699401
 20
74.36340473814289
 30
0.0
 11
125.02057720699401
 21
74.36340473814289
 31
0.0
  0
LINE
  5
31F
  8
3
 10
139.02057720699401
 20
76.554741035438269
 30
0.0
 11
125.02057720699401
 21
76.554741035438269
 31
0.0
  0
LINE
  5
320
  8
3
 10
139.02057720699401
 20
77.554741035438269
 30
0.0
 11
125.02057720699401
 21
77.554741035438269
 31
0.0
  0
LINE
  5
321
  8
0
 10
125.02057720699401
 20
66.980732143552132
 30
0.0
 11
125.02057720699401
 21
78.980732143552132
 31
0.0
  0
LINE
  5
322
  8
0
 10
137.02057720699401
 20
78.980732143552132
 30
0.0
 11
105.02057720699401
 21
78.980732143552132
 31
0.0
  0
ARC
  5
323
  8
0
 10
105.02057720699401
 20
90.980732143552075
 30
0.0
 40
4.0
 50
90.0
 51
180.0
  0
LINE
  5
324
  8
0
 10
101.02057720699401
 20
67.480729736477883
 30
0.0
 11
101.02057720699401
 21
90.980732143552075
 31
0.0
  0
LINE
  5
325
  8
0
 10
102.02057720699401
 20
66.980732143552132
 30
0.0
 11
101.02057720699401
 21
67.980732143552132
 31
0.0
  0
LINE
  5
326
  8
0
 10
140.02057720699401
 20
66.980732143552132
 30
0.0
 11
141.02057720699401
 21
67.980732143552132
 31
0.0
  0
LINE
  5
327
  8
0
 10
102.02057720699401
 20
66.980732143552132
 30
0.0
 11
140.02057720699401
 21
66.980732143552132
 31
0.0
  0
ARC
  5
328
  8
0
 10
137.02057720699401
 20
90.980732143552075
 30
0.0
 40
4.0
 50
0.0
 51
90.0
  0
LINE
  5
329
  8
0
 10
137.02057720699401
 20
94.980732143552146
 30
0.0
 11
105.02057720699401
 21
94.980732143552146
 31
0.0
  0
LINE
  5
32A
  8
0
 10
141.02057720699401
 20
67.480729736477883
 30
0.0
 11
141.02057720699401
 21
90.980732143552075
 31
0.0
  0
POLYLINE
  5
32B
  8
0
 66
     1
 10
0.0
 20
0.0
 30
0.0
 70
   128
  0
VERTEX
  5
56B
  8
0
 10
100.9258099941263
 20
66.980732143552174
 30
0.0
  0
VERTEX
  5
56C
  8
0
 10
100.9746019838104
 20
67.230732155426495
 30
0.0
  0
VERTEX
  5
56D
  8
0
 10
101.0205776540288
 20
67.480732167300857
 30
0.0
  0
SEQEND
  5
56E
  8
0
  0
ARC
  5
32C
  8
0
 10
73.020577206994005
 20
92.980732143552132
 30
0.0
 40
2.0
 50
90.0
 51
179.999997962328
  0
LINE
  5
32D
  8
0
 10
169.02057720699401
 20
94.980732143552146
 30
0.0
 11
73.020577206994005
 21
94.980732143552146
 31
0.0
  0
POLYLINE
  5
32E
  8
0
 66
     1
 10
0.0
 20
0.0
 30
0.0
 70
   128
  0
VERTEX
  5
56F
  8
0
 10
141.02057675995931
 20
202.39494410732109
 30
0.0
  0
VERTEX
  5
570
  8
0
 10
141.02817262687779
 20
203.0088830661708
 30
0.0
  0
VERTEX
  5
571
  8
0
 10
141.05073112228021
 20
203.6041679248894
 30
0.0
  0
VERTEX
  5
572
  8
0
 10
141.0875649301062
 20
204.1627110603014
 30
0.0
  0
VERTEX
  5
573
  8
0
 10
141.13755460062131
 20
204.66754144679101
 30
0.0
  0
VERTEX
  5
574
  8
0
 10
141.19918394067389
 20
205.10332008513899
 30
0.0
  0
VERTEX
  5
575
  8
0
 10
141.27057726659871
 20
205.45680636230199
 30
0.0
  0
VERTEX
  5
576
  8
0
 10
141.3495664594422
 20
205.71725910219641
 30
0.0
  0
VERTEX
  5
577
  8
0
 10
141.43375243225199
 20
205.876765322567
 30
0.0
  0
VERTEX
  5
578
  8
0
 10
141.52057777323819
 20
205.930477955074
 30
0.0
  0
SEQEND
  5
579
  8
0
  0
LINE
  5
32F
  8
0
 10
141.52057720699409
 20
205.93047800253271
 30
0.0
 11
143.05531683933111
 21
205.93047793890119
 31
0.0
  0
ARC
  5
330
  8
0
 10
144.14493285997619
 20
224.98073053422661
 30
0.0
 40
7.0000000000000178
 50
59.99999999999946
 51
90.0
  0
LINE
  5
331
  8
0
 10
167.52057720699401
 20
219.56769974664979
 30
0.0
 11
147.64493285997619
 21
231.04290836071769
 31
0.0
  0
ARC
  5
332
  8
0
 10
164.02057720699409
 20
213.50552192015871
 30
0.0
 40
7.0000000000000151
 50
0.0
 51
59.99999999999946
  0
POLYLINE
  5
333
  8
0
 66
     1
 10
0.0
 20
0.0
 30
0.0
 70
   128
  0
VERTEX
  5
57A
  8
0
 10
171.02057795205209
 20
207.93047781723831
 30
0.0
  0
VERTEX
  5
57B
  8
0
 10
170.9798828808317
 20
207.76421624857281
 30
0.0
  0
VERTEX
  5
57C
  8
0
 10
170.85946287193391
 20
207.6047202727506
 30
0.0
  0
VERTEX
  5
57D
  8
0
 10
170.6642129568109
 20
207.45848027679421
 30
0.0
  0
VERTEX
  5
57E
  8
0
 10
170.402075454379
 20
207.33144694629399
 30
0.0
  0
VERTEX
  5
57F
  8
0
 10
170.0837233213434
 20
207.22879005286191
 30
0.0
  0
VERTEX
  5
580
  8
0
 10
169.7221093920717
 20
207.15468657824491
 30
0.0
  0
SEQEND
  5
581
  8
0
  0
LINE
  5
334
  8
0
 10
171.02057795205209
 20
207.93047781723831
 30
0.0
 11
171.02057720699409
 21
213.50552192015871
 31
0.0
  0
LINE
  5
335
  8
0
 10
171.02057795205209
 20
186.98073086950279
 30
0.0
 11
171.02057795205209
 21
207.93047781723831
 31
0.0
  0
LINE
  5
336
  8
0
 10
166.00756604647319
 20
179.24849748719299
 30
0.0
 11
141.02057720699409
 21
179.24849748719311
 31
0.0
  0
POLYLINE
  5
337
  8
0
 66
     1
 10
0.0
 20
0.0
 30
0.0
 70
   128
  0
VERTEX
  5
582
  8
0
 10
166.7758778778562
 20
179.06896771553261
 30
0.0
  0
VERTEX
  5
583
  8
0
 10
166.6788377908716
 20
179.13553679052089
 30
0.0
  0
VERTEX
  5
584
  8
0
 10
166.50756756939981
 20
179.1980862772773
 30
0.0
  0
VERTEX
  5
585
  8
0
 10
166.00756655612079
 20
179.248496905596
 30
0.0
  0
SEQEND
  5
586
  8
0
  0
POLYLINE
  5
338
  8
0
 66
     1
 10
0.0
 20
0.0
 30
0.0
 70
   128
  0
VERTEX
  5
587
  8
0
 10
169.44162856021021
 20
181.5875992334197
 30
0.0
  0
VERTEX
  5
588
  8
0
 10
170.0615503934869
 20
182.7074624753306
 30
0.0
  0
VERTEX
  5
589
  8
0
 10
170.57008232154939
 20
184.01307800474859
 30
0.0
  0
VERTEX
  5
58A
  8
0
 10
170.9014245418557
 20
185.4416206634352
 30
0.0
  0
VERTEX
  5
58B
  8
0
 10
171.02054814972971
 20
186.95615047279099
 30
0.0
  0
VERTEX
  5
58C
  8
0
 10
171.02057795205209
 20
186.98073086950279
 30
0.0
  0
SEQEND
  5
58D
  8
0
  0
POLYLINE
  5
339
  8
0
 66
     1
 10
0.0
 20
0.0
 30
0.0
 70
   128
  0
VERTEX
  5
58E
  8
0
 10
166.9187874642858
 20
178.90539021852709
 30
0.0
  0
VERTEX
  5
58F
  8
0
 10
166.9179306475171
 20
178.9050586676905
 30
0.0
  0
VERTEX
  5
590
  8
0
 10
166.90028394737331
 20
178.91731673541759
 30
0.0
  0
VERTEX
  5
591
  8
0
 10
166.85063700356571
 20
178.9729986495087
 30
0.0
  0
VERTEX
  5
592
  8
0
 10
166.7758778778562
 20
179.06896771553261
 30
0.0
  0
SEQEND
  5
593
  8
0
  0
POLYLINE
  5
33A
  8
0
 66
     1
 10
0.0
 20
0.0
 30
0.0
 70
   128
  0
VERTEX
  5
594
  8
0
 10
166.9187874642858
 20
178.90539021852709
 30
0.0
  0
VERTEX
  5
595
  8
0
 10
167.86824102678389
 20
179.69310471478201
 30
0.0
  0
VERTEX
  5
596
  8
0
 10
168.71347586789221
 20
180.59173227909309
 30
0.0
  0
VERTEX
  5
597
  8
0
 10
169.44162856021021
 20
181.5875992334197
 30
0.0
  0
SEQEND
  5
598
  8
0
  0
ARC
  5
33B
  8
0
 10
161.02057720699401
 20
186.98073053422669
 30
0.0
 40
10.0
 50
270.0
 51
306.14430973522099
  0
LINE
  5
33C
  8
0
 10
141.02057720699409
 20
176.98073053422669
 30
0.0
 11
161.02057720699401
 21
176.98073053422669
 31
0.0
  0
LINE
  5
33D
  8
1
 10
156.02057720699409
 20
186.98072870952089
 30
0.0
 11
156.02057720699409
 21
222.98072870952089
 31
0.0
  0
LINE
  5
33E
  8
1
 10
174.02057720699401
 20
204.9807267155671
 30
0.0
 11
138.0205772069942
 21
204.98073070347459
 31
0.0
  0
CIRCLE
  5
33F
  8
0
 10
156.02057720699409
 20
204.98072870952089
 30
0.0
 40
13.0
  0
CIRCLE
  5
340
  8
0
 10
156.02057720699409
 20
204.98072870952089
 30
0.0
 40
9.0
  0
LINE
  5
341
  8
0
 10
169.7221093920717
 20
207.15468657824491
 30
0.0
 11
168.8375154991532
 21
207.15468657824491
 31
0.0
  0
ARC
  5
342
  8
0
 10
121.0205772069942
 20
212.97337283067
 30
0.0
 40
3.749999999999488
 50
229.1200306032799
 51
310.87996939672013
  0
ARC
  5
343
  8
0
 10
123.147625920899
 20
215.4306403717992
 30
0.0
 40
7.000000000001247
 50
196.73427348346351
 51
229.1200306032799
  0
ARC
  5
344
  8
0
 10
126.0205772069945
 20
216.2944406425369
 30
0.0
 40
10.000000000000719
 50
180.0
 51
196.73427348346351
  0
ARC
  5
345
  8
0
 10
116.02057720699391
 20
216.2944406425369
 30
0.0
 40
10.000000000000719
 50
343.26572651653652
 51
0.0
  0
ARC
  5
346
  8
0
 10
118.89352849308951
 20
215.4306403717992
 30
0.0
 40
7.000000000001247
 50
310.87996939672013
 51
343.26572651653652
  0
LINE
  5
347
  8
0
 10
141.0205772069942
 20
183.82514253273541
 30
0.0
 11
101.0205772069941
 21
183.82514253273541
 31
0.0
  0
LINE
  5
348
  8
0
 10
141.0205772069942
 20
180.43168232329799
 30
0.0
 11
101.0205772069941
 21
180.43168232329779
 31
0.0
  0
LINE
  5
349
  8
0
 10
117.0205772069942
 20
154.98073214355199
 30
0.0
 11
103.0205772069942
 21
154.98073214355199
 31
0.0
  0
LINE
  5
34A
  8
0
 10
121.0205772069942
 20
158.9807321435519
 30
0.0
 11
125.0205772069942
 21
154.98073214355199
 31
0.0
  0
LINE
  5
34B
  8
0
 10
117.0205772069942
 20
154.98073214355199
 30
0.0
 11
121.0205772069942
 21
158.9807321435519
 31
0.0
  0
ARC
  5
34C
  8
0
 10
139.0205772069942
 20
156.98073214355199
 30
0.0
 40
2.0
 50
270.0
 51
0.0
  0
ARC
  5
34D
  8
0
 10
103.0205772069942
 20
156.9807321435521
 30
0.0
 40
2.0
 50
180.0
 51
270.0
  0
LINE
  5
34E
  8
0
 10
139.0205772069942
 20
154.98073214355199
 30
0.0
 11
125.0205772069942
 21
154.98073214355199
 31
0.0
  0
LINE
  5
34F
  8
0
 10
126.0205772069945
 20
216.2944406425369
 30
0.0
 11
136.02172962970079
 21
216.2944406425369
 31
0.0
  0
LINE
  5
350
  8
0
 10
110.6382269378045
 20
204.98073214355199
 30
0.0
 11
101.0205772069941
 21
204.98073214355199
 31
0.0
  0
LINE
  5
351
  8
0
 10
136.02172962970079
 20
216.2944406425369
 30
0.0
 11
131.40292747618361
 21
204.98073214355199
 31
0.0
  0
LINE
  5
352
  8
0
 10
106.01942478428749
 20
216.2944406425369
 30
0.0
 11
116.02057720699391
 21
216.2944406425369
 31
0.0
  0
LINE
  5
353
  8
0
 10
110.6382269378045
 20
204.98073214355199
 30
0.0
 11
106.01942478428749
 21
216.2944406425369
 31
0.0
  0
LINE
  5
354
  8
0
 10
141.0205772069942
 20
204.98073214355199
 30
0.0
 11
131.40292747618361
 21
204.98073214355199
 31
0.0
  0
LINE
  5
355
  8
0
 10
101.0205772069941
 20
156.98073214355199
 30
0.0
 11
101.0205772069941
 21
204.9807321435521
 31
0.0
  0
LINE
  5
356
  8
0
 10
141.0205772069942
 20
204.98073214355199
 30
0.0
 11
141.02057720699409
 21
156.98073214355199
 31
0.0
  0
LINE
  5
357
  8
0
 10
141.02057720699401
 20
157.12704947694189
 30
0.0
 11
122.8742598736043
 21
157.12704947694189
 31
0.0
  0
LINE
  5
358
  8
0
 10
119.16689454038411
 20
157.12704947694189
 30
0.0
 11
101.0205772069941
 21
157.12704947694189
 31
0.0
  0
LINE
  5
359
  8
0
 10
72.319045021916565
 20
207.15468657824491
 30
0.0
 11
73.203638914835039
 21
207.15468657824491
 31
0.0
  0
CIRCLE
  5
35A
  8
0
 10
86.020577206994105
 20
204.98072870952089
 30
0.0
 40
9.0
  0
CIRCLE
  5
35B
  8
0
 10
86.020577206994105
 20
204.98072870952089
 30
0.0
 40
13.0
  0
LINE
  5
35C
  8
1
 10
68.020577206994233
 20
204.9807267155671
 30
0.0
 11
104.02057720699401
 21
204.98073070347459
 31
0.0
  0
LINE
  5
35D
  8
1
 10
86.020577206994105
 20
186.98072870952089
 30
0.0
 11
86.020577206994105
 21
222.98072870952089
 31
0.0
  0
LINE
  5
35E
  8
1
 10
121.0205772069941
 20
144.98073214355199
 30
0.0
 11
121.0205772069941
 21
241.98073053422661
 31
0.0
  0
LINE
  5
35F
  8
5
 10
282.65661617631508
 20
91.764541997687843
 30
0.0
 11
277.49545094114688
 21
96.925707232856098
 31
0.0
  0
LINE
  5
360
  8
5
 10
278.20255772233361
 20
97.632814014042594
 30
0.0
 11
283.85941197182581
 21
91.975959764550225
 31
0.0
  0
LINE
  5
361
  8
5
 10
272.33428570597869
 20
91.764541997687843
 30
0.0
 11
286.33428570597891
 21
105.7645419976878
 31
0.0
  0
ARC
  5
362
  8
5
 10
253.86498741070599
 20
101.7645419976878
 30
0.0
 40
4.0000000000000204
 50
90.0
 51
148.03428124920151
  0
LINE
  5
363
  8
5
 10
225.02057720699401
 20
85.664541997687834
 30
0.0
 11
225.2364982220235
 21
85.76522762055265
 31
0.0
  0
LINE
  5
364
  8
5
 10
275.02057720699401
 20
105.7645419976878
 30
0.0
 11
261.02057720699389
 21
91.764541997687843
 31
0.0
  0
LINE
  5
365
  8
5
 10
225.02057720699401
 20
84.071128594846456
 30
0.0
 11
225.02057720699401
 21
85.664541997687834
 31
0.0
  0
LINE
  5
366
  8
5
 10
227.52057720699401
 20
83.630311143075346
 30
0.0
 11
225.02057720699401
 21
84.071128594846456
 31
0.0
  0
LINE
  5
367
  8
5
 10
225.02057720699401
 20
82.464541997687817
 30
0.0
 11
227.52057720699401
 21
83.630311143075346
 31
0.0
  0
LINE
  5
368
  8
5
 10
225.02057720699401
 20
80.871128594846482
 30
0.0
 11
225.02057720699401
 21
82.464541997687817
 31
0.0
  0
LINE
  5
369
  8
5
 10
227.18215807432711
 20
80.489983566952446
 30
0.0
 11
225.02057720699401
 21
80.871128594846482
 31
0.0
  0
LINE
  5
36A
  8
5
 10
253.86498741070599
 20
105.7645419976878
 30
0.0
 11
286.33428570597891
 21
105.7645419976878
 31
0.0
  0
ARC
  5
36B
  8
5
 10
225.02057720699401
 20
119.7645419976878
 30
0.0
 40
30.000000000000011
 50
273.98666913326241
 51
328.0342812492043
  0
LINE
  5
36C
  8
5
 10
225.02057720699401
 20
88.864541997687809
 30
0.0
 11
227.10630834022641
 21
89.837134397966338
 31
0.0
  0
LINE
  5
36D
  8
5
 10
225.02057720699401
 20
87.271128594846459
 30
0.0
 11
225.02057720699401
 21
88.864541997687809
 31
0.0
  0
LINE
  5
36E
  8
5
 10
227.52057720699401
 20
86.830311143075335
 30
0.0
 11
225.02057720699401
 21
87.271128594846459
 31
0.0
  0
LINE
  5
36F
  8
5
 10
225.2364982220235
 20
85.76522762055265
 30
0.0
 11
227.52057720699401
 21
86.830311143075335
 31
0.0
  0
LINE
  5
370
  8
0
 10
235.1418975505533
 20
63.764541997687843
 30
0.0
 11
263.14189755055253
 21
91.764541997687843
 31
0.0
  0
LINE
  5
371
  8
5
 10
283.85941197182581
 20
91.764541997687843
 30
0.0
 11
283.85941197182581
 21
91.975959764550225
 31
0.0
  0
POLYLINE
  5
372
  8
0
 66
     1
 10
0.0
 20
0.0
 30
0.0
 70
   128
  0
VERTEX
  5
599
  8
0
 10
213.10630834022649
 20
75.837134397966338
 30
0.0
  0
VERTEX
  5
59A
  8
0
 10
213.74574129943511
 20
75.888573717659312
 30
0.0
  0
VERTEX
  5
59B
  8
0
 10
214.38392819094901
 20
75.953673674897743
 30
0.0
  0
VERTEX
  5
59C
  8
0
 10
215.02057720699409
 20
76.03240450305077
 30
0.0
  0
SEQEND
  5
59D
  8
0
  0
ARC
  5
373
  8
0
 10
239.86498741070599
 20
87.764541997687829
 30
0.0
 40
4.0000000000000204
 50
90.0
 51
148.03428124920151
  0
LINE
  5
374
  8
0
 10
211.02057720699401
 20
71.66454199768782
 30
0.0
 11
211.2364982220235
 21
71.76522762055265
 31
0.0
  0
LINE
  5
375
  8
0
 10
211.02057720699401
 20
70.071128594846414
 30
0.0
 11
211.02057720699401
 21
71.66454199768782
 31
0.0
  0
LINE
  5
376
  8
0
 10
213.52057720699401
 20
69.630311143075289
 30
0.0
 11
211.02057720699401
 21
70.071128594846414
 31
0.0
  0
LINE
  5
377
  8
0
 10
211.02057720699401
 20
68.464541997687775
 30
0.0
 11
213.52057720699401
 21
69.630311143075289
 31
0.0
  0
LINE
  5
378
  8
0
 10
211.02057720699401
 20
66.871128594846482
 30
0.0
 11
211.02057720699401
 21
68.464541997687775
 31
0.0
  0
LINE
  5
379
  8
0
 10
213.52057720699401
 20
66.430311143075301
 30
0.0
 11
211.02057720699401
 21
66.871128594846482
 31
0.0
  0
LINE
  5
37A
  8
0
 10
211.02057720699401
 20
65.264541997687786
 30
0.0
 11
213.52057720699401
 21
66.430311143075301
 31
0.0
  0
LINE
  5
37B
  8
0
 10
211.02057720699401
 20
63.764541997687793
 30
0.0
 11
211.02057720699401
 21
65.264541997687786
 31
0.0
  0
LINE
  5
37C
  8
0
 10
211.02057720699401
 20
63.764541997687793
 30
0.0
 11
233.02057720699389
 21
63.764541997687793
 31
0.0
  0
ARC
  5
37D
  8
0
 10
211.02057720699401
 20
105.7645419976878
 30
0.0
 40
30.000000000000021
 50
273.98666913326241
 51
328.0342812492043
  0
LINE
  5
37E
  8
0
 10
211.02057720699401
 20
74.864541997687809
 30
0.0
 11
213.10630834022629
 21
75.837134397966338
 31
0.0
  0
LINE
  5
37F
  8
0
 10
211.02057720699401
 20
73.271128594846459
 30
0.0
 11
211.02057720699401
 21
74.864541997687809
 31
0.0
  0
LINE
  5
380
  8
0
 10
213.52057720699401
 20
72.830311143075278
 30
0.0
 11
211.02057720699401
 21
73.271128594846459
 31
0.0
  0
LINE
  5
381
  8
0
 10
211.2364982220235
 20
71.76522762055265
 30
0.0
 11
213.52057720699401
 21
72.830311143075278
 31
0.0
  0
LINE
  5
382
  8
0
 10
261.02057720699401
 20
91.764541997687843
 30
0.0
 11
233.02057720699369
 21
63.764541997687843
 31
0.0
  0
LINE
  5
383
  8
0
 10
233.02057720699369
 20
62.7645419976879
 30
0.0
 11
233.02057720699369
 21
63.7645419976879
 31
0.0
  0
ARC
  5
384
  8
0
 10
286.02057720699372
 20
89.764541997687843
 30
0.0
 40
2.0
 50
0.0
 51
90.0
  0
LINE
  5
385
  8
0
 10
288.02057720699361
 20
89.764541997687843
 30
0.0
 11
288.02057720699361
 21
62.764541997687843
 31
0.0
  0
LINE
  5
386
  8
0
 10
288.02057720699361
 20
62.764541997687843
 30
0.0
 11
287.02057720699372
 21
61.764541997687843
 31
0.0
  0
LINE
  5
387
  8
0
 10
233.52057720699369
 20
63.764541997687843
 30
0.0
 11
235.1418975505533
 21
63.764541997687843
 31
0.0
  0
ARC
  5
388
  8
0
 10
233.52057720699369
 20
63.264541997687843
 30
0.0
 40
0.5
 50
90.0
 51
180.0
  0
LINE
  5
389
  8
0
 10
233.02057720699369
 20
62.764541997687843
 30
0.0
 11
234.02057720699361
 21
61.764541997687843
 31
0.0
  0
POLYLINE
  5
38A
  8
0
 66
     1
 10
0.0
 20
0.0
 30
0.0
 70
   128
  0
VERTEX
  5
59E
  8
0
 10
273.87549561184801
 20
91.764541997687843
 30
0.0
  0
VERTEX
  5
59F
  8
0
 10
274.21340196164482
 20
91.726112558494322
 30
0.0
  0
VERTEX
  5
5A0
  8
0
 10
274.53832275991908
 20
91.612301062710458
 30
0.0
  0
VERTEX
  5
5A1
  8
0
 10
274.83777148261078
 20
91.427481222292954
 30
0.0
  0
VERTEX
  5
5A2
  8
0
 10
275.10024048323947
 20
91.178755560060964
 30
0.0
  0
VERTEX
  5
5A3
  8
0
 10
275.31564322530562
 20
90.87568246372706
 30
0.0
  0
VERTEX
  5
5A4
  8
0
 10
275.47570190223053
 20
90.52990886241804
 30
0.0
  0
VERTEX
  5
5A5
  8
0
 10
275.57426554882198
 20
90.154722641720127
 30
0.0
  0
VERTEX
  5
5A6
  8
0
 10
275.60754641941679
 20
89.764541997687843
 30
0.0
  0
SEQEND
  5
5A7
  8
0
  0
LINE
  5
38B
  8
0
 10
286.02057720699372
 20
91.764541997687843
 30
0.0
 11
239.86498741070599
 21
91.764541997687843
 31
0.0
  0
LINE
  5
38C
  8
0
 10
269.5453685929258
 20
61.764541997687843
 30
0.0
 11
269.54536859292563
 21
91.764541997687843
 31
0.0
  0
LINE
  5
38D
  8
0
 10
275.60754641941679
 20
89.764541997687843
 30
0.0
 11
275.60754641941679
 21
62.764541997687843
 31
0.0
  0
LINE
  5
38E
  8
0
 10
275.60754641941679
 20
62.764541997687843
 30
0.0
 11
274.74152101563237
 21
61.764541997687843
 31
0.0
  0
LINE
  5
38F
  8
0
 10
121.0205772069942
 20
209.2233710146258
 30
0.0
 11
121.0205772069942
 21
210.99113860789029
 31
0.0
  0
LINE
  5
390
  8
0
 10
123.35218401790659
 20
210.0392636066982
 30
0.0
 11
121.0205772069942
 21
210.99113860789029
 31
0.0
  0
LINE
  5
391
  8
0
 10
121.0205772069942
 20
210.99113860789029
 30
0.0
 11
118.6889703960816
 21
210.0392636066982
 31
0.0
  0
POLYLINE
  5
392
  8
0
 66
     1
 10
0.0
 20
0.0
 30
0.0
 70
   128
  0
VERTEX
  5
5A8
  8
0
 10
125.4046655369649
 20
212.8945058366964
 30
0.0
  0
VERTEX
  5
5A9
  8
0
 10
125.0205773969839
 20
213.06169034603329
 30
0.0
  0
VERTEX
  5
5AA
  8
0
 10
124.0820447558264
 20
213.38896268668859
 30
0.0
  0
VERTEX
  5
5AB
  8
0
 10
123.091129643629
 20
213.62681222769709
 30
0.0
  0
VERTEX
  5
5AC
  8
0
 10
122.0647867878626
 20
213.77117002073021
 30
0.0
  0
VERTEX
  5
5AD
  8
0
 10
121.0205772069941
 20
213.8195652669975
 30
0.0
  0
VERTEX
  5
5AE
  8
0
 10
119.97636762612559
 20
213.77117002073021
 30
0.0
  0
VERTEX
  5
5AF
  8
0
 10
118.95002477035921
 20
213.62681222769709
 30
0.0
  0
VERTEX
  5
5B0
  8
0
 10
117.95910965816179
 20
213.38896268668859
 30
0.0
  0
VERTEX
  5
5B1
  8
0
 10
117.0205770170043
 20
213.06169034603329
 30
0.0
  0
VERTEX
  5
5B2
  8
0
 10
116.6364888770233
 20
212.8945058366964
 30
0.0
  0
SEQEND
  5
5B3
  8
0
  0
LINE
  5
393
  8
0
 10
101.0205772069941
 20
176.98073053422669
 30
0.0
 11
81.020577206994233
 21
176.98073053422669
 31
0.0
  0
ARC
  5
394
  8
0
 10
81.020577206994233
 20
186.98073053422669
 30
0.0
 40
10.0
 50
233.85569026477901
 51
270.0
  0
POLYLINE
  5
395
  8
0
 66
     1
 10
0.0
 20
0.0
 30
0.0
 70
   128
  0
VERTEX
  5
5B4
  8
0
 10
75.122366949702439
 20
178.90539021852709
 30
0.0
  0
VERTEX
  5
5B5
  8
0
 10
74.172913387204346
 20
179.69310471478201
 30
0.0
  0
VERTEX
  5
5B6
  8
0
 10
73.327678546096024
 20
180.59173227909309
 30
0.0
  0
VERTEX
  5
5B7
  8
0
 10
72.599525853778061
 20
181.5875992334197
 30
0.0
  0
SEQEND
  5
5B8
  8
0
  0
POLYLINE
  5
396
  8
0
 66
     1
 10
0.0
 20
0.0
 30
0.0
 70
   128
  0
VERTEX
  5
5B9
  8
0
 10
75.122366949702439
 20
178.90539021852709
 30
0.0
  0
VERTEX
  5
5BA
  8
0
 10
75.123223766471085
 20
178.9050586676905
 30
0.0
  0
VERTEX
  5
5BB
  8
0
 10
75.140870466614899
 20
178.91731673541759
 30
0.0
  0
VERTEX
  5
5BC
  8
0
 10
75.190517410422501
 20
178.9729986495087
 30
0.0
  0
VERTEX
  5
5BD
  8
0
 10
75.265276536132035
 20
179.06896771553261
 30
0.0
  0
SEQEND
  5
5BE
  8
0
  0
POLYLINE
  5
397
  8
0
 66
     1
 10
0.0
 20
0.0
 30
0.0
 70
   128
  0
VERTEX
  5
5BF
  8
0
 10
72.599525853778061
 20
181.5875992334197
 30
0.0
  0
VERTEX
  5
5C0
  8
0
 10
71.979604020501313
 20
182.7074624753306
 30
0.0
  0
VERTEX
  5
5C1
  8
0
 10
71.471072092438874
 20
184.01307800474859
 30
0.0
  0
VERTEX
  5
5C2
  8
0
 10
71.139729872132477
 20
185.4416206634352
 30
0.0
  0
VERTEX
  5
5C3
  8
0
 10
71.020606264258561
 20
186.95615047279099
 30
0.0
  0
VERTEX
  5
5C4
  8
0
 10
71.020576461936173
 20
186.98073086950279
 30
0.0
  0
SEQEND
  5
5C5
  8
0
  0
POLYLINE
  5
398
  8
0
 66
     1
 10
0.0
 20
0.0
 30
0.0
 70
   128
  0
VERTEX
  5
5C6
  8
0
 10
75.265276536132035
 20
179.06896771553261
 30
0.0
  0
VERTEX
  5
5C7
  8
0
 10
75.362316623116669
 20
179.13553679052089
 30
0.0
  0
VERTEX
  5
5C8
  8
0
 10
75.533586844588456
 20
179.1980862772773
 30
0.0
  0
VERTEX
  5
5C9
  8
0
 10
76.033587857867417
 20
179.248496905596
 30
0.0
  0
SEQEND
  5
5CA
  8
0
  0
LINE
  5
399
  8
0
 10
76.033588367515051
 20
179.24849748719299
 30
0.0
 11
101.0205772069941
 21
179.24849748719311
 31
0.0
  0
LINE
  5
39A
  8
0
 10
71.020576461936173
 20
186.98073086950279
 30
0.0
 11
71.020576461936173
 21
207.93047781723831
 31
0.0
  0
LINE
  5
39B
  8
0
 10
71.020576461936173
 20
207.93047781723831
 30
0.0
 11
71.020577206994119
 21
213.50552192015871
 31
0.0
  0
POLYLINE
  5
39C
  8
0
 66
     1
 10
0.0
 20
0.0
 30
0.0
 70
   128
  0
VERTEX
  5
5CB
  8
0
 10
71.020576461936173
 20
207.93047781723831
 30
0.0
  0
VERTEX
  5
5CC
  8
0
 10
71.061271533156571
 20
207.76421624857281
 30
0.0
  0
VERTEX
  5
5CD
  8
0
 10
71.181691542054352
 20
207.6047202727506
 30
0.0
  0
VERTEX
  5
5CE
  8
0
 10
71.376941457177338
 20
207.45848027679421
 30
0.0
  0
VERTEX
  5
5CF
  8
0
 10
71.639078959609208
 20
207.33144694629399
 30
0.0
  0
VERTEX
  5
5D0
  8
0
 10
71.957431092644867
 20
207.22879005286191
 30
0.0
  0
VERTEX
  5
5D1
  8
0
 10
72.319045021916565
 20
207.15468657824491
 30
0.0
  0
SEQEND
  5
5D2
  8
0
  0
ARC
  5
39D
  8
0
 10
78.020577206994119
 20
213.50552192015871
 30
0.0
 40
7.0000000000000151
 50
120.0000000000005
 51
180.0
  0
LINE
  5
39E
  8
0
 10
74.520577206994233
 20
219.56769974664979
 30
0.0
 11
94.396221554012016
 21
231.04290836071769
 31
0.0
  0
ARC
  5
39F
  8
0
 10
97.896221554012016
 20
224.98073053422661
 30
0.0
 40
7.0000000000000178
 50
90.0
 51
120.0000000000005
  0
LINE
  5
3A0
  8
0
 10
97.896221554012016
 20
231.98073053422661
 30
0.0
 11
144.14493285997631
 21
231.98073053422661
 31
0.0
  0
POLYLINE
  5
3A1
  8
0
 66
     1
 10
0.0
 20
0.0
 30
0.0
 70
   128
  0
VERTEX
  5
5D3
  8
0
 10
130.0205768195639
 20
216.29443859371631
 30
0.0
  0
VERTEX
  5
5D4
  8
0
 10
129.97127446510891
 20
217.62486921313501
 30
0.0
  0
VERTEX
  5
5D5
  8
0
 10
129.82390570619211
 20
218.9407237029383
 30
0.0
  0
VERTEX
  5
5D6
  8
0
 10
129.58008545615769
 20
220.22758239570351
 30
0.0
  0
VERTEX
  5
5D7
  8
0
 10
129.24248661079511
 20
221.47135065558641
 30
0.0
  0
VERTEX
  5
5D8
  8
0
 10
128.814806055064
 20
222.6583995080301
 30
0.0
  0
VERTEX
  5
5D9
  8
0
 10
128.30173020416001
 20
223.77572396460269
 30
0.0
  0
VERTEX
  5
5DA
  8
0
 10
127.7088805211435
 20
224.81108085873811
 30
0.0
  0
VERTEX
  5
5DB
  8
0
 10
127.04275251531099
 20
225.75312854412289
 30
0.0
  0
VERTEX
  5
5DC
  8
0
 10
126.3106444960187
 20
226.5915442413399
 30
0.0
  0
VERTEX
  5
5DD
  8
0
 10
125.520577013279
 20
227.3171432471583
 30
0.0
  0
VERTEX
  5
5DE
  8
0
 10
124.6812069432537
 20
227.92197392943589
 30
0.0
  0
VERTEX
  5
5DF
  8
0
 10
123.8017301650445
 20
228.3994127220223
 30
0.0
  0
VERTEX
  5
5E0
  8
0
 10
122.891782374839
 20
228.74422559204791
 30
0.0
  0
VERTEX
  5
5E1
  8
0
 10
121.96133338079849
 20
228.95263695779531
 30
0.0
  0
VERTEX
  5
5E2
  8
0
 10
121.0205772069941
 20
229.0223613536665
 30
0.0
  0
VERTEX
  5
5E3
  8
0
 10
120.0798210331897
 20
228.95263695779531
 30
0.0
  0
VERTEX
  5
5E4
  8
0
 10
119.1493720391492
 20
228.74422559204791
 30
0.0
  0
VERTEX
  5
5E5
  8
0
 10
118.23942424894371
 20
228.3994127220223
 30
0.0
  0
VERTEX
  5
5E6
  8
0
 10
117.3599474707345
 20
227.92197392943589
 30
0.0
  0
VERTEX
  5
5E7
  8
0
 10
116.5205774007092
 20
227.3171432471583
 30
0.0
  0
VERTEX
  5
5E8
  8
0
 10
115.7305099179695
 20
226.5915442413399
 30
0.0
  0
VERTEX
  5
5E9
  8
0
 10
114.9984018986772
 20
225.75312854412289
 30
0.0
  0
VERTEX
  5
5EA
  8
0
 10
114.3322738928447
 20
224.81108085873811
 30
0.0
  0
VERTEX
  5
5EB
  8
0
 10
113.7394242098282
 20
223.77572396460269
 30
0.0
  0
VERTEX
  5
5EC
  8
0
 10
113.2263483589242
 20
222.6583995080301
 30
0.0
  0
VERTEX
  5
5ED
  8
0
 10
112.7986678031931
 20
221.47135065558641
 30
0.0
  0
VERTEX
  5
5EE
  8
0
 10
112.46106895783051
 20
220.22758239570351
 30
0.0
  0
VERTEX
  5
5EF
  8
0
 10
112.2172487077961
 20
218.9407237029383
 30
0.0
  0
VERTEX
  5
5F0
  8
0
 10
112.0698799488793
 20
217.62486921313501
 30
0.0
  0
VERTEX
  5
5F1
  8
0
 10
112.0205775944243
 20
216.29443859371631
 30
0.0
  0
SEQEND
  5
5F2
  8
0
  0
LINE
  5
3A2
  8
0
 10
100.5205772069941
 20
205.93047800253271
 30
0.0
 11
98.985837574657083
 21
205.93047793890119
 31
0.0
  0
POLYLINE
  5
3A3
  8
0
 66
     1
 10
0.0
 20
0.0
 30
0.0
 70
   128
  0
VERTEX
  5
5F3
  8
0
 10
101.0205776540289
 20
202.39494410732109
 30
0.0
  0
VERTEX
  5
5F4
  8
0
 10
101.01298178711041
 20
203.0088830661708
 30
0.0
  0
VERTEX
  5
5F5
  8
0
 10
100.990423291708
 20
203.6041679248894
 30
0.0
  0
VERTEX
  5
5F6
  8
0
 10
100.953589483882
 20
204.1627110603014
 30
0.0
  0
VERTEX
  5
5F7
  8
0
 10
100.9035998133669
 20
204.66754144679101
 30
0.0
  0
VERTEX
  5
5F8
  8
0
 10
100.8419704733143
 20
205.10332008513899
 30
0.0
  0
VERTEX
  5
5F9
  8
0
 10
100.7705771473895
 20
205.45680636230199
 30
0.0
  0
VERTEX
  5
5FA
  8
0
 10
100.69158795454599
 20
205.71725910219641
 30
0.0
  0
VERTEX
  5
5FB
  8
0
 10
100.6074019817362
 20
205.876765322567
 30
0.0
  0
VERTEX
  5
5FC
  8
0
 10
100.52057664074999
 20
205.930477955074
 30
0.0
  0
SEQEND
  5
5FD
  8
0
  0
LINE
  5
3A4
  8
1
 10
121.02057720699401
 20
54.980732143552132
 30
0.0
 11
121.0205772069941
 21
104.9807321435521
 31
0.0
  0
LINE
  5
3A5
  8
1
 10
86.020577206994105
 20
59.980732143552132
 30
0.0
 11
86.020577206994005
 21
99.980732143552146
 31
0.0
  0
LINE
  5
3A6
  8
2
 10
95.020576670552316
 20
64.980732098023111
 30
0.0
 11
95.020576670552202
 21
77.980732083947487
 31
0.0
  0
LINE
  5
3A7
  8
2
 10
77.020577445412698
 20
77.980732083947487
 30
0.0
 11
77.020577445412698
 21
64.980732143552132
 31
0.0
  0
LINE
  5
3A8
  8
2
 10
99.020577206994005
 20
77.980732143552132
 30
0.0
 11
99.020577348806626
 21
94.980732143552146
 31
0.0
  0
LINE
  5
3A9
  8
2
 10
73.020576708405486
 20
94.980732143552075
 30
0.0
 11
73.020577206994119
 21
77.980732143552132
 31
0.0
  0
LINE
  5
3AA
  8
2
 10
73.020577206994119
 20
77.980732143552132
 30
0.0
 11
99.020577206994005
 21
77.980732143552132
 31
0.0
  0
POLYLINE
  5
3AB
  8
0
 66
     1
 10
0.0
 20
0.0
 30
0.0
 70
   128
  0
VERTEX
  5
5FE
  8
0
 10
124.5864285731414
 20
64.980732048557229
 30
0.0
  0
VERTEX
  5
5FF
  8
0
 10
125.697296868796
 20
65.792439393394716
 30
0.0
  0
VERTEX
  5
600
  8
0
 10
126.6486843226203
 20
66.734812605123125
 30
0.0
  0
VERTEX
  5
601
  8
0
 10
126.8590598476776
 20
66.980732143552132
 30
0.0
  0
SEQEND
  5
602
  8
0
  0
POLYLINE
  5
3AC
  8
0
 66
     1
 10
0.0
 20
0.0
 30
0.0
 70
   128
  0
VERTEX
  5
603
  8
0
 10
115.1820945663103
 20
66.980732143552132
 30
0.0
  0
VERTEX
  5
604
  8
0
 10
116.0647285280475
 20
66.042564522636212
 30
0.0
  0
VERTEX
  5
605
  8
0
 10
117.1388347277144
 20
65.183811941810973
 30
0.0
  0
VERTEX
  5
606
  8
0
 10
117.45472584084661
 20
64.980732048557229
 30
0.0
  0
SEQEND
  5
607
  8
0
  0
LINE
  5
3AD
  8
0
 10
130.27057732620329
 20
66.980732143552132
 30
0.0
 11
130.27057732620329
 21
64.980732048557229
 31
0.0
  0
LINE
  5
3AE
  8
0
 10
111.7705770877847
 20
64.980732048557229
 30
0.0
 11
111.7705770877847
 21
66.980732143552132
 31
0.0
  0
LINE
  5
3AF
  8
0
 10
100.52057720699401
 20
93.809159268298345
 30
0.0
 11
99.375914141322085
 21
93.809159011275597
 31
0.0
  0
POLYLINE
  5
3B0
  8
0
 66
     1
 10
0.0
 20
0.0
 30
0.0
 70
   128
  0
VERTEX
  5
608
  8
0
 10
99.376417458632261
 20
94.980732143552146
 30
0.0
  0
VERTEX
  5
609
  8
0
 10
99.379721388007113
 20
91.327115432054825
 30
0.0
  0
VERTEX
  5
60A
  8
0
 10
98.906080528880068
 20
88.85735972288353
 30
0.0
  0
VERTEX
  5
60B
  8
0
 10
97.993211179758021
 20
86.519468114406891
 30
0.0
  0
VERTEX
  5
60C
  8
0
 10
96.671323582316347
 20
84.410678133995361
 30
0.0
  0
VERTEX
  5
60D
  8
0
 10
95.575974613214441
 20
83.148533017070122
 30
0.0
  0
VERTEX
  5
60E
  8
0
 10
94.340664624954172
 20
82.041393504173584
 30
0.0
  0
VERTEX
  5
60F
  8
0
 10
92.965391754890391
 20
81.089257732660599
 30
0.0
  0
VERTEX
  5
610
  8
0
 10
91.861860185647913
 20
80.488878772289581
 30
0.0
  0
VERTEX
  5
611
  8
0
 10
90.717065438414522
 20
79.998434991271324
 30
0.0
  0
VERTEX
  5
612
  8
0
 10
89.531007513190318
 20
79.617925458283253
 30
0.0
  0
VERTEX
  5
613
  8
0
 10
88.303680822039667
 20
79.347352035970516
 30
0.0
  0
VERTEX
  5
614
  8
0
 10
87.057224765206385
 20
79.190567605824299
 30
0.0
  0
VERTEX
  5
615
  8
0
 10
86.020577206994105
 20
79.157779729478762
 30
0.0
  0
SEQEND
  5
616
  8
0
  0
POLYLINE
  5
3B1
  8
0
 66
     1
 10
0.0
 20
0.0
 30
0.0
 70
   128
  0
VERTEX
  5
617
  8
0
 10
101.0205776540288
 20
90.980732352168388
 30
0.0
  0
VERTEX
  5
618
  8
0
 10
101.01298178711031
 20
91.471883938343353
 30
0.0
  0
VERTEX
  5
619
  8
0
 10
100.9904232917079
 20
91.94811201158268
 30
0.0
  0
VERTEX
  5
61A
  8
0
 10
100.9535894838819
 20
92.394945681721993
 30
0.0
  0
VERTEX
  5
61B
  8
0
 10
100.9035998133668
 20
92.798809990913696
 30
0.0
  0
VERTEX
  5
61C
  8
0
 10
100.84197047331421
 20
93.147433832914658
 30
0.0
  0
VERTEX
  5
61D
  8
0
 10
100.7705771473893
 20
93.430222482116051
 30
0.0
  0
VERTEX
  5
61E
  8
0
 10
100.69158795454589
 20
93.638583556444473
 30
0.0
  0
VERTEX
  5
61F
  8
0
 10
100.6074019817361
 20
93.766189650327988
 30
0.0
  0
VERTEX
  5
620
  8
0
 10
100.52057664074989
 20
93.809159011275597
 30
0.0
  0
SEQEND
  5
621
  8
0
  0
LINE
  5
3B2
  8
0
 10
131.40177476384719
 20
64.980732048557229
 30
0.0
 11
131.4017747638473
 21
66.980732143552004
 31
0.0
  0
LINE
  5
3B3
  8
0
 10
71.020577206994005
 20
65.980732143552132
 30
0.0
 11
72.020577206994119
 21
64.980732143552132
 31
0.0
  0
LINE
  5
3B4
  8
0
 10
170.02057720699389
 20
64.980732143552132
 30
0.0
 11
72.020577206994119
 21
64.980732143552132
 31
0.0
  0
LINE
  5
3B5
  8
0
 10
81.020577206994105
 20
66.480732143552132
 30
0.0
 11
81.020577206994105
 21
64.980732143552132
 31
0.0
  0
LINE
  5
3B6
  8
0
 10
100.5205766645021
 20
66.480732143552132
 30
0.0
 11
75.122366799999838
 21
66.480732143552132
 31
0.0
  0
POLYLINE
  5
3B7
  8
0
 66
     1
 10
0.0
 20
0.0
 30
0.0
 70
   128
  0
VERTEX
  5
622
  8
0
 10
75.122366949702325
 20
66.480732119803406
 30
0.0
  0
VERTEX
  5
623
  8
0
 10
74.172913387204233
 20
67.229060227678247
 30
0.0
  0
VERTEX
  5
624
  8
0
 10
73.32767854609591
 20
68.082757065699525
 30
0.0
  0
VERTEX
  5
625
  8
0
 10
72.599525853777948
 20
69.02882969442112
 30
0.0
  0
SEQEND
  5
626
  8
0
  0
POLYLINE
  5
3B8
  8
0
 66
     1
 10
0.0
 20
0.0
 30
0.0
 70
   128
  0
VERTEX
  5
627
  8
0
 10
72.599525853777948
 20
69.02882969442112
 30
0.0
  0
VERTEX
  5
628
  8
0
 10
71.979604020501199
 20
69.922364088402219
 30
0.0
  0
VERTEX
  5
629
  8
0
 10
71.47107209243876
 20
70.695462408171124
 30
0.0
  0
VERTEX
  5
62A
  8
0
 10
71.139729872132364
 20
71.377251301587648
 30
0.0
  0
VERTEX
  5
62B
  8
0
 10
71.020606264258447
 20
72.020755619437523
 30
0.0
  0
VERTEX
  5
62C
  8
0
 10
71.020576461936059
 20
72.030984800935812
 30
0.0
  0
SEQEND
  5
62D
  8
0
  0
LINE
  5
3B9
  8
0
 10
110.6393796501407
 20
64.980732143552132
 30
0.0
 11
110.6393796501407
 21
66.980732143552004
 31
0.0
  0
POLYLINE
  5
3BA
  8
0
 66
     1
 10
0.0
 20
0.0
 30
0.0
 70
   128
  0
VERTEX
  5
62E
  8
0
 10
100.9258099941263
 20
66.980732143552132
 30
0.0
  0
VERTEX
  5
62F
  8
0
 10
100.6706834880361
 20
66.634341001904659
 30
0.0
  0
VERTEX
  5
630
  8
0
 10
100.5237394122133
 20
66.483894425605513
 30
0.0
  0
VERTEX
  5
631
  8
0
 10
100.52057664074989
 20
66.480732119803406
 30
0.0
  0
SEQEND
  5
632
  8
0
  0
LINE
  5
409
  8
0
 10
243.02057754226979
 20
71.643221989404566
 30
0.0
 11
243.02057754226979
 21
61.76454199768785
 31
0.0
  0
TEXT
  5
4C6
  8
0
 62
     3
 10
0.0
 20
0.0
 30
0.0
 40
10.0
  1
CP104-16030
  7
STANDARD1
  0
ENDSEC
  0
EOF
