  0
SECTION
  2
HEADER
  9
$ACADVER
  1
AC1009
  9
$INSBASE
 10
52.341704733837332
 20
279.76240635115028
 30
0.0
  9
$EXTMIN
 10
0.0
 20
-2.960436562073669
 30
0.0
  9
$EXTMAX
 10
171.25786889730901
 20
149.18711534232619
 30
0.0
  9
$LIMMIN
 10
0.0
 20
0.0
  9
$LIMMAX
 10
375.0
 20
270.0
  9
$ORTHOMODE
 70
     1
  9
$REGENMODE
 70
     1
  9
$FILLMODE
 70
     1
  9
$QTEXTMODE
 70
     0
  9
$MIRRTEXT
 70
     0
  9
$DRAGMODE
 70
     2
  9
$LTSCALE
 40
5.0
  9
$OSMODE
 70
  3071
  9
$ATTMODE
 70
     1
  9
$TEXTSIZE
 40
0.2
  9
$TRACEWID
 40
0.05
  9
$TEXTSTYLE
  7
STANDARD
  9
$CLAYER
  8
0
  9
$CELTYPE
  6
BYLAYER
  9
$CECOLOR
 62
   256
  9
$DIMSCALE
 40
1.0
  9
$DIMASZ
 40
3.0
  9
$DIMEXO
 40
2.0
  9
$DIMDLI
 40
0.38
  9
$DIMRND
 40
0.0
  9
$DIMDLE
 40
0.0
  9
$DIMEXE
 40
2.0
  9
$DIMTP
 40
0.0
  9
$DIMTM
 40
0.0
  9
$DIMTXT
 40
3.2000000000000002
  9
$DIMCEN
 40
0.0
  9
$DIMTSZ
 40
0.0
  9
$DIMTOL
 70
     0
  9
$DIMLIM
 70
     0
  9
$DIMTIH
 70
     0
  9
$DIMTOH
 70
     0
  9
$DIMSE1
 70
     0
  9
$DIMSE2
 70
     0
  9
$DIMTAD
 70
     1
  9
$DIMZIN
 70
     0
  9
$DIMBLK
  1

  9
$DIMASO
 70
     0
  9
$DIMSHO
 70
     0
  9
$DIMPOST
  1

  9
$DIMAPOST
  1

  9
$DIMALT
 70
     0
  9
$DIMALTD
 70
     2
  9
$DIMALTF
 40
25.399999999999999
  9
$DIMLFAC
 40
1.0
  9
$DIMTOFL
 70
     1
  9
$DIMTVP
 40
1.6000000000000001
  9
$DIMTIX
 70
     1
  9
$DIMSOXD
 70
     0
  9
$DIMSAH
 70
     0
  9
$DIMBLK1
  1

  9
$DIMBLK2
  1

  9
$DIMSTYLE
  2
STANDARD
  9
$DIMCLRD
 70
     0
  9
$DIMCLRE
 70
     0
  9
$DIMCLRT
 70
     0
  9
$DIMTFAC
 40
1.0
  9
$DIMGAP
 40
0.09
  9
$LUNITS
 70
     2
  9
$LUPREC
 70
     4
  9
$SKETCHINC
 40
0.1
  9
$FILLETRAD
 40
2.0
  9
$AUNITS
 70
     0
  9
$AUPREC
 70
     4
  9
$MENU
  1
E:\r13\win\SUPPORT\ACAD
  9
$ELEVATION
 40
0.0
  9
$PELEVATION
 40
0.0
  9
$THICKNESS
 40
0.0
  9
$LIMCHECK
 70
     0
  9
$BLIPMODE
 70
     0
  9
$CHAMFERA
 40
0.0
  9
$CHAMFERB
 40
0.0
  9
$SKPOLY
 70
     0
  9
$TDCREATE
 40
2449840.6513888892
  9
$TDUPDATE
 40
2456598.4961536569
  9
$TDINDWG
 40
0.5919359954
  9
$TDUSRTIMER
 40
0.5919359954
  9
$USRTIMER
 70
     1
  9
$ANGBASE
 50
0.0
  9
$ANGDIR
 70
     0
  9
$PDMODE
 70
     0
  9
$PDSIZE
 40
0.0
  9
$PLINEWID
 40
0.0
  9
$COORDS
 70
     1
  9
$SPLFRAME
 70
     0
  9
$SPLINETYPE
 70
     6
  9
$SPLINESEGS
 70
     8
  9
$ATTDIA
 70
     0
  9
$ATTREQ
 70
     1
  9
$HANDLING
 70
     1
  9
$HANDSEED
  5
412
  9
$SURFTAB1
 70
     6
  9
$SURFTAB2
 70
     6
  9
$SURFTYPE
 70
     6
  9
$SURFU
 70
     6
  9
$SURFV
 70
     6
  9
$UCSNAME
  2

  9
$UCSORG
 10
0.0
 20
0.0
 30
0.0
  9
$UCSXDIR
 10
1.0
 20
0.0
 30
0.0
  9
$UCSYDIR
 10
0.0
 20
1.0
 30
0.0
  9
$PUCSNAME
  2

  9
$PUCSORG
 10
0.0
 20
0.0
 30
0.0
  9
$PUCSXDIR
 10
1.0
 20
0.0
 30
0.0
  9
$PUCSYDIR
 10
0.0
 20
1.0
 30
0.0
  9
$USERI1
 70
     0
  9
$USERI2
 70
     1
  9
$USERI3
 70
     0
  9
$USERI4
 70
     0
  9
$USERI5
 70
     0
  9
$USERR1
 40
0.0
  9
$USERR2
 40
0.0
  9
$USERR3
 40
0.0
  9
$USERR4
 40
0.0
  9
$USERR5
 40
0.0
  9
$WORLDVIEW
 70
     1
  9
$SHADEDGE
 70
     3
  9
$SHADEDIF
 70
    70
  9
$TILEMODE
 70
     1
  9
$MAXACTVP
 70
    16
  9
$PLIMCHECK
 70
     0
  9
$PEXTMIN
 10
1.0000000000000000E+020
 20
1.0000000000000000E+020
 30
1.0000000000000000E+020
  9
$PEXTMAX
 10
-1.0000000000000000E+020
 20
-1.0000000000000000E+020
 30
-1.0000000000000000E+020
  9
$PLIMMIN
 10
0.0
 20
0.0
  9
$PLIMMAX
 10
12.0
 20
9.0
  9
$UNITMODE
 70
     0
  9
$VISRETAIN
 70
     0
  9
$PLINEGEN
 70
     0
  9
$PSLTSCALE
 70
     0
  0
ENDSEC
  0
SECTION
  2
TABLES
  0
TABLE
  2
VPORT
 70
     1
  0
VPORT
  2
*ACTIVE
 70
     0
 10
0.0
 20
0.0
 11
1.0
 21
1.0
 12
195.0581083320873
 22
133.5127261426681
 13
0.0
 23
0.0
 14
5.0
 24
5.0
 15
10.0
 25
10.0
 16
0.0
 26
0.0
 36
1.0
 17
0.0
 27
0.0
 37
0.0
 40
275.42274993631997
 41
1.831871345029239
 42
50.0
 43
0.0
 44
0.0
 50
0.0
 51
0.0
 71
     0
 72
   500
 73
     1
 74
     0
 75
     0
 76
     0
 77
     0
 78
     2
  0
ENDTAB
  0
TABLE
  2
LTYPE
 70
     4
  0
LTYPE
  2
CONTINUOUS
 70
     0
  3
Solid Line
 72
    65
 73
     0
 40
0.0
  0
LTYPE
  2
CENTER
 70
     0
  3
____ _ ____ _ ____ _ ____ _ ____ _ ____ _ ____
 72
    65
 73
     4
 40
2.0
 49
1.25
 49
-0.25
 49
0.25
 49
-0.25
  0
LTYPE
  2
HIDDEN
 70
     0
  3
_ _ _ _ _ _ _ _ _ _ _ _ _ _ _ _ _ _ _ _ _ _ _
 72
    65
 73
     2
 40
0.375
 49
0.25
 49
-0.125
  0
LTYPE
  2
PHANTOM2
 70
     0
  3
Phantom (.5x) ___ _ _ ___ _ _ ___ _ _ ___ _ _
 72
    65
 73
     6
 40
1.25
 49
0.625
 49
-0.125
 49
0.125
 49
-0.125
 49
0.125
 49
-0.125
  0
ENDTAB
  0
TABLE
  2
LAYER
 70
     4
  0
LAYER
  2
0
 70
     0
 62
     7
  6
CONTINUOUS
  0
LAYER
  2
1
 70
     0
 62
     1
  6
CENTER
  0
LAYER
  2
2
 70
     0
 62
     2
  6
HIDDEN
  0
LAYER
  2
5
 70
     0
 62
     3
  6
PHANTOM2
  0
ENDTAB
  0
TABLE
  2
STYLE
 70
     2
  0
STYLE
  2
STANDARD
 70
     0
 40
0.0
 41
1.0
 50
0.0
 71
     0
 42
0.2
  3
TXT
  4
BIGFONT
  0
STYLE
  2
STANDARD1
 70
     0
 40
0.0
 41
1.0
 50
0.0
 71
     0
 42
3.0
  3
txt
  4

  0
ENDTAB
  0
TABLE
  2
VIEW
 70
     1
  0
VIEW
  2
ALL
 70
     0
 40
270.0
 10
220.99159663865549
 20
135.0
 41
0.0
 11
0.0
 21
0.0
 31
1.0
 12
0.0
 22
0.0
 32
0.0
 42
0.0
 43
0.0
 44
0.0
 50
0.0
 71
     0
  0
ENDTAB
  0
TABLE
  2
UCS
 70
     0
  0
ENDTAB
  0
TABLE
  2
APPID
 70
     3
  0
APPID
  2
ACAD
 70
     0
  0
APPID
  2
ACAD_MLEADERVER
 70
     0
  0
APPID
  2
ACAD_NAV_VCDISPLAY
 70
     0
  0
ENDTAB
  0
TABLE
  2
DIMSTYLE
 70
     1
  0
DIMSTYLE
  2
STANDARD
 70
     0
  3

  4

  5

  6

  7

 40
1.0
 41
0.18
 42
0.0625
 43
0.38
 44
0.18
 45
0.0
 46
0.0
 47
0.0
 48
0.0
140
0.18
141
0.09
142
0.0
143
25.399999999999999
144
1.0
145
0.0
146
1.0
147
0.09
 71
     0
 72
     0
 73
     1
 74
     1
 75
     0
 76
     0
 77
     0
 78
     0
170
     0
171
     2
172
     0
173
     0
174
     0
175
     0
176
     0
177
     0
178
     0
  0
ENDTAB
  0
ENDSEC
  0
SECTION
  2
BLOCKS
  0
BLOCK
  8
0
  2
$MODEL_SPACE
 70
     0
 10
0.0
 20
0.0
 30
0.0
  3
$MODEL_SPACE
  1

  0
ENDBLK
  5
9
  8
0
  0
BLOCK
 67
     1
  8
0
  2
$PAPER_SPACE
 70
     0
 10
0.0
 20
0.0
 30
0.0
  3
$PAPER_SPACE
  1

  0
ENDBLK
  5
F
 67
     1
  8
0
  0
ENDSEC
  0
SECTION
  2
ENTITIES
  0
LINE
  5
EC
  8
0
 10
131.7578231468014
 20
60.683969591818929
 30
0.0
 11
131.7578231468014
 21
65.692351499740226
 31
0.0
  0
LINE
  5
ED
  8
0
 10
132.2578231468014
 20
60.183969591818929
 30
0.0
 11
131.7578231468014
 21
60.683969591818929
 31
0.0
  0
LINE
  5
EE
  8
0
 10
132.2578231468014
 20
66.192351499740226
 30
0.0
 11
131.7578231468014
 21
65.692351499740226
 31
0.0
  0
LINE
  5
EF
  8
0
 10
171.25786889730901
 20
59.183969591818943
 30
0.0
 11
170.75786889730901
 21
58.683969591818929
 31
0.0
  0
LINE
  5
F0
  8
0
 10
171.25786889730901
 20
73.183969591818936
 30
0.0
 11
171.25786889730901
 21
59.183969591818943
 31
0.0
  0
ARC
  5
F1
  8
0
 10
169.75786889730901
 20
73.183969591818936
 30
0.0
 40
1.500000000000014
 50
0.0
 51
90.0
  0
ARC
  5
F2
  8
0
 10
142.46497567849539
 20
60.683969591818929
 30
0.0
 40
0.5
 50
270.0
 51
314.99999999999631
  0
LINE
  5
F3
  8
0
 10
141.75786889730901
 20
60.183969591818929
 30
0.0
 11
142.46497567849539
 21
60.183969591818929
 31
0.0
  0
ARC
  5
F4
  8
0
 10
141.75786889730901
 20
59.683969591818943
 30
0.0
 40
0.5
 50
90.0
 51
180.0000000000004
  0
LINE
  5
F5
  8
0
 10
141.25786889730901
 20
59.183969591818943
 30
0.0
 11
141.25786889730901
 21
59.683969591818943
 31
0.0
  0
LINE
  5
F6
  8
0
 10
141.25786889730901
 20
59.183969591818943
 30
0.0
 11
141.75786889730901
 21
58.683969591818929
 31
0.0
  0
LINE
  5
F7
  8
0
 10
170.7578688973087
 20
58.683969591818759
 30
0.0
 11
141.75786889730901
 21
58.683969591818929
 31
0.0
  0
LINE
  5
F8
  8
0
 10
142.81522809554579
 20
60.327115227682782
 30
0.0
 11
156.73274263146189
 21
74.244629763598823
 31
0.0
  0
ARC
  5
F9
  8
0
 10
157.7934028032418
 20
73.183969591818936
 30
0.0
 40
1.5
 50
90.0
 51
134.99999999999869
  0
LINE
  5
FA
  8
0
 10
142.46497567849539
 20
60.183969591818929
 30
0.0
 11
132.2578231468014
 21
60.183969591818929
 31
0.0
  0
LINE
  5
FB
  8
1
  6
BYBLOCK
 10
79.257823146801286
 20
149.18711534232619
 30
0.0
 11
79.2578231468014
 21
99.683969591818951
 31
0.0
  0
LINE
  5
FC
  8
0
  6
BYBLOCK
 10
79.2578231468014
 20
130.4548822952928
 30
0.0
 11
79.2578231468014
 21
131.40947644989461
 31
0.0
  0
LINE
  5
FD
  8
0
  6
BYBLOCK
 10
80.524808849920362
 20
130.8922317025542
 30
0.0
 11
79.2578231468014
 21
131.40947644989461
 31
0.0
  0
LINE
  5
FE
  8
0
  6
BYBLOCK
 10
79.2578231468014
 20
131.40947644989461
 30
0.0
 11
77.990837443682551
 21
130.89223170255431
 31
0.0
  0
POLYLINE
  5
FF
  8
0
  6
BYBLOCK
 66
     1
 10
0.0
 20
0.0
 30
0.0
 70
   128
  0
VERTEX
  5
2E6
  8
0
  6
BYBLOCK
 10
76.773991885152483
 20
132.6747887965451
 30
0.0
  0
VERTEX
  5
2E7
  8
0
  6
BYBLOCK
 10
77.233906431189496
 20
132.8392909905543
 30
0.0
  0
VERTEX
  5
2E8
  8
0
  6
BYBLOCK
 10
77.835185213646298
 20
132.99575685680779
 30
0.0
  0
VERTEX
  5
2E9
  8
0
  6
BYBLOCK
 10
78.459823671634524
 20
133.09656882444989
 30
0.0
  0
VERTEX
  5
2EA
  8
0
  6
BYBLOCK
 10
79.097565258943121
 20
133.14007156375891
 30
0.0
  0
VERTEX
  5
2EB
  8
0
  6
BYBLOCK
 10
79.737938276339889
 20
133.12555076095811
 30
0.0
  0
VERTEX
  5
2EC
  8
0
  6
BYBLOCK
 10
80.370427816583003
 20
133.053244847228
 30
0.0
  0
VERTEX
  5
2ED
  8
0
  6
BYBLOCK
 10
80.984648418907966
 20
132.92434108367311
 30
0.0
  0
VERTEX
  5
2EE
  8
0
  6
BYBLOCK
 10
81.570514598005687
 20
132.7409560665271
 30
0.0
  0
VERTEX
  5
2EF
  8
0
  6
BYBLOCK
 10
81.741654408450302
 20
132.6747887965451
 30
0.0
  0
SEQEND
  5
2F0
  8
0
  6
BYBLOCK
  0
POLYLINE
  5
100
  8
0
  6
BYBLOCK
 66
     1
 10
0.0
 20
0.0
 30
0.0
 70
   128
  0
VERTEX
  5
2F1
  8
0
  6
BYBLOCK
 10
76.5078231468014
 20
134.34706959181881
 30
0.0
  0
VERTEX
  5
2F2
  8
0
  6
BYBLOCK
 10
76.538538374682332
 20
133.76743120778761
 30
0.0
  0
VERTEX
  5
2F3
  8
0
  6
BYBLOCK
 10
76.629997930889601
 20
133.20074098743211
 30
0.0
  0
VERTEX
  5
2F4
  8
0
  6
BYBLOCK
 10
76.780158760069696
 20
132.65965785384751
 30
0.0
  0
VERTEX
  5
2F5
  8
0
  6
BYBLOCK
 10
76.985666517432435
 20
132.15626871012529
 30
0.0
  0
VERTEX
  5
2F6
  8
0
  6
BYBLOCK
 10
77.241930499269472
 20
131.70181843791059
 30
0.0
  0
VERTEX
  5
2F7
  8
0
  6
BYBLOCK
 10
77.543226191689826
 20
131.30645870532831
 30
0.0
  0
VERTEX
  5
2F8
  8
0
  6
BYBLOCK
 10
77.8828231468014
 20
130.9790211954919
 30
0.0
  0
VERTEX
  5
2F9
  8
0
  6
BYBLOCK
 10
78.253135329793793
 20
130.72682032129711
 30
0.0
  0
VERTEX
  5
2FA
  8
0
  6
BYBLOCK
 10
78.645890578421515
 20
130.55548983352389
 30
0.0
  0
VERTEX
  5
2FB
  8
0
  6
BYBLOCK
 10
79.052315389438775
 20
130.4688569721539
 30
0.0
  0
VERTEX
  5
2FC
  8
0
  6
BYBLOCK
 10
79.463330904164138
 20
130.4688569721539
 30
0.0
  0
VERTEX
  5
2FD
  8
0
  6
BYBLOCK
 10
79.86975571518127
 20
130.55548983352389
 30
0.0
  0
VERTEX
  5
2FE
  8
0
  6
BYBLOCK
 10
80.262510963809007
 20
130.72682032129711
 30
0.0
  0
VERTEX
  5
2FF
  8
0
  6
BYBLOCK
 10
80.6328231468014
 20
130.9790211954919
 30
0.0
  0
VERTEX
  5
300
  8
0
  6
BYBLOCK
 10
80.972420101912974
 20
131.30645870532831
 30
0.0
  0
VERTEX
  5
301
  8
0
  6
BYBLOCK
 10
81.273715794333441
 20
131.70181843791059
 30
0.0
  0
VERTEX
  5
302
  8
0
  6
BYBLOCK
 10
81.529979776170364
 20
132.15626871012529
 30
0.0
  0
VERTEX
  5
303
  8
0
  6
BYBLOCK
 10
81.735487533533103
 20
132.65965785384751
 30
0.0
  0
VERTEX
  5
304
  8
0
  6
BYBLOCK
 10
81.885648362713297
 20
133.20074098743211
 30
0.0
  0
VERTEX
  5
305
  8
0
  6
BYBLOCK
 10
81.977107918920581
 20
133.76743120778761
 30
0.0
  0
VERTEX
  5
306
  8
0
  6
BYBLOCK
 10
82.007823146801385
 20
134.34706959181881
 30
0.0
  0
SEQEND
  5
307
  8
0
  6
BYBLOCK
  0
LINE
  5
101
  8
0
  6
BYBLOCK
 10
66.7578231468014
 20
114.18711534232619
 30
0.0
 11
51.7578231468014
 21
114.18711534232619
 31
0.0
  0
ARC
  5
102
  8
0
  6
BYBLOCK
 10
51.7578231468014
 20
119.18711534232619
 30
0.0
 40
5.0
 50
214.14408951315141
 51
270.00000000000171
  0
POLYLINE
  5
103
  8
0
  6
BYBLOCK
 66
     1
 10
0.0
 20
0.0
 30
0.0
 70
   128
  0
VERTEX
  5
308
  8
0
  6
BYBLOCK
 10
47.619679777928411
 20
116.3807352079444
 30
0.0
  0
VERTEX
  5
309
  8
0
  6
BYBLOCK
 10
47.315348383344649
 20
116.892683391701
 30
0.0
  0
VERTEX
  5
30A
  8
0
  6
BYBLOCK
 10
47.074048338357379
 20
117.43718575980419
 30
0.0
  0
VERTEX
  5
30B
  8
0
  6
BYBLOCK
 10
46.89920329043872
 20
118.0065167266409
 30
0.0
  0
VERTEX
  5
30C
  8
0
  6
BYBLOCK
 10
46.793294000859468
 20
118.59259842995679
 30
0.0
  0
VERTEX
  5
30D
  8
0
  6
BYBLOCK
 10
46.7578231468014
 20
119.18711534232619
 30
0.0
  0
SEQEND
  5
30E
  8
0
  6
BYBLOCK
  0
POLYLINE
  5
104
  8
0
  6
BYBLOCK
 66
     1
 10
0.0
 20
0.0
 30
0.0
 70
   128
  0
VERTEX
  5
30F
  8
0
  6
BYBLOCK
 10
47.619679777928411
 20
116.3807352079444
 30
0.0
  0
VERTEX
  5
310
  8
0
  6
BYBLOCK
 10
47.630062766329672
 20
116.36569550734021
 30
0.0
  0
VERTEX
  5
311
  8
0
  6
BYBLOCK
 10
47.715993022685723
 20
116.2582612480583
 30
0.0
  0
VERTEX
  5
312
  8
0
  6
BYBLOCK
 10
48.099187024672062
 20
115.97365681922339
 30
0.0
  0
VERTEX
  5
313
  8
0
  6
BYBLOCK
 10
48.653358818662753
 20
115.799114302134
 30
0.0
  0
VERTEX
  5
314
  8
0
  6
BYBLOCK
 10
49.193419068192782
 20
115.7444745405632
 30
0.0
  0
SEQEND
  5
315
  8
0
  6
BYBLOCK
  0
LINE
  5
105
  8
0
  6
BYBLOCK
 10
46.7578231468014
 20
119.18711534232619
 30
0.0
 11
46.7578231468014
 21
131.19673428555981
 31
0.0
  0
LINE
  5
106
  8
0
  6
BYBLOCK
 10
49.160792194575549
 20
115.7477755141061
 30
0.0
 11
66.7578231468014
 21
115.747775514106
 31
0.0
  0
POLYLINE
  5
107
  8
0
  6
BYBLOCK
 66
     1
 10
0.0
 20
0.0
 30
0.0
 70
   128
  0
VERTEX
  5
316
  8
0
  6
BYBLOCK
 10
48.257823146801393
 20
129.6619890764793
 30
0.0
  0
VERTEX
  5
317
  8
0
  6
BYBLOCK
 10
47.965187663777151
 20
129.68236936426749
 30
0.0
  0
VERTEX
  5
318
  8
0
  6
BYBLOCK
 10
47.683797998253738
 20
129.74272702460189
 30
0.0
  0
VERTEX
  5
319
  8
0
  6
BYBLOCK
 10
47.424467797272023
 20
129.8407425464446
 30
0.0
  0
VERTEX
  5
31A
  8
0
  6
BYBLOCK
 10
47.19716297502162
 20
129.9726492482591
 30
0.0
  0
VERTEX
  5
31B
  8
0
  6
BYBLOCK
 10
47.010618728347652
 20
130.13337802946879
 30
0.0
  0
VERTEX
  5
31C
  8
0
  6
BYBLOCK
 10
46.87200384803446
 20
130.31675217314941
 30
0.0
  0
VERTEX
  5
31D
  8
0
  6
BYBLOCK
 10
46.78664522619664
 20
130.51572471379691
 30
0.0
  0
VERTEX
  5
31E
  8
0
  6
BYBLOCK
 10
46.7578231468014
 20
130.7226492482591
 30
0.0
  0
SEQEND
  5
31F
  8
0
  6
BYBLOCK
  0
ARC
  5
108
  8
0
  6
BYBLOCK
 10
51.7578231468014
 20
131.19673428555981
 30
0.0
 40
4.999999999999992
 50
120.0
 51
180.0000000000004
  0
ARC
  5
109
  8
0
  6
BYBLOCK
 10
65.597569108956975
 20
139.18711534232619
 30
0.0
 40
5.0000000000000053
 50
90.0
 51
120.0
  0
POLYLINE
  5
10A
  8
0
  6
BYBLOCK
 66
     1
 10
0.0
 20
0.0
 30
0.0
 70
   128
  0
VERTEX
  5
320
  8
0
  6
BYBLOCK
 10
84.257823146801385
 20
134.34396959181879
 30
0.0
  0
VERTEX
  5
321
  8
0
  6
BYBLOCK
 10
84.228512932573224
 20
135.1084865028468
 30
0.0
  0
VERTEX
  5
322
  8
0
  6
BYBLOCK
 10
84.140925925351823
 20
135.86404015209749
 30
0.0
  0
VERTEX
  5
323
  8
0
  6
BYBLOCK
 10
83.996089002715451
 20
136.60177236384271
 30
0.0
  0
VERTEX
  5
324
  8
0
  6
BYBLOCK
 10
83.795700245156183
 20
137.3130339024147
 30
0.0
  0
VERTEX
  5
325
  8
0
  6
BYBLOCK
 10
83.542109027639356
 20
137.9894858765864
 30
0.0
  0
VERTEX
  5
326
  8
0
  6
BYBLOCK
 10
83.238288475329625
 20
138.6231975054464
 30
0.0
  0
VERTEX
  5
327
  8
0
  6
BYBLOCK
 10
82.887800606417116
 20
139.20673909955451
 30
0.0
  0
VERTEX
  5
328
  8
0
  6
BYBLOCK
 10
82.494754570710555
 20
139.73326916725711
 30
0.0
  0
VERTEX
  5
329
  8
0
  6
BYBLOCK
 10
82.063758473613291
 20
140.19661462492121
 30
0.0
  0
VERTEX
  5
32A
  8
0
  6
BYBLOCK
 10
81.599865350300377
 20
140.59134317069649
 30
0.0
  0
VERTEX
  5
32B
  8
0
  6
BYBLOCK
 10
81.108513923500993
 20
140.91282697328771
 30
0.0
  0
VERTEX
  5
32C
  8
0
  6
BYBLOCK
 10
80.595464839447516
 20
141.15729692904469
 30
0.0
  0
VERTEX
  5
32D
  8
0
  6
BYBLOCK
 10
80.066733129565307
 20
141.32188685125729
 30
0.0
  0
VERTEX
  5
32E
  8
0
  6
BYBLOCK
 10
79.528517689728517
 20
141.40466707357371
 30
0.0
  0
VERTEX
  5
32F
  8
0
  6
BYBLOCK
 10
78.987128603874396
 20
141.40466707357371
 30
0.0
  0
VERTEX
  5
330
  8
0
  6
BYBLOCK
 10
78.448913164037606
 20
141.32188685125729
 30
0.0
  0
VERTEX
  5
331
  8
0
  6
BYBLOCK
 10
77.920181454155284
 20
141.15729692904469
 30
0.0
  0
VERTEX
  5
332
  8
0
  6
BYBLOCK
 10
77.407132370101806
 20
140.91282697328771
 30
0.0
  0
VERTEX
  5
333
  8
0
  6
BYBLOCK
 10
76.915780943302423
 20
140.59134317069649
 30
0.0
  0
VERTEX
  5
334
  8
0
  6
BYBLOCK
 10
76.451887819989508
 20
140.1966146249211
 30
0.0
  0
VERTEX
  5
335
  8
0
  6
BYBLOCK
 10
76.020891722892245
 20
139.73326916725699
 30
0.0
  0
VERTEX
  5
336
  8
0
  6
BYBLOCK
 10
75.627845687185683
 20
139.20673909955451
 30
0.0
  0
VERTEX
  5
337
  8
0
  6
BYBLOCK
 10
75.277357818273174
 20
138.6231975054464
 30
0.0
  0
VERTEX
  5
338
  8
0
  6
BYBLOCK
 10
74.973537265963444
 20
137.98948587658629
 30
0.0
  0
VERTEX
  5
339
  8
0
  6
BYBLOCK
 10
74.719946048446616
 20
137.3130339024147
 30
0.0
  0
VERTEX
  5
33A
  8
0
  6
BYBLOCK
 10
74.519557290887349
 20
136.60177236384271
 30
0.0
  0
VERTEX
  5
33B
  8
0
  6
BYBLOCK
 10
74.374720368250962
 20
135.86404015209749
 30
0.0
  0
VERTEX
  5
33C
  8
0
  6
BYBLOCK
 10
74.287133361029575
 20
135.1084865028468
 30
0.0
  0
VERTEX
  5
33D
  8
0
  6
BYBLOCK
 10
74.2578231468014
 20
134.34396959181879
 30
0.0
  0
SEQEND
  5
33E
  8
0
  6
BYBLOCK
  0
LINE
  5
10B
  8
0
  6
BYBLOCK
 10
65.597569108956975
 20
144.18711534232619
 30
0.0
 11
92.918077184645824
 21
144.18711534232619
 31
0.0
  0
LINE
  5
10C
  8
0
  6
BYBLOCK
 10
66.2578231468014
 20
129.51554246707249
 30
0.0
 11
63.755720170084651
 21
129.51554246707249
 31
0.0
  0
POLYLINE
  5
10D
  8
0
  6
BYBLOCK
 66
     1
 10
0.0
 20
0.0
 30
0.0
 70
   128
  0
VERTEX
  5
33F
  8
0
  6
BYBLOCK
 10
66.7578231468014
 20
127.3942221235129
 30
0.0
  0
VERTEX
  5
340
  8
0
  6
BYBLOCK
 10
66.750227023307559
 20
127.7625855354198
 30
0.0
  0
VERTEX
  5
341
  8
0
  6
BYBLOCK
 10
66.727669457194395
 20
128.11975641145679
 30
0.0
  0
VERTEX
  5
342
  8
0
  6
BYBLOCK
 10
66.690835848693666
 20
128.4548822952928
 30
0.0
  0
VERTEX
  5
343
  8
0
  6
BYBLOCK
 10
66.640845368360885
 20
128.7577805565291
 30
0.0
  0
VERTEX
  5
344
  8
0
  6
BYBLOCK
 10
66.579216951644696
 20
129.01924778477201
 30
0.0
  0
VERTEX
  5
345
  8
0
  6
BYBLOCK
 10
66.5078231468014
 20
129.23133943060029
 30
0.0
  0
VERTEX
  5
346
  8
0
  6
BYBLOCK
 10
66.428833218464263
 20
129.38761119667899
 30
0.0
  0
VERTEX
  5
347
  8
0
  6
BYBLOCK
 10
66.344647235634909
 20
129.483314844473
 30
0.0
  0
VERTEX
  5
348
  8
0
  6
BYBLOCK
 10
66.2578231468014
 20
129.51554246707249
 30
0.0
  0
SEQEND
  5
349
  8
0
  6
BYBLOCK
  0
LINE
  5
10E
  8
0
  6
BYBLOCK
 10
49.2578231468014
 20
135.52686130448191
 30
0.0
 11
63.097569108957089
 21
143.51724236124849
 31
0.0
  0
LINE
  5
10F
  8
1
 10
79.2578231468014
 20
53.68396959181888
 30
0.0
 11
79.2578231468014
 21
79.683969591818936
 31
0.0
  0
LINE
  5
110
  8
1
 10
56.7578231468014
 20
56.18396959181888
 30
0.0
 11
56.757823146801279
 21
77.183969591818865
 31
0.0
  0
LINE
  5
111
  8
2
 10
61.2578231468014
 20
58.683969591818929
 30
0.0
 11
61.2578231468014
 21
65.683969591818936
 31
0.0
  0
LINE
  5
112
  8
2
 10
52.2578231468014
 20
65.683969591818936
 30
0.0
 11
52.2578231468014
 21
58.683969591818929
 31
0.0
  0
LINE
  5
113
  8
2
 10
63.7578231468014
 20
65.683969591818936
 30
0.0
 11
63.7578231468014
 21
74.683969591818936
 31
0.0
  0
LINE
  5
114
  8
2
 10
49.7578231468014
 20
74.683969591818936
 30
0.0
 11
49.7578231468014
 21
65.683969591818936
 31
0.0
  0
LINE
  5
115
  8
2
 10
49.7578231468014
 20
65.683969591818936
 30
0.0
 11
63.7578231468014
 21
65.683969591818936
 31
0.0
  0
POLYLINE
  5
116
  8
0
 66
     1
 10
0.0
 20
0.0
 30
0.0
 70
   128
  0
VERTEX
  5
34A
  8
0
 10
76.613737369916578
 20
60.183969591818929
 30
0.0
  0
VERTEX
  5
34B
  8
0
 10
76.857823146801422
 20
60.077320010901182
 30
0.0
  0
VERTEX
  5
34C
  8
0
 10
77.420942671449041
 20
59.88095658653765
 30
0.0
  0
VERTEX
  5
34D
  8
0
 10
78.015491730309293
 20
59.738246733158348
 30
0.0
  0
VERTEX
  5
34E
  8
0
 10
78.631297424145203
 20
59.651632255921072
 30
0.0
  0
VERTEX
  5
34F
  8
0
 10
79.2578231468014
 20
59.62259515254555
 30
0.0
  0
VERTEX
  5
350
  8
0
 10
79.88434886945771
 20
59.651632255921072
 30
0.0
  0
VERTEX
  5
351
  8
0
 10
80.500154563293506
 20
59.738246733158348
 30
0.0
  0
VERTEX
  5
352
  8
0
 10
81.094703622153887
 20
59.88095658653765
 30
0.0
  0
VERTEX
  5
353
  8
0
 10
81.657823146801476
 20
60.077320010901182
 30
0.0
  0
VERTEX
  5
354
  8
0
 10
81.901908923686221
 20
60.183969591818929
 30
0.0
  0
SEQEND
  5
355
  8
0
  0
LINE
  5
117
  8
0
 10
68.7578231468014
 20
74.683969591818936
 30
0.0
 11
89.7578231468014
 21
74.683969591818936
 31
0.0
  0
ARC
  5
118
  8
0
 10
48.257823146801393
 20
73.183969591818936
 30
0.0
 40
1.5000000000000071
 50
90.0
 51
180.0000000000004
  0
LINE
  5
119
  8
0
 10
48.257823146801393
 20
74.683969591818936
 30
0.0
 11
110.2578231468014
 21
74.683969591818936
 31
0.0
  0
POLYLINE
  5
11A
  8
0
 66
     1
 10
0.0
 20
0.0
 30
0.0
 70
   128
  0
VERTEX
  5
356
  8
0
 10
75.6147516927021
 20
60.183969591818929
 30
0.0
  0
VERTEX
  5
357
  8
0
 10
76.229822566403683
 20
59.40017790085551
 30
0.0
  0
VERTEX
  5
358
  8
0
 10
76.612461022043192
 20
59.026659681160027
 30
0.0
  0
VERTEX
  5
359
  8
0
 10
77.04824151357019
 20
58.683969591818929
 30
0.0
  0
SEQEND
  5
35A
  8
0
  0
POLYLINE
  5
11B
  8
0
 66
     1
 10
0.0
 20
0.0
 30
0.0
 70
   128
  0
VERTEX
  5
35B
  8
0
 10
81.467404780032709
 20
58.683969591818929
 30
0.0
  0
VERTEX
  5
35C
  8
0
 10
82.169650577667369
 20
59.278852819987939
 30
0.0
  0
VERTEX
  5
35D
  8
0
 10
82.900894600900813
 20
60.183969591818929
 30
0.0
  0
SEQEND
  5
35E
  8
0
  0
LINE
  5
11C
  8
0
 10
84.257823146801385
 20
60.183969591818929
 30
0.0
 11
84.257823146801385
 21
58.683969591818588
 31
0.0
  0
LINE
  5
11D
  8
0
 10
74.2578231468014
 20
60.183969591818929
 30
0.0
 11
74.2578231468014
 21
58.683969591818709
 31
0.0
  0
LINE
  5
11E
  8
0
 10
46.7578231468014
 20
59.183969591818943
 30
0.0
 11
46.7578231468014
 21
73.183969591818936
 31
0.0
  0
POLYLINE
  5
11F
  8
0
 66
     1
 10
0.0
 20
0.0
 30
0.0
 70
   128
  0
VERTEX
  5
35F
  8
0
 10
64.021068830753677
 20
74.683969591818936
 30
0.0
  0
VERTEX
  5
360
  8
0
 10
63.842680412000107
 20
72.819597535031789
 30
0.0
  0
VERTEX
  5
361
  8
0
 10
63.49051031527295
 20
71.568989000175975
 30
0.0
  0
VERTEX
  5
362
  8
0
 10
63.090792838091431
 20
70.688662469594135
 30
0.0
  0
VERTEX
  5
363
  8
0
 10
62.584189197060198
 20
69.881221077211478
 30
0.0
  0
VERTEX
  5
364
  8
0
 10
61.970699392179249
 20
69.146664823028004
 30
0.0
  0
VERTEX
  5
365
  8
0
 10
61.445730346074178
 20
68.648360627377201
 30
0.0
  0
VERTEX
  5
366
  8
0
 10
60.879927524155789
 20
68.209730534346306
 30
0.0
  0
VERTEX
  5
367
  8
0
 10
60.273290926424067
 20
67.830774543935433
 30
0.0
  0
VERTEX
  5
368
  8
0
 10
59.62582055287902
 20
67.511492656144583
 30
0.0
  0
VERTEX
  5
369
  8
0
 10
58.948951251029307
 20
67.256720881862975
 30
0.0
  0
VERTEX
  5
36A
  8
0
 10
58.257223591262402
 20
67.072641170886982
 30
0.0
  0
VERTEX
  5
36B
  8
0
 10
57.550637573578172
 20
66.959253523216603
 30
0.0
  0
VERTEX
  5
36C
  8
0
 10
56.829193197976728
 20
66.916557938851781
 30
0.0
  0
VERTEX
  5
36D
  8
0
 10
56.10793829969537
 20
66.944771860079015
 30
0.0
  0
VERTEX
  5
36E
  8
0
 10
55.399544115864558
 20
67.044088764900494
 30
0.0
  0
VERTEX
  5
36F
  8
0
 10
54.704010646484271
 20
67.214508653316273
 30
0.0
  0
VERTEX
  5
370
  8
0
 10
54.021337891554531
 20
67.456031525326225
 30
0.0
  0
VERTEX
  5
371
  8
0
 10
53.368235438023419
 20
67.762034687807386
 30
0.0
  0
VERTEX
  5
372
  8
0
 10
52.754407431833378
 20
68.128765761767227
 30
0.0
  0
VERTEX
  5
373
  8
0
 10
52.179853872984438
 20
68.556224747205647
 30
0.0
  0
VERTEX
  5
374
  8
0
 10
51.644574761476569
 20
69.044411644122761
 30
0.0
  0
VERTEX
  5
375
  8
0
 10
51.016525127979151
 20
69.766579603704258
 30
0.0
  0
VERTEX
  5
376
  8
0
 10
50.493978661148901
 20
70.563799644947153
 30
0.0
  0
VERTEX
  5
377
  8
0
 10
50.076935360985708
 20
71.436071767851374
 30
0.0
  0
VERTEX
  5
378
  8
0
 10
49.672711007850523
 20
72.819446259959363
 30
0.0
  0
VERTEX
  5
379
  8
0
 10
49.513650250797753
 20
74.683969591818936
 30
0.0
  0
SEQEND
  5
37A
  8
0
  0
LINE
  5
120
  8
0
 10
111.2578231468014
 20
58.683969591818929
 30
0.0
 11
47.2578231468014
 21
58.683969591818929
 31
0.0
  0
POLYLINE
  5
121
  8
0
 66
     1
 10
0.0
 20
0.0
 30
0.0
 70
   128
  0
VERTEX
  5
37B
  8
0
 10
47.619679777928411
 20
59.683969591818943
 30
0.0
  0
VERTEX
  5
37C
  8
0
 10
47.315348383344769
 20
60.042333320448449
 30
0.0
  0
VERTEX
  5
37D
  8
0
 10
47.074048338357379
 20
60.423484978120769
 30
0.0
  0
VERTEX
  5
37E
  8
0
 10
46.89920329043872
 20
60.822016654906399
 30
0.0
  0
VERTEX
  5
37F
  8
0
 10
46.793294000859468
 20
61.232273847227589
 30
0.0
  0
VERTEX
  5
380
  8
0
 10
46.7578231468014
 20
61.64843568588617
 30
0.0
  0
SEQEND
  5
381
  8
0
  0
LINE
  5
122
  8
0
 10
66.2578231468014
 20
59.683969591818943
 30
0.0
 11
47.619679777928411
 21
59.683969591818943
 31
0.0
  0
LINE
  5
123
  8
0
 10
46.7578231468014
 20
59.183969591818943
 30
0.0
 11
47.2578231468014
 21
58.683969591818929
 31
0.0
  0
LINE
  5
124
  8
0
 10
85.948422070043037
 20
58.683969591818929
 30
0.0
 11
85.948422070042895
 21
60.183969591818823
 31
0.0
  0
LINE
  5
125
  8
0
 10
68.58466941640603
 20
74.683969591818936
 30
0.0
 11
68.7578231468014
 21
74.683969591818936
 31
0.0
  0
POLYLINE
  5
126
  8
0
 66
     1
 10
0.0
 20
0.0
 30
0.0
 70
   128
  0
VERTEX
  5
382
  8
0
 10
66.7578231468014
 20
60.683969591818929
 30
0.0
  0
VERTEX
  5
383
  8
0
 10
66.711848289369684
 20
60.433969591818943
 30
0.0
  0
VERTEX
  5
384
  8
0
 10
66.66305587298865
 20
60.183969591818929
 30
0.0
  0
SEQEND
  5
385
  8
0
  0
LINE
  5
127
  8
0
 10
51.7578231468014
 20
59.683969591818943
 30
0.0
 11
51.7578231468014
 21
58.683969591818929
 31
0.0
  0
LINE
  5
128
  8
0
 10
72.56722422355989
 20
58.683969591818929
 30
0.0
 11
72.56722422355989
 21
60.183969591818823
 31
0.0
  0
POLYLINE
  5
129
  8
0
 66
     1
 10
0.0
 20
0.0
 30
0.0
 70
   128
  0
VERTEX
  5
386
  8
0
 10
66.66305587298865
 20
60.183969591818929
 30
0.0
  0
VERTEX
  5
387
  8
0
 10
66.40792912945966
 20
59.837578440657808
 30
0.0
  0
VERTEX
  5
388
  8
0
 10
66.260985408650356
 20
59.687131885290277
 30
0.0
  0
VERTEX
  5
389
  8
0
 10
66.2578231468014
 20
59.683969591818943
 30
0.0
  0
SEQEND
  5
38A
  8
0
  0
CIRCLE
  5
12A
  8
0
  6
BYBLOCK
 10
56.7578231468014
 20
129.68711534232619
 30
0.0
 40
4.5
  0
CIRCLE
  5
12B
  8
0
  6
BYBLOCK
 10
56.7578231468014
 20
129.68711534232619
 30
0.0
 40
7.0
  0
LINE
  5
12C
  8
0
  6
BYBLOCK
 10
48.257823146801393
 20
129.6619890764793
 30
0.0
 11
49.757868241892027
 21
129.6619890764793
 31
0.0
  0
LINE
  5
12D
  8
0
  6
BYBLOCK
 10
91.757823146801513
 20
119.4081163932949
 30
0.0
 11
66.757823146801513
 21
119.4081163932949
 31
0.0
  0
LINE
  5
12E
  8
0
  6
BYBLOCK
 10
91.757823146801513
 20
117.67606558572611
 30
0.0
 11
66.757823146801513
 21
117.67606558572599
 31
0.0
  0
LINE
  5
12F
  8
0
  6
BYBLOCK
 10
76.507823146801513
 20
134.34392384131161
 30
0.0
 11
70.257759637341849
 21
134.34392384131161
 31
0.0
  0
LINE
  5
130
  8
0
  6
BYBLOCK
 10
66.757823146801513
 20
106.1870695918188
 30
0.0
 11
66.757823146801513
 21
128.6870695918193
 31
0.0
  0
LINE
  5
131
  8
0
  6
BYBLOCK
 10
91.757823146801513
 20
106.1870695918188
 30
0.0
 11
91.757823146801513
 21
128.68706959181921
 31
0.0
  0
LINE
  5
132
  8
0
  6
BYBLOCK
 10
72.567160714100339
 20
128.68706959181921
 30
0.0
 11
66.757823146801513
 21
128.68706959181921
 31
0.0
  0
LINE
  5
133
  8
0
  6
BYBLOCK
 10
72.567160714100453
 20
128.68706959181921
 30
0.0
 11
70.257759637341849
 21
134.34392384131161
 31
0.0
  0
LINE
  5
134
  8
0
  6
BYBLOCK
 10
85.948485579502574
 20
128.68706959181921
 30
0.0
 11
88.257886656261178
 21
134.34392384131161
 31
0.0
  0
LINE
  5
135
  8
0
  6
BYBLOCK
 10
85.948485579502687
 20
128.68706959181921
 30
0.0
 11
91.757823146801513
 21
128.68706959181921
 31
0.0
  0
LINE
  5
136
  8
0
  6
BYBLOCK
 10
82.007823146801513
 20
134.34392384131161
 30
0.0
 11
88.257886656261178
 21
134.34392384131161
 31
0.0
  0
ARC
  5
137
  8
0
  6
BYBLOCK
 10
90.257823146801513
 20
106.1870695918188
 30
0.0
 40
1.5
 50
270.0
 51
0.0
  0
ARC
  5
138
  8
0
  6
BYBLOCK
 10
68.257823146801627
 20
106.1870695918189
 30
0.0
 40
1.5
 50
180.0
 51
270.0
  0
LINE
  5
139
  8
0
  6
BYBLOCK
 10
81.257823146801286
 20
104.6870695918189
 30
0.0
 11
90.257823146801513
 21
104.6870695918189
 31
0.0
  0
LINE
  5
13A
  8
0
  6
BYBLOCK
 10
79.257823146801513
 20
106.6870695918189
 30
0.0
 11
81.257823146801286
 21
104.6870695918189
 31
0.0
  0
LINE
  5
13B
  8
0
  6
BYBLOCK
 10
77.257823146801741
 20
104.6870695918189
 30
0.0
 11
79.257823146801513
 21
106.6870695918189
 31
0.0
  0
LINE
  5
13C
  8
0
  6
BYBLOCK
 10
68.257823146801627
 20
104.6870695918189
 30
0.0
 11
77.257823146801741
 21
104.6870695918189
 31
0.0
  0
LINE
  5
13D
  8
1
  6
BYBLOCK
 10
47.2578231468014
 20
129.68711534232619
 30
0.0
 11
66.2578231468014
 21
129.68711534232619
 31
0.0
  0
LINE
  5
13E
  8
1
  6
BYBLOCK
 10
56.7578231468014
 20
120.18711534232619
 30
0.0
 11
56.7578231468014
 21
139.18711534232619
 31
0.0
  0
LINE
  5
13F
  8
1
  6
BYBLOCK
 10
101.7578231468014
 20
120.18711534232619
 30
0.0
 11
101.7578231468014
 21
139.18711534232619
 31
0.0
  0
LINE
  5
140
  8
1
  6
BYBLOCK
 10
111.2578231468014
 20
129.68711534232619
 30
0.0
 11
92.2578231468014
 21
129.68711534232619
 31
0.0
  0
LINE
  5
141
  8
0
  6
BYBLOCK
 10
110.2578231468014
 20
129.6619890764793
 30
0.0
 11
108.7577780517108
 21
129.6619890764793
 31
0.0
  0
CIRCLE
  5
142
  8
0
  6
BYBLOCK
 10
101.7578231468014
 20
129.68711534232619
 30
0.0
 40
7.0
  0
CIRCLE
  5
143
  8
0
  6
BYBLOCK
 10
101.7578231468014
 20
129.68711534232619
 30
0.0
 40
4.5
  0
LINE
  5
144
  8
0
  6
BYBLOCK
 10
109.2578231468014
 20
135.52686130448191
 30
0.0
 11
95.418077184645711
 21
143.51724236124849
 31
0.0
  0
LINE
  5
145
  8
0
  6
BYBLOCK
 10
92.2578231468014
 20
129.51554246707249
 30
0.0
 11
94.759926123518156
 21
129.51554246707249
 31
0.0
  0
ARC
  5
146
  8
0
  6
BYBLOCK
 10
92.918077184645824
 20
139.18711534232619
 30
0.0
 40
5.0000000000000053
 50
59.999999999999972
 51
90.0
  0
ARC
  5
147
  8
0
  6
BYBLOCK
 10
106.7578231468014
 20
131.19673428555981
 30
0.0
 40
4.999999999999992
 50
359.9999999999996
 51
59.999999999999972
  0
POLYLINE
  5
148
  8
0
  6
BYBLOCK
 66
     1
 10
0.0
 20
0.0
 30
0.0
 70
   128
  0
VERTEX
  5
38B
  8
0
  6
BYBLOCK
 10
110.2578231468014
 20
129.6619890764793
 30
0.0
  0
VERTEX
  5
38C
  8
0
  6
BYBLOCK
 10
110.5504586298256
 20
129.68236936426749
 30
0.0
  0
VERTEX
  5
38D
  8
0
  6
BYBLOCK
 10
110.831848295349
 20
129.74272702460189
 30
0.0
  0
VERTEX
  5
38E
  8
0
  6
BYBLOCK
 10
111.0911784963307
 20
129.8407425464446
 30
0.0
  0
VERTEX
  5
38F
  8
0
  6
BYBLOCK
 10
111.3184833185812
 20
129.9726492482591
 30
0.0
  0
VERTEX
  5
390
  8
0
  6
BYBLOCK
 10
111.50502756525511
 20
130.13337802946879
 30
0.0
  0
VERTEX
  5
391
  8
0
  6
BYBLOCK
 10
111.6436424455683
 20
130.31675217314941
 30
0.0
  0
VERTEX
  5
392
  8
0
  6
BYBLOCK
 10
111.7290010674061
 20
130.51572471379691
 30
0.0
  0
VERTEX
  5
393
  8
0
  6
BYBLOCK
 10
111.7578231468014
 20
130.7226492482591
 30
0.0
  0
SEQEND
  5
394
  8
0
  6
BYBLOCK
  0
LINE
  5
149
  8
0
  6
BYBLOCK
 10
109.35485409902719
 20
115.7477755141061
 30
0.0
 11
91.757823146801385
 21
115.747775514106
 31
0.0
  0
LINE
  5
14A
  8
0
  6
BYBLOCK
 10
111.7578231468014
 20
119.18711534232619
 30
0.0
 11
111.7578231468014
 21
131.19673428555981
 31
0.0
  0
POLYLINE
  5
14B
  8
0
  6
BYBLOCK
 66
     1
 10
0.0
 20
0.0
 30
0.0
 70
   128
  0
VERTEX
  5
395
  8
0
  6
BYBLOCK
 10
110.8959665156744
 20
116.3807352079444
 30
0.0
  0
VERTEX
  5
396
  8
0
  6
BYBLOCK
 10
110.8855835272731
 20
116.36569550734021
 30
0.0
  0
VERTEX
  5
397
  8
0
  6
BYBLOCK
 10
110.79965327091701
 20
116.2582612480583
 30
0.0
  0
VERTEX
  5
398
  8
0
  6
BYBLOCK
 10
110.41645926893069
 20
115.97365681922339
 30
0.0
  0
VERTEX
  5
399
  8
0
  6
BYBLOCK
 10
109.86228747494
 20
115.799114302134
 30
0.0
  0
VERTEX
  5
39A
  8
0
  6
BYBLOCK
 10
109.32222722541
 20
115.7444745405632
 30
0.0
  0
SEQEND
  5
39B
  8
0
  6
BYBLOCK
  0
POLYLINE
  5
14C
  8
0
  6
BYBLOCK
 66
     1
 10
0.0
 20
0.0
 30
0.0
 70
   128
  0
VERTEX
  5
39C
  8
0
  6
BYBLOCK
 10
110.8959665156744
 20
116.3807352079444
 30
0.0
  0
VERTEX
  5
39D
  8
0
  6
BYBLOCK
 10
111.2002979102581
 20
116.892683391701
 30
0.0
  0
VERTEX
  5
39E
  8
0
  6
BYBLOCK
 10
111.4415979552454
 20
117.43718575980419
 30
0.0
  0
VERTEX
  5
39F
  8
0
  6
BYBLOCK
 10
111.61644300316409
 20
118.0065167266409
 30
0.0
  0
VERTEX
  5
3A0
  8
0
  6
BYBLOCK
 10
111.7223522927433
 20
118.59259842995679
 30
0.0
  0
VERTEX
  5
3A1
  8
0
  6
BYBLOCK
 10
111.7578231468014
 20
119.18711534232619
 30
0.0
  0
SEQEND
  5
3A2
  8
0
  6
BYBLOCK
  0
ARC
  5
14D
  8
0
  6
BYBLOCK
 10
106.7578231468014
 20
119.18711534232619
 30
0.0
 40
5.0
 50
269.99999999999841
 51
325.85591048684847
  0
LINE
  5
14E
  8
0
  6
BYBLOCK
 10
91.757823146801385
 20
114.18711534232619
 30
0.0
 11
106.7578231468014
 21
114.18711534232619
 31
0.0
  0
POLYLINE
  5
14F
  8
0
  6
BYBLOCK
 66
     1
 10
0.0
 20
0.0
 30
0.0
 70
   128
  0
VERTEX
  5
3A3
  8
0
  6
BYBLOCK
 10
91.757823146801385
 20
127.3942221235129
 30
0.0
  0
VERTEX
  5
3A4
  8
0
  6
BYBLOCK
 10
91.765419270295226
 20
127.7625855354198
 30
0.0
  0
VERTEX
  5
3A5
  8
0
  6
BYBLOCK
 10
91.787976836408404
 20
128.11975641145679
 30
0.0
  0
VERTEX
  5
3A6
  8
0
  6
BYBLOCK
 10
91.824810444909133
 20
128.4548822952928
 30
0.0
  0
VERTEX
  5
3A7
  8
0
  6
BYBLOCK
 10
91.874800925241914
 20
128.7577805565291
 30
0.0
  0
VERTEX
  5
3A8
  8
0
  6
BYBLOCK
 10
91.936429341958103
 20
129.01924778477201
 30
0.0
  0
VERTEX
  5
3A9
  8
0
  6
BYBLOCK
 10
92.007823146801385
 20
129.23133943060029
 30
0.0
  0
VERTEX
  5
3AA
  8
0
  6
BYBLOCK
 10
92.086813075138537
 20
129.38761119667899
 30
0.0
  0
VERTEX
  5
3AB
  8
0
  6
BYBLOCK
 10
92.17099905796789
 20
129.483314844473
 30
0.0
  0
VERTEX
  5
3AC
  8
0
  6
BYBLOCK
 10
92.2578231468014
 20
129.51554246707249
 30
0.0
  0
SEQEND
  5
3AD
  8
0
  6
BYBLOCK
  0
LINE
  5
150
  8
0
 10
67.7578231468014
 20
60.183969591818929
 30
0.0
 11
66.7578231468014
 21
61.183969591818929
 31
0.0
  0
LINE
  5
151
  8
0
 10
91.757823146801385
 20
61.183969591818929
 30
0.0
 11
90.757823146801385
 21
60.183969591818929
 31
0.0
  0
LINE
  5
152
  8
0
 10
66.7578231468014
 20
72.683969591818936
 30
0.0
 11
66.7578231468014
 21
60.683969591818929
 31
0.0
  0
LINE
  5
153
  8
0
 10
89.757823146801286
 20
74.683969591818936
 30
0.0
 11
68.7578231468014
 21
74.683969591818936
 31
0.0
  0
ARC
  5
154
  8
0
 10
68.7578231468014
 20
72.683969591818936
 30
0.0
 40
2.0
 50
90.0
 51
180.0
  0
ARC
  5
155
  8
0
 10
89.757823146801286
 20
72.683969591818936
 30
0.0
 40
2.0
 50
0.0
 51
90.0
  0
LINE
  5
156
  8
0
 10
90.757823146801385
 20
60.183969591818929
 30
0.0
 11
67.7578231468014
 21
60.183969591818929
 31
0.0
  0
LINE
  5
157
  8
0
 10
91.757823146801385
 20
72.683969591818936
 30
0.0
 11
91.757823146801385
 21
60.683969591818929
 31
0.0
  0
LINE
  5
158
  8
0
 10
89.7578231468014
 20
66.183969591818936
 30
0.0
 11
68.7578231468014
 21
66.183969591818936
 31
0.0
  0
ARC
  5
159
  8
0
 10
89.7578231468014
 20
64.183969591818936
 30
0.0
 40
2.0
 50
0.0
 51
90.0
  0
ARC
  5
15A
  8
0
 10
68.7578231468014
 20
64.183969591818936
 30
0.0
 40
2.0
 50
90.0
 51
180.0
  0
LINE
  5
15B
  8
0
 10
77.2578231468014
 20
60.183969591818929
 30
0.0
 11
77.2578231468014
 21
66.183969591818936
 31
0.0
  0
LINE
  5
15C
  8
0
 10
81.2578231468014
 20
60.183969591818929
 30
0.0
 11
81.2578231468014
 21
66.183969591818936
 31
0.0
  0
LINE
  5
15D
  8
0
 10
106.7578231468014
 20
59.683969591818943
 30
0.0
 11
106.7578231468014
 21
59.183969591818943
 31
0.0
  0
LINE
  5
15E
  8
0
 10
106.7578231468014
 20
59.183969591818943
 30
0.0
 11
106.7578231468014
 21
58.683969591818929
 31
0.0
  0
LINE
  5
15F
  8
0
 10
111.7578231468014
 20
59.183969591818943
 30
0.0
 11
111.2578231468014
 21
58.683969591818929
 31
0.0
  0
LINE
  5
160
  8
0
 10
92.2578231468014
 20
59.683969591818943
 30
0.0
 11
110.8959665156744
 21
59.683969591818943
 31
0.0
  0
POLYLINE
  5
161
  8
0
 66
     1
 10
0.0
 20
0.0
 30
0.0
 70
   128
  0
VERTEX
  5
3AE
  8
0
 10
110.8959665156744
 20
59.683969591818943
 30
0.0
  0
VERTEX
  5
3AF
  8
0
 10
111.200297910258
 20
60.042333320448449
 30
0.0
  0
VERTEX
  5
3B0
  8
0
 10
111.4415979552454
 20
60.423484978120769
 30
0.0
  0
VERTEX
  5
3B1
  8
0
 10
111.61644300316409
 20
60.822016654906399
 30
0.0
  0
VERTEX
  5
3B2
  8
0
 10
111.7223522927433
 20
61.232273847227589
 30
0.0
  0
VERTEX
  5
3B3
  8
0
 10
111.7578231468014
 20
61.64843568588617
 30
0.0
  0
SEQEND
  5
3B4
  8
0
  0
POLYLINE
  5
162
  8
0
 66
     1
 10
0.0
 20
0.0
 30
0.0
 70
   128
  0
VERTEX
  5
3B5
  8
0
 10
94.494577462849108
 20
74.683969591818936
 30
0.0
  0
VERTEX
  5
3B6
  8
0
 10
94.672965881602693
 20
72.819597535031789
 30
0.0
  0
VERTEX
  5
3B7
  8
0
 10
95.025135978329857
 20
71.568989000175975
 30
0.0
  0
VERTEX
  5
3B8
  8
0
 10
95.424853455511368
 20
70.688662469594135
 30
0.0
  0
VERTEX
  5
3B9
  8
0
 10
95.931457096542601
 20
69.881221077211478
 30
0.0
  0
VERTEX
  5
3BA
  8
0
 10
96.544946901423543
 20
69.146664823028004
 30
0.0
  0
VERTEX
  5
3BB
  8
0
 10
97.069915947528614
 20
68.648360627377201
 30
0.0
  0
VERTEX
  5
3BC
  8
0
 10
97.635718769447024
 20
68.209730534346306
 30
0.0
  0
VERTEX
  5
3BD
  8
0
 10
98.242355367178732
 20
67.830774543935433
 30
0.0
  0
VERTEX
  5
3BE
  8
0
 10
98.889825740723794
 20
67.511492656144583
 30
0.0
  0
VERTEX
  5
3BF
  8
0
 10
99.566695042573485
 20
67.256720881862975
 30
0.0
  0
VERTEX
  5
3C0
  8
0
 10
100.2584227023404
 20
67.072641170886982
 30
0.0
  0
VERTEX
  5
3C1
  8
0
 10
100.9650087200246
 20
66.959253523216603
 30
0.0
  0
VERTEX
  5
3C2
  8
0
 10
101.68645309562601
 20
66.916557938851781
 30
0.0
  0
VERTEX
  5
3C3
  8
0
 10
102.40770799390739
 20
66.944771860079015
 30
0.0
  0
VERTEX
  5
3C4
  8
0
 10
103.1161021777382
 20
67.044088764900494
 30
0.0
  0
VERTEX
  5
3C5
  8
0
 10
103.81163564711849
 20
67.214508653316273
 30
0.0
  0
VERTEX
  5
3C6
  8
0
 10
104.4943084020482
 20
67.456031525326225
 30
0.0
  0
VERTEX
  5
3C7
  8
0
 10
105.14741085557939
 20
67.762034687807386
 30
0.0
  0
VERTEX
  5
3C8
  8
0
 10
105.7612388617694
 20
68.128765761767227
 30
0.0
  0
VERTEX
  5
3C9
  8
0
 10
106.3357924206183
 20
68.556224747205647
 30
0.0
  0
VERTEX
  5
3CA
  8
0
 10
106.87107153212619
 20
69.044411644122761
 30
0.0
  0
VERTEX
  5
3CB
  8
0
 10
107.49912116562361
 20
69.766579603704258
 30
0.0
  0
VERTEX
  5
3CC
  8
0
 10
108.0216676324539
 20
70.563799644947153
 30
0.0
  0
VERTEX
  5
3CD
  8
0
 10
108.438710932617
 20
71.436071767851374
 30
0.0
  0
VERTEX
  5
3CE
  8
0
 10
108.8429352857523
 20
72.819446259959363
 30
0.0
  0
VERTEX
  5
3CF
  8
0
 10
109.001996042805
 20
74.683969591818936
 30
0.0
  0
SEQEND
  5
3D0
  8
0
  0
LINE
  5
163
  8
0
 10
111.7578231468014
 20
59.183969591818943
 30
0.0
 11
111.7578231468014
 21
73.183969591818936
 31
0.0
  0
ARC
  5
164
  8
0
 10
110.2578231468014
 20
73.183969591818936
 30
0.0
 40
1.5000000000000071
 50
359.9999999999996
 51
90.0
  0
LINE
  5
165
  8
2
 10
108.7578231468014
 20
65.683969591818936
 30
0.0
 11
94.7578231468014
 21
65.683969591818936
 31
0.0
  0
LINE
  5
166
  8
2
 10
108.7578231468014
 20
74.683969591818936
 30
0.0
 11
108.7578231468014
 21
65.683969591818936
 31
0.0
  0
LINE
  5
167
  8
2
 10
94.7578231468014
 20
65.683969591818936
 30
0.0
 11
94.7578231468014
 21
74.683969591818936
 31
0.0
  0
LINE
  5
168
  8
2
 10
106.2578231468014
 20
65.683969591818936
 30
0.0
 11
106.2578231468014
 21
58.683969591818929
 31
0.0
  0
LINE
  5
169
  8
2
 10
97.2578231468014
 20
58.683969591818929
 30
0.0
 11
97.2578231468014
 21
65.683969591818936
 31
0.0
  0
LINE
  5
16A
  8
1
 10
101.7578231468014
 20
56.18396959181888
 30
0.0
 11
101.7578231468015
 21
77.183969591818865
 31
0.0
  0
POLYLINE
  5
16B
  8
0
 66
     1
 10
0.0
 20
0.0
 30
0.0
 70
   128
  0
VERTEX
  5
3D1
  8
0
 10
91.852590420614149
 20
60.183969591818929
 30
0.0
  0
VERTEX
  5
3D2
  8
0
 10
92.107717164143125
 20
59.837578440657808
 30
0.0
  0
VERTEX
  5
3D3
  8
0
 10
92.254660884952429
 20
59.687131885290277
 30
0.0
  0
VERTEX
  5
3D4
  8
0
 10
92.2578231468014
 20
59.683969591818943
 30
0.0
  0
SEQEND
  5
3D5
  8
0
  0
POLYLINE
  5
16C
  8
0
 66
     1
 10
0.0
 20
0.0
 30
0.0
 70
   128
  0
VERTEX
  5
3D6
  8
0
 10
91.757823146801385
 20
60.683969591818929
 30
0.0
  0
VERTEX
  5
3D7
  8
0
 10
91.803798004233101
 20
60.433969591818943
 30
0.0
  0
VERTEX
  5
3D8
  8
0
 10
91.852590420614149
 20
60.183969591818929
 30
0.0
  0
SEQEND
  5
3D9
  8
0
  0
ARC
  5
16D
  8
0
 10
146.47886994827729
 20
72.683969591818936
 30
0.0
 40
2.0
 50
90.0
 51
149.99999999999949
  0
LINE
  5
16E
  8
0
 10
141.2547231468013
 20
60.183969591818929
 30
0.0
 11
155.7547231468013
 21
74.683969591818936
 31
0.0
  0
LINE
  5
16F
  8
0
 10
146.48025501113671
 20
74.683969591818936
 30
0.0
 11
161.414677396294
 21
74.683969591818936
 31
0.0
  0
ARC
  5
170
  8
0
 10
131.75643808394199
 20
81.183969591818936
 30
0.0
 40
15.0
 50
271.91550667193269
 51
329.99999999999949
  0
LINE
  5
171
  8
0
 10
157.7934028032418
 20
74.683969591818936
 30
0.0
 11
169.75786889730901
 21
74.683969591818936
 31
0.0
  0
LINE
  5
172
  8
0
 10
162.5976148594643
 20
73.183969591818936
 30
0.0
 11
162.5976148594643
 21
59.183969591818943
 31
0.0
  0
LINE
  5
173
  8
1
 10
156.75786889730901
 20
86.683969591818936
 30
0.0
 11
156.75786889730901
 21
53.68396959181888
 31
0.0
  0
LINE
  5
174
  8
0
 10
158.2674878405424
 20
74.683969591818936
 30
0.0
 11
158.26748784054229
 21
58.683969591818823
 31
0.0
  0
ARC
  5
180
  8
5
 10
138.75643808394199
 20
88.183969591818936
 30
0.0
 40
15.0
 50
271.91550667193292
 51
329.99999999999949
  0
LINE
  5
181
  8
5
 10
153.48025501113671
 20
81.683969591818936
 30
0.0
 11
168.414677396294
 21
81.683969591818936
 31
0.0
  0
ARC
  5
182
  8
5
 10
153.47886994827729
 20
79.683969591818936
 30
0.0
 40
2.0
 50
90.0
 51
149.99999999999949
  0
LINE
  5
183
  8
5
 10
155.75782314680129
 20
74.683969591818993
 30
0.0
 11
162.75782314680129
 21
81.683969591818936
 31
0.0
  0
LINE
  5
184
  8
5
 10
161.414677396294
 20
74.683969591818993
 30
0.0
 11
168.414677396294
 21
81.683969591818936
 31
0.0
  0
LINE
  5
185
  8
5
 10
163.8184833185814
 20
77.087775514106511
 30
0.0
 11
166.2222892408688
 21
74.68396959181905
 31
0.0
  0
LINE
  5
186
  8
5
 10
165.93944652839431
 20
74.683969591818993
 30
0.0
 11
163.67706196234411
 21
76.946354157869223
 31
0.0
  0
ARC
  5
187
  8
0
 10
161.0976148594643
 20
73.183969591818936
 30
0.0
 40
1.500000000000014
 50
0.0
 51
90.0
  0
LINE
  5
188
  8
0
 10
162.5976148594643
 20
59.183969591818943
 30
0.0
 11
162.0976148594643
 21
58.683969591818929
 31
0.0
  0
LINE
  5
1CA
  8
0
 10
145.66335198493951
 20
63.175239117076437
 30
0.0
 11
145.66335198493951
 21
58.683969591818908
 31
0.0
  0
LINE
  5
1D1
  8
5
 10
139.2578231468014
 20
73.192351499740226
 30
0.0
 11
138.7578231468014
 21
72.692351499740226
 31
0.0
  0
LINE
  5
1D3
  8
5
 10
138.7578231468014
 20
67.918201344123318
 30
0.0
 11
138.7578231468014
 21
72.692351499740226
 31
0.0
  0
TEXT
  5
28E
  8
0
 62
     3
 10
0.0
 20
0.0
 30
0.0
 40
10.0
  1
CP104-08116
  7
STANDARD1
  0
ENDSEC
  0
EOF
