  0
SECTION
  2
HEADER
  9
$ACADVER
  1
AC1009
  9
$INSBASE
 10
0.0
 20
0.0
 30
0.0
  9
$EXTMIN
 10
0.0
 20
-2.960436562073669
 30
0.0
  9
$EXTMAX
 10
275.00001461502512
 20
253.00000071866839
 30
0.0
  9
$LIMMIN
 10
0.0
 20
0.0
  9
$LIMMAX
 10
750.0
 20
540.0
  9
$ORTHOMODE
 70
     1
  9
$REGENMODE
 70
     1
  9
$FILLMODE
 70
     1
  9
$QTEXTMODE
 70
     0
  9
$MIRRTEXT
 70
     0
  9
$DRAGMODE
 70
     2
  9
$LTSCALE
 40
10.0
  9
$OSMODE
 70
    37
  9
$ATTMODE
 70
     1
  9
$TEXTSIZE
 40
0.2
  9
$TRACEWID
 40
0.05
  9
$TEXTSTYLE
  7
STANDARD
  9
$CLAYER
  8
0
  9
$CELTYPE
  6
BYLAYER
  9
$CECOLOR
 62
   256
  9
$DIMSCALE
 40
1.0
  9
$DIMASZ
 40
3.0
  9
$DIMEXO
 40
2.0
  9
$DIMDLI
 40
0.38
  9
$DIMRND
 40
0.0
  9
$DIMDLE
 40
0.0
  9
$DIMEXE
 40
2.0
  9
$DIMTP
 40
0.0
  9
$DIMTM
 40
0.0
  9
$DIMTXT
 40
3.2000000000000002
  9
$DIMCEN
 40
0.0
  9
$DIMTSZ
 40
0.0
  9
$DIMTOL
 70
     0
  9
$DIMLIM
 70
     0
  9
$DIMTIH
 70
     0
  9
$DIMTOH
 70
     0
  9
$DIMSE1
 70
     0
  9
$DIMSE2
 70
     0
  9
$DIMTAD
 70
     1
  9
$DIMZIN
 70
     8
  9
$DIMBLK
  1

  9
$DIMASO
 70
     0
  9
$DIMSHO
 70
     0
  9
$DIMPOST
  1

  9
$DIMAPOST
  1

  9
$DIMALT
 70
     0
  9
$DIMALTD
 70
     2
  9
$DIMALTF
 40
25.399999999999999
  9
$DIMLFAC
 40
1.0
  9
$DIMTOFL
 70
     0
  9
$DIMTVP
 40
1.6000000000000001
  9
$DIMTIX
 70
     1
  9
$DIMSOXD
 70
     0
  9
$DIMSAH
 70
     0
  9
$DIMBLK1
  1

  9
$DIMBLK2
  1

  9
$DIMSTYLE
  2
STANDARD
  9
$DIMCLRD
 70
     0
  9
$DIMCLRE
 70
     0
  9
$DIMCLRT
 70
     0
  9
$DIMTFAC
 40
1.0
  9
$DIMGAP
 40
0.09
  9
$LUNITS
 70
     2
  9
$LUPREC
 70
     1
  9
$SKETCHINC
 40
0.1
  9
$FILLETRAD
 40
0.0
  9
$AUNITS
 70
     0
  9
$AUPREC
 70
     1
  9
$MENU
  1
E:\r13\win\SUPPORT\ACAD
  9
$ELEVATION
 40
0.0
  9
$PELEVATION
 40
0.0
  9
$THICKNESS
 40
0.0
  9
$LIMCHECK
 70
     0
  9
$BLIPMODE
 70
     0
  9
$CHAMFERA
 40
0.0
  9
$CHAMFERB
 40
0.0
  9
$SKPOLY
 70
     0
  9
$TDCREATE
 40
2449840.6227546302
  9
$TDUPDATE
 40
2457711.4087584382
  9
$TDINDWG
 40
0.5263967708
  9
$TDUSRTIMER
 40
2456441.6930749658
  9
$USRTIMER
 70
     1
  9
$ANGBASE
 50
0.0
  9
$ANGDIR
 70
     0
  9
$PDMODE
 70
     0
  9
$PDSIZE
 40
0.0
  9
$PLINEWID
 40
0.0
  9
$COORDS
 70
     1
  9
$SPLFRAME
 70
     0
  9
$SPLINETYPE
 70
     6
  9
$SPLINESEGS
 70
     8
  9
$ATTDIA
 70
     0
  9
$ATTREQ
 70
     1
  9
$HANDLING
 70
     1
  9
$HANDSEED
  5
C139
  9
$SURFTAB1
 70
     6
  9
$SURFTAB2
 70
     6
  9
$SURFTYPE
 70
     6
  9
$SURFU
 70
     6
  9
$SURFV
 70
     6
  9
$UCSNAME
  2

  9
$UCSORG
 10
0.0
 20
0.0
 30
0.0
  9
$UCSXDIR
 10
1.0
 20
0.0
 30
0.0
  9
$UCSYDIR
 10
0.0
 20
1.0
 30
0.0
  9
$PUCSNAME
  2

  9
$PUCSORG
 10
0.0
 20
0.0
 30
0.0
  9
$PUCSXDIR
 10
1.0
 20
0.0
 30
0.0
  9
$PUCSYDIR
 10
0.0
 20
1.0
 30
0.0
  9
$USERI1
 70
     0
  9
$USERI2
 70
     1
  9
$USERI3
 70
     0
  9
$USERI4
 70
     0
  9
$USERI5
 70
     0
  9
$USERR1
 40
0.0
  9
$USERR2
 40
0.0
  9
$USERR3
 40
0.0
  9
$USERR4
 40
0.0
  9
$USERR5
 40
0.0
  9
$WORLDVIEW
 70
     1
  9
$SHADEDGE
 70
     3
  9
$SHADEDIF
 70
    70
  9
$TILEMODE
 70
     1
  9
$MAXACTVP
 70
    16
  9
$PLIMCHECK
 70
     0
  9
$PEXTMIN
 10
1.0000000000000000E+020
 20
1.0000000000000000E+020
 30
1.0000000000000000E+020
  9
$PEXTMAX
 10
-1.0000000000000000E+020
 20
-1.0000000000000000E+020
 30
-1.0000000000000000E+020
  9
$PLIMMIN
 10
0.0
 20
0.0
  9
$PLIMMAX
 10
12.0
 20
9.0
  9
$UNITMODE
 70
     0
  9
$VISRETAIN
 70
     0
  9
$PLINEGEN
 70
     0
  9
$PSLTSCALE
 70
     0
  0
ENDSEC
  0
SECTION
  2
TABLES
  0
TABLE
  2
VPORT
 70
     1
  0
VPORT
  2
*ACTIVE
 70
     0
 10
0.0
 20
0.0
 11
1.0
 21
1.0
 12
272.4358974358974
 22
150.0
 13
0.0
 23
0.0
 14
20.0
 24
20.0
 15
20.0
 25
20.0
 16
0.0
 26
0.0
 36
1.0
 17
0.0
 27
0.0
 37
0.0
 40
300.0
 41
1.816239316239316
 42
50.0
 43
0.0
 44
0.0
 50
0.0
 51
0.0
 71
    16
 72
   100
 73
     1
 74
     0
 75
     0
 76
     0
 77
     0
 78
     2
  0
ENDTAB
  0
TABLE
  2
LTYPE
 70
     3
  0
LTYPE
  2
CONTINUOUS
 70
     0
  3
Solid Line
 72
    65
 73
     0
 40
0.0
  0
LTYPE
  2
PHANTOM2
 70
     0
  3
___ _ _ ___ _ _ ___ _ _ ___ _ _
 72
    65
 73
     6
 40
1.25
 49
0.625
 49
-0.125
 49
0.125
 49
-0.125
 49
0.125
 49
-0.125
  0
LTYPE
  2
CENTER
 70
     0
  3
____ _ ____ _ ____ _ ____ _ ____ _ ____ _ ____
 72
    65
 73
     4
 40
2.0
 49
1.25
 49
-0.25
 49
0.25
 49
-0.25
  0
ENDTAB
  0
TABLE
  2
LAYER
 70
     4
  0
LAYER
  2
0
 70
     0
 62
     7
  6
CONTINUOUS
  0
LAYER
  2
1
 70
     0
 62
     1
  6
CENTER
  0
LAYER
  2
3
 70
     0
 62
     3
  6
CONTINUOUS
  0
LAYER
  2
DEFPOINTS
 70
     0
 62
     7
  6
CONTINUOUS
  0
ENDTAB
  0
TABLE
  2
STYLE
 70
     2
  0
STYLE
  2
STANDARD
 70
     0
 40
0.0
 41
1.0
 50
0.0
 71
     0
 42
0.2
  3
TXT
  4
BIGFONT
  0
STYLE
  2
STANDARD1
 70
     0
 40
0.0
 41
1.0
 50
0.0
 71
     0
 42
3.0
  3
txt
  4

  0
ENDTAB
  0
TABLE
  2
VIEW
 70
     1
  0
VIEW
  2
ALL
 70
     0
 40
540.0
 10
441.98319299999991
 20
270.0
 41
0.0
 11
0.0
 21
0.0
 31
1.0
 12
0.0
 22
0.0
 32
0.0
 42
0.0
 43
0.0
 44
0.0
 50
0.0
 71
     0
  0
ENDTAB
  0
TABLE
  2
UCS
 70
     0
  0
ENDTAB
  0
TABLE
  2
APPID
 70
     8
  0
APPID
  2
ACAD
 70
     0
  0
APPID
  2
ACADANNOTATIVE
 70
     0
  0
APPID
  2
ACAD_NAV_VCDISPLAY
 70
     0
  0
APPID
  2
ACAD_EXEMPT_FROM_CAD_STANDARDS
 70
     0
  0
APPID
  2
ACAD_DSTYLE_DIMJAG
 70
     0
  0
APPID
  2
ACAD_DSTYLE_DIMTALN
 70
     0
  0
APPID
  2
ACAD_MLEADERVER
 70
     0
  0
APPID
  2
ACAD_DSTYLE_DIMRADIAL_EXTENSION
 70
     0
  0
ENDTAB
  0
TABLE
  2
DIMSTYLE
 70
     1
  0
DIMSTYLE
  2
STANDARD
 70
     0
  3

  4

  5

  6

  7

 40
1.0
 41
0.18
 42
0.0625
 43
0.38
 44
0.18
 45
0.0
 46
0.0
 47
0.0
 48
0.0
140
0.18
141
0.09
142
0.0
143
25.399999999999999
144
1.0
145
0.0
146
1.0
147
0.09
 71
     0
 72
     0
 73
     1
 74
     1
 75
     0
 76
     0
 77
     0
 78
     0
170
     0
171
     2
172
     0
173
     0
174
     0
175
     0
176
     0
177
     0
178
     0
  0
ENDTAB
  0
ENDSEC
  0
SECTION
  2
BLOCKS
  0
BLOCK
  8
0
  2
$MODEL_SPACE
 70
     0
 10
0.0
 20
0.0
 30
0.0
  3
$MODEL_SPACE
  1

  0
ENDBLK
  5
203C
  8
0
  0
BLOCK
 67
     1
  8
0
  2
$PAPER_SPACE
 70
     0
 10
0.0
 20
0.0
 30
0.0
  3
$PAPER_SPACE
  1

  0
ENDBLK
  5
2038
 67
     1
  8
0
  0
ENDSEC
  0
SECTION
  2
ENTITIES
  0
TEXT
  5
25F0
  8
0
 62
     3
 10
0.0
 20
0.0
 30
0.0
 40
10.0
  1
CP-TCW8
  7
STANDARD1
  0
LINE
  5
6797
  8
0
 10
135.0000008568168
 20
124.500000461936
 30
0.0
 11
135.0000008568168
 21
128.50000024447209
 31
0.0
  0
LINE
  5
6798
  8
0
 10
123.0000007525087
 20
128.50000024447209
 30
0.0
 11
123.0000007525087
 21
124.500000461936
 31
0.0
  0
LINE
  5
6799
  8
0
 10
135.0000008568168
 20
128.50000024447209
 30
0.0
 11
134.50000077486041
 21
129.0000002682209
 31
0.0
  0
LINE
  5
679A
  8
0
 10
123.5000008344651
 20
129.0000002682209
 30
0.0
 11
123.0000007525087
 21
128.50000024447209
 31
0.0
  0
LINE
  5
679B
  8
0
 10
123.0000007525087
 20
124.500000461936
 30
0.0
 11
123.5000008344651
 21
124.0000003799796
 31
0.0
  0
LINE
  5
679C
  8
0
 10
134.50000077486041
 20
124.0000003799796
 30
0.0
 11
135.0000008568168
 21
124.500000461936
 31
0.0
  0
LINE
  5
679D
  8
0
 10
124.90000078454619
 20
124.0000003799796
 30
0.0
 11
124.90000078454619
 21
123.5000002980232
 31
0.0
  0
LINE
  5
679E
  8
0
 10
133.1000008247793
 20
123.5000002980232
 30
0.0
 11
133.1000008247793
 21
124.0000003799796
 31
0.0
  0
LINE
  5
679F
  8
0
 10
125.8500008005649
 20
116.2500005066394
 30
0.0
 11
126.10000084154311
 21
116.0
 31
0.0
  0
LINE
  5
67A0
  8
0
 10
131.90000076778239
 20
116.0
 30
0.0
 11
132.15000080876061
 21
116.2500005066394
 31
0.0
  0
ARC
  5
67A1
  8
0
 10
120.5000008046627
 20
165.00000026822079
 30
0.0
 40
2.000000000000028
 50
90.0
 51
180.0
  0
LINE
  5
67A2
  8
0
 10
118.50000094622381
 20
164.99999871850011
 30
0.0
 11
118.50000094622381
 21
160.97516527771941
 31
0.0
  0
LINE
  5
67A3
  8
0
 10
122.5000006705523
 20
129.5000002919696
 30
0.0
 11
123.0000007525087
 21
129.0000002682209
 31
0.0
  0
LINE
  5
67A4
  8
0
 10
135.0000008568168
 20
129.0000002682209
 30
0.0
 11
135.50000093877321
 21
129.5000002919696
 31
0.0
  0
LINE
  5
67A5
  8
0
 10
135.50000093877321
 20
129.5000002919696
 30
0.0
 11
135.50000093877321
 21
131.0000003632158
 31
0.0
  0
LINE
  5
67A6
  8
0
 10
122.5000006705523
 20
131.0000003632158
 30
0.0
 11
122.5000006705523
 21
129.5000002919696
 31
0.0
  0
LINE
  5
67A7
  8
0
 10
116.2500010430813
 20
156.20000062882889
 30
0.0
 11
116.2500010430813
 21
150.19999964535231
 31
0.0
  0
ARC
  5
67AA
  8
0
 10
118.0000072860923
 20
158.63713519594779
 30
0.0
 40
2.0000067496552139
 50
111.3089401503287
 51
179.99987501413861
  0
LINE
  5
67AB
  8
0
 10
116.0000005364418
 20
149.99999998509881
 30
0.0
 11
116.0000005364418
 21
132.00000029429791
 31
0.0
  0
LINE
  5
67AC
  8
0
 10
116.0000005364418
 20
158.63839684426779
 30
0.0
 11
116.0000005364418
 21
156.40000028908241
 31
0.0
  0
ARC
  5
67AD
  8
0
 10
117.0000008046627
 20
132.0000002682209
 30
0.0
 40
1.0
 50
180.0
 51
270.0
  0
LINE
  5
67AE
  8
0
 10
116.30000095814469
 20
156.40000028908241
 30
0.0
 11
116.30000095814469
 21
156.20000062882889
 31
0.0
  0
LINE
  5
67AF
  8
0
 10
116.30000095814469
 20
150.19999964535231
 30
0.0
 11
116.30000095814469
 21
149.99999998509881
 31
0.0
  0
ARC
  5
67B0
  8
0
 10
198.99999391730631
 20
171.2256920522664
 30
0.0
 40
5.000009867595228
 50
0.0000926784086063
 51
81.469996261167864
  0
LINE
  5
67B1
  8
0
 10
204.000003784895
 20
165.66209456324569
 30
0.0
 11
204.000003784895
 21
171.22570013999919
 31
0.0
  0
ARC
  5
67B2
  8
0
 10
200.50000267622369
 20
165.66209649308769
 30
0.0
 40
3.5000011086718441
 50
256.70324183073029
 51
359.99996840806602
  0
CIRCLE
  5
67B3
  8
0
 10
129.00000361981051
 20
119.4999976389543
 30
0.0
 40
1.3266494404216189
  0
CIRCLE
  5
67B4
  8
0
 10
129.0000008046627
 20
119.5000002682208
 30
0.0
 40
2.30000000000005
  0
LINE
  5
67B5
  8
0
 10
135.0000008568168
 20
128.50000024447209
 30
0.0
 11
123.0000007525087
 21
128.50000024447209
 31
0.0
  0
LINE
  5
67B7
  8
0
 10
123.0000007525087
 20
124.500000461936
 30
0.0
 11
135.0000008568168
 21
124.500000461936
 31
0.0
  0
LINE
  5
67B8
  8
0
 10
134.50000077486041
 20
124.0000003799796
 30
0.0
 11
123.5000008344651
 21
124.0000003799796
 31
0.0
  0
LINE
  5
67B9
  8
0
 10
131.62440542131671
 20
117.1999998241663
 30
0.0
 11
132.15000080876061
 21
117.1999998241663
 31
0.0
  0
LINE
  5
67BA
  8
0
 10
131.62440542131671
 20
117.1999998241663
 30
0.0
 11
131.62440542131671
 21
123.5000002980232
 31
0.0
  0
LINE
  5
67BB
  8
0
 10
131.62440542131671
 20
123.5000002980232
 30
0.0
 11
126.3755961880088
 21
123.5000002980232
 31
0.0
  0
LINE
  5
67BC
  8
0
 10
126.3755961880088
 20
123.5000002980232
 30
0.0
 11
126.3755961880088
 21
117.1999998241663
 31
0.0
  0
LINE
  5
67BD
  8
0
 10
125.8500008005649
 20
117.1999998241663
 30
0.0
 11
126.3755961880088
 21
117.1999998241663
 31
0.0
  0
LINE
  5
67BE
  8
0
 10
125.850000800565
 20
116.2500005066394
 30
0.0
 11
125.8500008005649
 21
123.5000002980232
 31
0.0
  0
LINE
  5
67BF
  8
0
 10
125.8500008005649
 20
123.5000002980232
 30
0.0
 11
124.90000078454619
 21
123.5000002980232
 31
0.0
  0
LINE
  5
67C0
  8
0
 10
133.1000008247793
 20
123.5000002980232
 30
0.0
 11
132.15000080876061
 21
123.5000002980232
 31
0.0
  0
LINE
  5
67C1
  8
0
 10
132.15000080876061
 20
123.5000002980232
 30
0.0
 11
132.15000080876061
 21
116.2500005066394
 31
0.0
  0
ARC
  5
67C3
  8
0
 10
129.0000008046627
 20
120.61223589354999
 30
0.0
 40
4.3047479119128091
 50
232.4355472684727
 51
307.56445273152929
  0
LINE
  5
67C7
  8
0
 10
126.10000084154311
 20
116.0
 30
0.0
 11
131.90000076778239
 21
116.0
 31
0.0
  0
LINE
  5
67C9
  8
0
 10
120.50000034272669
 20
166.9999990463256
 30
0.0
 11
135.96105241911391
 21
166.9999990463256
 31
0.0
  0
LINE
  5
67CA
  8
0
 10
135.0000008568168
 20
129.0000002682209
 30
0.0
 11
123.0000007525087
 21
129.0000002682209
 31
0.0
  0
LINE
  5
67CB
  8
0
 10
122.5000006705523
 20
129.5000002919696
 30
0.0
 11
135.50000093877321
 21
129.5000002919696
 31
0.0
  0
POLYLINE
  5
67CC
  8
0
 66
     1
 10
0.0
 20
0.0
 30
0.0
 70
   128
  0
VERTEX
  5
BEA2
  8
0
 10
116.2500755488873
 20
153.8525666892528
 30
0.0
  0
VERTEX
  5
BEA3
  8
0
 10
116.2504955753684
 20
153.87500038743011
 30
0.0
  0
VERTEX
  5
BEA4
  8
0
 10
116.2522818520665
 20
153.84947656095019
 30
0.0
  0
VERTEX
  5
BEA5
  8
0
 10
116.2548234313727
 20
153.77659125626079
 30
0.0
  0
VERTEX
  5
BEA6
  8
0
 10
116.25705860555171
 20
153.66661509871469
 30
0.0
  0
VERTEX
  5
BEA7
  8
0
 10
116.2579414993525
 20
153.53750026226041
 30
0.0
  0
SEQEND
  5
BEA8
  8
0
  0
LINE
  5
67CD
  8
0
 10
116.2579414993525
 20
153.53750026226041
 30
0.0
 11
116.2579414993525
 21
151.3999994695186
 31
0.0
  0
LINE
  5
67CE
  8
0
 10
116.3471566140652
 20
151.3999994695186
 30
0.0
 11
116.2579414993525
 21
151.3999994695186
 31
0.0
  0
LINE
  5
67CF
  8
0
 10
116.3471566140652
 20
151.3999994695186
 30
0.0
 11
116.3471566140652
 21
153.53750026226041
 31
0.0
  0
POLYLINE
  5
67D0
  8
0
 66
     1
 10
0.0
 20
0.0
 30
0.0
 70
   128
  0
VERTEX
  5
BEA9
  8
0
 10
116.3471566140652
 20
153.53750026226041
 30
0.0
  0
VERTEX
  5
BEAA
  8
0
 10
116.3503761962056
 20
153.6667249947786
 30
0.0
  0
VERTEX
  5
BEAB
  8
0
 10
116.3597071170807
 20
153.7760771661996
 30
0.0
  0
VERTEX
  5
BEAC
  8
0
 10
116.3744844123721
 20
153.84919343888751
 30
0.0
  0
VERTEX
  5
BEAD
  8
0
 10
116.3931388035417
 20
153.87500038743011
 30
0.0
  0
VERTEX
  5
BEAE
  8
0
 10
116.4130439609289
 20
153.84947656095019
 30
0.0
  0
VERTEX
  5
BEAF
  8
0
 10
116.4309644699097
 20
153.77659125626079
 30
0.0
  0
VERTEX
  5
BEB0
  8
0
 10
116.4435224235058
 20
153.66661509871469
 30
0.0
  0
VERTEX
  5
BEB1
  8
0
 10
116.4480151236058
 20
153.53750026226041
 30
0.0
  0
SEQEND
  5
BEB2
  8
0
  0
LINE
  5
67D1
  8
0
 10
116.4480151236058
 20
153.53750026226041
 30
0.0
 11
116.4480151236058
 21
151.3999994695186
 31
0.0
  0
LINE
  5
67D2
  8
0
 10
116.6940901055932
 20
151.3999994695186
 30
0.0
 11
116.4480151236058
 21
151.3999994695186
 31
0.0
  0
LINE
  5
67D3
  8
0
 10
116.6940901055932
 20
151.3999994695186
 30
0.0
 11
116.6940901055932
 21
153.53750026226041
 31
0.0
  0
POLYLINE
  5
67D4
  8
0
 66
     1
 10
0.0
 20
0.0
 30
0.0
 70
   128
  0
VERTEX
  5
BEB3
  8
0
 10
116.6940901055932
 20
153.53750026226041
 30
0.0
  0
VERTEX
  5
BEB4
  8
0
 10
116.6793519258499
 20
153.94055990874759
 30
0.0
  0
VERTEX
  5
BEB5
  8
0
 10
116.6378307715059
 20
154.312442600727
 30
0.0
  0
VERTEX
  5
BEB6
  8
0
 10
116.5764091163874
 20
154.62424194812769
 30
0.0
  0
VERTEX
  5
BEB7
  8
0
 10
116.50491520762451
 20
154.8518795371055
 30
0.0
  0
VERTEX
  5
BEB8
  8
0
 10
116.4336736872793
 20
154.97772356867779
 30
0.0
  0
VERTEX
  5
BEB9
  8
0
 10
116.3712881132961
 20
154.99203240871421
 30
0.0
  0
VERTEX
  5
BEBA
  8
0
 10
116.32301207631831
 20
154.89358043670649
 30
0.0
  0
VERTEX
  5
BEBB
  8
0
 10
116.29018202424049
 20
154.69028203189359
 30
0.0
  0
SEQEND
  5
BEBC
  8
0
  0
POLYLINE
  5
67D5
  8
0
 66
     1
 10
0.0
 20
0.0
 30
0.0
 70
   128
  0
VERTEX
  5
BEBD
  8
0
 10
116.29018202424049
 20
154.69028203189359
 30
0.0
  0
VERTEX
  5
BEBE
  8
0
 10
116.2670712545514
 20
154.89354877173889
 30
0.0
  0
VERTEX
  5
BEBF
  8
0
 10
116.2527531012893
 20
154.99203427135939
 30
0.0
  0
VERTEX
  5
BEC0
  8
0
 10
116.2520173564554
 20
154.9866679906844
 30
0.0
  0
SEQEND
  5
BEC1
  8
0
  0
LINE
  5
67D7
  8
0
 10
117.9954206198454
 20
151.3999994695186
 30
0.0
 11
117.9954206198454
 21
153.53750026226041
 31
0.0
  0
POLYLINE
  5
67D8
  8
0
 66
     1
 10
0.0
 20
0.0
 30
0.0
 70
   128
  0
VERTEX
  5
BEC2
  8
0
 10
117.9954206198454
 20
153.53750026226041
 30
0.0
  0
VERTEX
  5
BEC3
  8
0
 10
117.93961670249701
 20
154.09718601405609
 30
0.0
  0
VERTEX
  5
BEC4
  8
0
 10
117.78533846139911
 20
154.571648299694
 30
0.0
  0
VERTEX
  5
BEC5
  8
0
 10
117.5674294680357
 20
154.88867422938341
 30
0.0
  0
VERTEX
  5
BEC6
  8
0
 10
117.33075991272931
 20
155.00000080466259
 30
0.0
  0
VERTEX
  5
BEC7
  8
0
 10
117.11656969040639
 20
154.8886798173188
 30
0.0
  0
VERTEX
  5
BEC8
  8
0
 10
116.9529027864337
 20
154.57165761291969
 30
0.0
  0
VERTEX
  5
BEC9
  8
0
 10
116.8528256565333
 20
154.0971916019916
 30
0.0
  0
VERTEX
  5
BECA
  8
0
 10
116.8194610252977
 20
153.53750026226041
 30
0.0
  0
SEQEND
  5
BECB
  8
0
  0
LINE
  5
67D9
  8
0
 10
116.8194610252977
 20
153.53750026226041
 30
0.0
 11
116.8194610252977
 21
151.3999994695186
 31
0.0
  0
LINE
  5
67DA
  8
0
 10
117.1988743916154
 20
151.3999994695186
 30
0.0
 11
116.8194610252977
 21
151.3999994695186
 31
0.0
  0
LINE
  5
67DB
  8
0
 10
117.1988743916154
 20
151.3999994695186
 30
0.0
 11
117.1988743916154
 21
152.18749976158131
 31
0.0
  0
LINE
  5
67DC
  8
0
 10
117.4708140641451
 20
152.18749976158131
 30
0.0
 11
117.1988743916154
 21
152.18749976158131
 31
0.0
  0
LINE
  5
67DD
  8
0
 10
117.4708140641451
 20
152.18749976158131
 30
0.0
 11
117.4708140641451
 21
151.3999994695186
 31
0.0
  0
LINE
  5
67DE
  8
0
 10
117.9954206198454
 20
151.3999994695186
 30
0.0
 11
117.4708140641451
 21
151.3999994695186
 31
0.0
  0
ARC
  5
67DF
  8
0
 10
121.51653996051
 20
154.52295863264331
 30
0.0
 40
1.682340726955555
 50
355.80863724416088
 51
85.451369784152334
  0
LINE
  5
67E0
  8
0
 10
123.19438127800829
 20
154.3999999612569
 30
0.0
 11
123.19438127800829
 21
152.0000003129243
 31
0.0
  0
ARC
  5
67E1
  8
0
 10
121.4760804064456
 20
151.91175644158821
 30
0.0
 40
1.7205652751469509
 50
275.80013322156702
 51
2.9398597501207631
  0
LINE
  5
67E2
  8
0
 10
116.2500010430813
 20
150.19999964535231
 30
0.0
 11
121.64995834231379
 21
150.19999964535231
 31
0.0
  0
LINE
  5
67E3
  8
0
 10
116.2500010430813
 20
156.20000062882889
 30
0.0
 11
121.64995834231379
 21
156.20000062882889
 31
0.0
  0
POLYLINE
  5
67E4
  8
0
 66
     1
 10
0.0
 20
0.0
 30
0.0
 70
   128
  0
VERTEX
  5
BECC
  8
0
 10
120.5570792406798
 20
153.2000001370906
 30
0.0
  0
VERTEX
  5
BECD
  8
0
 10
120.45446611940859
 20
153.88765892386431
 30
0.0
  0
VERTEX
  5
BECE
  8
0
 10
120.16910329461101
 20
154.47304731607429
 30
0.0
  0
VERTEX
  5
BECF
  8
0
 10
119.7573609277606
 20
154.8629585504531
 30
0.0
  0
VERTEX
  5
BED0
  8
0
 10
119.29632551968101
 20
154.99971954524511
 30
0.0
  0
VERTEX
  5
BED1
  8
0
 10
118.8639999926091
 20
154.86225819587699
 30
0.0
  0
VERTEX
  5
BED2
  8
0
 10
118.52049935609109
 20
154.47206383943549
 30
0.0
  0
VERTEX
  5
BED3
  8
0
 10
118.3032637089491
 20
153.88782097399229
 30
0.0
  0
VERTEX
  5
BED4
  8
0
 10
118.2297413796187
 20
153.1988993138074
 30
0.0
  0
VERTEX
  5
BED5
  8
0
 10
118.30382436513899
 20
152.51034086942661
 30
0.0
  0
VERTEX
  5
BED6
  8
0
 10
118.52125000208621
 20
151.92635318636891
 30
0.0
  0
VERTEX
  5
BED7
  8
0
 10
118.8651958107949
 20
151.5367921292781
 30
0.0
  0
VERTEX
  5
BED8
  8
0
 10
119.2977225035429
 20
151.4005545377731
 30
0.0
  0
VERTEX
  5
BED9
  8
0
 10
119.7586601227522
 20
151.53766757249821
 30
0.0
  0
VERTEX
  5
BEDA
  8
0
 10
120.1702776923776
 20
151.92839278280729
 30
0.0
  0
VERTEX
  5
BEDB
  8
0
 10
120.4550286382437
 20
152.51497326791281
 30
0.0
  0
VERTEX
  5
BEDC
  8
0
 10
120.5570792406798
 20
153.2000001370906
 30
0.0
  0
SEQEND
  5
BEDD
  8
0
  0
LINE
  5
67E7
  8
0
 10
121.67295688763259
 20
150.19999964535231
 30
0.0
 11
121.64995834231379
 21
150.19999964535231
 31
0.0
  0
LINE
  5
67E8
  8
0
 10
121.64995834231379
 20
156.20000062882889
 30
0.0
 11
121.67295688763259
 21
156.20000062882889
 31
0.0
  0
POLYLINE
  5
67EF
  8
0
 66
     1
 10
0.0
 20
0.0
 30
0.0
 70
   128
  0
VERTEX
  5
BEDE
  8
0
 10
119.7480141744018
 20
153.2000001370906
 30
0.0
  0
VERTEX
  5
BEDF
  8
0
 10
119.7127356752754
 20
153.458311766386
 30
0.0
  0
VERTEX
  5
BEE0
  8
0
 10
119.61309906095271
 20
153.67729736864561
 30
0.0
  0
VERTEX
  5
BEE1
  8
0
 10
119.4662956148386
 20
153.8236193209886
 30
0.0
  0
VERTEX
  5
BEE2
  8
0
 10
119.29674740880731
 20
153.87500038743011
 30
0.0
  0
VERTEX
  5
BEE3
  8
0
 10
119.1311824694276
 20
153.8236193209886
 30
0.0
  0
VERTEX
  5
BEE4
  8
0
 10
118.99399306625131
 20
153.67729736864561
 30
0.0
  0
VERTEX
  5
BEE5
  8
0
 10
118.90396863222129
 20
153.458311766386
 30
0.0
  0
VERTEX
  5
BEE6
  8
0
 10
118.87267060577869
 20
153.2000001370906
 30
0.0
  0
VERTEX
  5
BEE7
  8
0
 10
118.90396863222129
 20
152.94168850779531
 30
0.0
  0
VERTEX
  5
BEE8
  8
0
 10
118.99399306625131
 20
152.72270290553561
 30
0.0
  0
VERTEX
  5
BEE9
  8
0
 10
119.1311824694276
 20
152.5763809531926
 30
0.0
  0
VERTEX
  5
BEEA
  8
0
 10
119.29674740880731
 20
152.52499988675109
 30
0.0
  0
VERTEX
  5
BEEB
  8
0
 10
119.4662956148386
 20
152.5763809531926
 30
0.0
  0
VERTEX
  5
BEEC
  8
0
 10
119.61309906095271
 20
152.72270290553561
 30
0.0
  0
VERTEX
  5
BEED
  8
0
 10
119.7127356752754
 20
152.94168850779531
 30
0.0
  0
VERTEX
  5
BEEE
  8
0
 10
119.7480141744018
 20
153.2000001370906
 30
0.0
  0
SEQEND
  5
BEEF
  8
0
  0
POLYLINE
  5
67F7
  8
0
 66
     1
 10
0.0
 20
0.0
 30
0.0
 70
   128
  0
VERTEX
  5
BEF0
  8
0
 10
117.4708140641451
 20
153.53750026226041
 30
0.0
  0
VERTEX
  5
BEF1
  8
0
 10
117.4597704410553
 20
153.6667249947786
 30
0.0
  0
VERTEX
  5
BEF2
  8
0
 10
117.4289809167385
 20
153.7760771661996
 30
0.0
  0
VERTEX
  5
BEF3
  8
0
 10
117.38348767161369
 20
153.84919530153269
 30
0.0
  0
VERTEX
  5
BEF4
  8
0
 10
117.33084000647069
 20
153.87500038743011
 30
0.0
  0
VERTEX
  5
BEF5
  8
0
 10
117.2794952616096
 20
153.84947656095019
 30
0.0
  0
VERTEX
  5
BEF6
  8
0
 10
117.2368211299181
 20
153.77659125626079
 30
0.0
  0
VERTEX
  5
BEF7
  8
0
 10
117.2086430341006
 20
153.66661509871469
 30
0.0
  0
VERTEX
  5
BEF8
  8
0
 10
117.1988743916154
 20
153.53750026226041
 30
0.0
  0
SEQEND
  5
BEF9
  8
0
  0
LINE
  5
67F8
  8
0
 10
117.4708140641451
 20
153.0875000953674
 30
0.0
 11
117.4708140641451
 21
153.53750026226041
 31
0.0
  0
LINE
  5
67F9
  8
0
 10
117.4708140641451
 20
153.0875000953674
 30
0.0
 11
117.1988743916154
 21
153.0875000953674
 31
0.0
  0
LINE
  5
67FA
  8
0
 10
117.1988743916154
 20
153.53750026226041
 30
0.0
 11
117.1988743916154
 21
153.0875000953674
 31
0.0
  0
ARC
  5
6805
  8
0
 10
213.9377379902385
 20
-87.316952751875647
 30
0.0
 40
266.00277482398229
 50
107.47699612966611
 51
111.3089451727727
  0
POLYLINE
  5
6806
  8
0
 66
     1
 10
0.0
 20
0.0
 30
0.0
 70
   128
  0
VERTEX
  5
BEFA
  8
0
 10
135.67924374714499
 20
164.49882051348681
 30
0.0
  0
VERTEX
  5
BEFB
  8
0
 10
135.57117586955431
 20
164.8785505294799
 30
0.0
  0
VERTEX
  5
BEFC
  8
0
 10
135.4154047183693
 20
165.2691434919833
 30
0.0
  0
VERTEX
  5
BEFD
  8
0
 10
135.21479364484551
 20
165.6420934796333
 30
0.0
  0
VERTEX
  5
BEFE
  8
0
 10
134.9799406342209
 20
165.96565729379651
 30
0.0
  0
VERTEX
  5
BEFF
  8
0
 10
134.72792241722351
 20
166.2125248312949
 30
0.0
  0
VERTEX
  5
BF00
  8
0
 10
134.47840759530669
 20
166.3669567406177
 30
0.0
  0
VERTEX
  5
BF01
  8
0
 10
134.24884729087361
 20
166.4278317093848
 30
0.0
  0
VERTEX
  5
BF02
  8
0
 10
134.05102273449299
 20
166.40649697184551
 30
0.0
  0
SEQEND
  5
BF03
  8
0
  0
LINE
  5
6807
  8
0
 10
121.5342387184501
 20
149.99999998509881
 30
0.0
 11
116.0000005364418
 21
149.99999998509881
 31
0.0
  0
ARC
  5
6808
  8
0
 10
121.3900340273379
 20
151.8693915018645
 30
0.0
 40
1.8749452354387861
 50
274.41105562163978
 51
3.994462841182612
  0
LINE
  5
6809
  8
0
 10
123.2604246214032
 20
154.3999999612569
 30
0.0
 11
123.2604246214032
 21
152.0000003129243
 31
0.0
  0
ARC
  5
680A
  8
0
 10
121.34715096286639
 20
154.49359670770039
 30
0.0
 40
1.9155616522043191
 50
357.19934115690842
 51
84.395140380268344
  0
LINE
  5
680B
  8
0
 10
121.5342387184501
 20
156.40000028908241
 30
0.0
 11
116.0000005364418
 21
156.40000028908241
 31
0.0
  0
LINE
  5
680D
  8
0
 10
137.4357642233372
 20
142.14483702927819
 30
0.0
 11
137.4357642233372
 21
132.00000029429791
 31
0.0
  0
LINE
  5
680E
  8
0
 10
135.67924374714499
 20
141.73254890739909
 30
0.0
 11
135.67924374714499
 21
164.49882051348681
 31
0.0
  0
LINE
  5
680F
  8
0
 10
146.06318274961981
 20
131.00000036321569
 30
0.0
 11
117.0000007003546
 21
131.0000003632158
 31
0.0
  0
POLYLINE
  5
6810
  8
0
 66
     1
 10
0.0
 20
0.0
 30
0.0
 70
   128
  0
VERTEX
  5
BF04
  8
0
 10
136.7868591658771
 20
131.0000003632158
 30
0.0
  0
VERTEX
  5
BF05
  8
0
 10
136.9134543091059
 20
131.0192149449139
 30
0.0
  0
VERTEX
  5
BF06
  8
0
 10
137.03518375754359
 20
131.0761208496987
 30
0.0
  0
VERTEX
  5
BF07
  8
0
 10
137.1473708748818
 20
131.16853063367299
 30
0.0
  0
VERTEX
  5
BF08
  8
0
 10
137.2457036376
 20
131.29289339669049
 30
0.0
  0
VERTEX
  5
BF09
  8
0
 10
137.32640367001301
 20
131.44443005695939
 30
0.0
  0
VERTEX
  5
BF0A
  8
0
 10
137.38636873662469
 20
131.61731682159001
 30
0.0
  0
VERTEX
  5
BF0B
  8
0
 10
137.42329567670831
 20
131.80490986816579
 30
0.0
  0
VERTEX
  5
BF0C
  8
0
 10
137.4357642233372
 20
132.00000029429791
 30
0.0
  0
SEQEND
  5
BF0D
  8
0
  0
POLYLINE
  5
6812
  8
0
 66
     1
 10
0.0
 20
0.0
 30
0.0
 70
   128
  0
VERTEX
  5
BF0E
  8
0
 10
137.41374962031841
 20
143.20701508223999
 30
0.0
  0
VERTEX
  5
BF0F
  8
0
 10
138.23973961174491
 20
143.97921095043409
 30
0.0
  0
VERTEX
  5
BF10
  8
0
 10
139.3566719815135
 20
145.06738966703409
 30
0.0
  0
VERTEX
  5
BF11
  8
0
 10
140.512719899416
 20
146.1713738590478
 30
0.0
  0
SEQEND
  5
BF12
  8
0
  0
POLYLINE
  5
6813
  8
0
 66
     1
 10
0.0
 20
0.0
 30
0.0
 70
   128
  0
VERTEX
  5
BF13
  8
0
 10
135.67924374714499
 20
141.73254890739909
 30
0.0
  0
VERTEX
  5
BF14
  8
0
 10
135.6952853128314
 20
141.74618626385919
 30
0.0
  0
VERTEX
  5
BF15
  8
0
 10
136.01095290854579
 20
142.01432986557481
 30
0.0
  0
VERTEX
  5
BF16
  8
0
 10
137.41374962031841
 20
143.20701508223999
 30
0.0
  0
SEQEND
  5
BF17
  8
0
  0
ARC
  5
6818
  8
0
 10
213.96482358209161
 20
-87.404751973686189
 30
0.0
 40
266.09465544651658
 50
106.852594062094
 51
107.476881394188
  0
POLYLINE
  5
6819
  8
0
 66
     1
 10
0.0
 20
0.0
 30
0.0
 70
   128
  0
VERTEX
  5
BF18
  8
0
 10
139.03434682637459
 20
167.9220679998397
 30
0.0
  0
VERTEX
  5
BF19
  8
0
 10
137.95053880661729
 20
167.60053446888921
 30
0.0
  0
VERTEX
  5
BF1A
  8
0
 10
136.82120587676769
 20
167.26214399933809
 30
0.0
  0
SEQEND
  5
BF1B
  8
0
  0
LINE
  5
681A
  8
0
 10
139.03434682637459
 20
167.9220679998397
 30
0.0
 11
139.17779564857489
 21
167.96411907672871
 31
0.0
  0
ARC
  5
681B
  8
0
 10
141.61015218905931
 20
142.76267216675981
 30
0.0
 40
4.21986198180372
 50
173.95566564110359
 51
188.4190083124499
  0
ARC
  5
682B
  8
0
 10
213.9366967397327
 20
-87.313788196614382
 30
0.0
 40
265.9994421689924
 50
97.617740067434056
 51
106.32282763369609
  0
ARC
  5
682E
  8
0
 10
187.84482967436131
 20
97.570370933611983
 30
0.0
 40
67.82232371343045
 50
118.5870574017443
 51
132.43296708158789
  0
POLYLINE
  5
682F
  8
0
 66
     1
 10
0.0
 20
0.0
 30
0.0
 70
   128
  0
VERTEX
  5
BF1C
  8
0
 10
140.512719899416
 20
146.1713738590478
 30
0.0
  0
VERTEX
  5
BF1D
  8
0
 10
140.51276367157701
 20
146.17141483724109
 30
0.0
  0
VERTEX
  5
BF1E
  8
0
 10
142.08326503634461
 20
147.62780590355391
 30
0.0
  0
SEQEND
  5
BF1F
  8
0
  0
POLYLINE
  5
6834
  8
0
 66
     1
 10
0.0
 20
0.0
 30
0.0
 70
   128
  0
VERTEX
  5
BF20
  8
0
 10
164.41479340195659
 20
161.02882435917849
 30
0.0
  0
VERTEX
  5
BF21
  8
0
 10
165.27142018079761
 20
161.27071490883819
 30
0.0
  0
VERTEX
  5
BF22
  8
0
 10
165.62852650880819
 20
161.3438870608806
 30
0.0
  0
VERTEX
  5
BF23
  8
0
 10
165.62858611345291
 20
161.3438982367515
 30
0.0
  0
SEQEND
  5
BF24
  8
0
  0
ARC
  5
6835
  8
0
 10
182.12678537061521
 20
107.73039943959709
 30
0.0
 40
56.164372678826211
 50
108.38254308276611
 51
118.42432158770509
  0
ARC
  5
683A
  8
0
 10
158.2516791240391
 20
214.26939116021069
 30
0.0
 40
53.437058678557953
 50
277.9349222120448
 51
281.20225144571708
  0
POLYLINE
  5
683E
  8
0
 66
     1
 10
0.0
 20
0.0
 30
0.0
 70
   128
  0
VERTEX
  5
BF25
  8
0
 10
147.58851766586309
 20
133.80942687764761
 30
0.0
  0
VERTEX
  5
BF26
  8
0
 10
147.25482478737831
 20
132.87152218073601
 30
0.0
  0
VERTEX
  5
BF27
  8
0
 10
147.05490335822111
 20
131.87500027380881
 30
0.0
  0
SEQEND
  5
BF28
  8
0
  0
ARC
  5
6843
  8
0
 10
184.97539338514611
 20
99.971399755841446
 30
0.0
 40
64.000243611861791
 50
89.935273625178937
 51
104.7604539808018
  0
POLYLINE
  5
6844
  8
0
 66
     1
 10
0.0
 20
0.0
 30
0.0
 70
   128
  0
VERTEX
  5
BF29
  8
0
 10
168.63305136561391
 20
161.8504408597945
 30
0.0
  0
VERTEX
  5
BF2A
  8
0
 10
168.66872474551201
 20
161.85937410593019
 30
0.0
  0
VERTEX
  5
BF2B
  8
0
 10
168.6695145070538
 20
161.85960134863811
 30
0.0
  0
SEQEND
  5
BF2C
  8
0
  0
ARC
  5
6845
  8
0
 10
146.0627468714689
 20
132.0000002682209
 30
0.0
 40
1.0000000000000191
 50
270.0
 51
352.81924421854188
  0
ARC
  5
684A
  8
0
 10
169.7000067841453
 20
157.9945965971088
 30
0.0
 40
4.0000059794829648
 50
104.9407552527346
 51
179.99998318985601
  0
ARC
  5
684C
  8
0
 10
188.61448388308429
 20
101.97850259095981
 30
0.0
 40
75.021664139223205
 50
81.470469726592867
 51
83.851187731517655
  0
POLYLINE
  5
684E
  8
0
 66
     1
 10
0.0
 20
0.0
 30
0.0
 70
   128
  0
VERTEX
  5
BF2D
  8
0
 10
199.69502106308951
 20
162.25592380762089
 30
0.0
  0
VERTEX
  5
BF2E
  8
0
 10
199.6914447844029
 20
162.2567694485187
 30
0.0
  0
VERTEX
  5
BF2F
  8
0
 10
199.54432561993599
 20
162.29134386777869
 30
0.0
  0
VERTEX
  5
BF30
  8
0
 10
199.40982773900029
 20
162.3226325809955
 30
0.0
  0
VERTEX
  5
BF31
  8
0
 10
199.23463478684431
 20
162.36293277144421
 30
0.0
  0
VERTEX
  5
BF32
  8
0
 10
198.96934196352959
 20
162.4229732751846
 30
0.0
  0
VERTEX
  5
BF33
  8
0
 10
198.6492501199246
 20
162.49383574724189
 30
0.0
  0
VERTEX
  5
BF34
  8
0
 10
198.25710371136671
 20
162.57831415534011
 30
0.0
  0
VERTEX
  5
BF35
  8
0
 10
197.8165508806706
 20
162.67015746235839
 30
0.0
  0
VERTEX
  5
BF36
  8
0
 10
197.3217801749706
 20
162.76945880055419
 30
0.0
  0
VERTEX
  5
BF37
  8
0
 10
196.798816472292
 20
162.8700192868709
 30
0.0
  0
VERTEX
  5
BF38
  8
0
 10
195.6841425597668
 20
163.0693595707416
 30
0.0
  0
SEQEND
  5
BF39
  8
0
  0
ARC
  5
6855
  8
0
 10
188.61721629510831
 20
102.0005685742146
 30
0.0
 40
74.999432429449669
 50
83.851457543126145
 51
92.903515573837694
  0
ARC
  5
6857
  8
0
 10
154.0000008046627
 20
131.0000002682209
 30
0.0
 40
6.9999999999999929
 50
90.0
 51
156.33760717254521
  0
LINE
  5
685B
  8
0
 10
163.69999960064891
 20
137.9999998807906
 30
0.0
 11
154.00000117719179
 21
137.9999998807906
 31
0.0
  0
LINE
  5
685C
  8
0
 10
165.69999992847451
 20
157.99459776282299
 30
0.0
 11
165.69999992847451
 21
140.0000002086162
 31
0.0
  0
ARC
  5
6860
  8
0
 10
184.9753248615807
 20
99.971334914749718
 30
0.0
 40
64.000308530359021
 50
80.367705638536805
 51
89.935212345603418
  0
ARC
  5
6861
  8
0
 10
188.61692717006991
 20
102.0030315070166
 30
0.0
 40
74.996958013211227
 50
92.903390285091476
 51
97.617853745426544
  0
ARC
  5
6863
  8
0
 10
163.699982974546
 20
140.0000168347191
 30
0.0
 40
2.0000169539975849
 50
270.00047629872859
 51
359.9995237012746
  0
LINE
  5
686A
  8
0
 10
125.0000006146729
 20
237.30940175599611
 30
0.0
 11
125.0000006146729
 21
232.6905996481255
 31
0.0
  0
LINE
  5
686C
  8
0
 10
133.00000099465251
 20
232.6905996481255
 30
0.0
 11
133.00000099465251
 21
237.30940175599611
 31
0.0
  0
CIRCLE
  5
6881
  8
0
 10
129.0000008046627
 20
235.00000070206079
 30
0.0
 40
3.4000000000000048
  0
ARC
  5
6883
  8
0
 10
187.95279534305189
 20
127.8404556203709
 30
0.0
 40
99.999873325259884
 50
85.439658636535583
 51
91.630815268777326
  0
ARC
  5
6889
  8
0
 10
187.9527988329734
 20
342.15940930144478
 30
0.0
 40
99.999736997556852
 50
268.36918050696943
 51
274.56034558771711
  0
POLYLINE
  5
6890
  8
0
 66
     1
 10
0.0
 20
0.0
 30
0.0
 70
   128
  0
VERTEX
  5
BF3A
  8
0
 10
179.25403654575351
 20
242.38833262941989
 30
0.0
  0
VERTEX
  5
BF3B
  8
0
 10
182.1780355274677
 20
242.28895166314391
 30
0.0
  0
VERTEX
  5
BF3C
  8
0
 10
182.68391132354739
 20
242.27284816450631
 30
0.0
  0
VERTEX
  5
BF3D
  8
0
 10
183.64362433552739
 20
242.2431813495532
 30
0.0
  0
VERTEX
  5
BF3E
  8
0
 10
185.10687366127971
 20
242.20017706400901
 30
0.0
  0
SEQEND
  5
BF3F
  8
0
  0
POLYLINE
  5
6891
  8
0
 66
     1
 10
0.0
 20
0.0
 30
0.0
 70
   128
  0
VERTEX
  5
BF40
  8
0
 10
185.10687366127971
 20
227.79982434011251
 30
0.0
  0
VERTEX
  5
BF41
  8
0
 10
183.98823603987699
 20
227.76718986577541
 30
0.0
  0
VERTEX
  5
BF42
  8
0
 10
182.5425030291081
 20
227.722684288241
 30
0.0
  0
VERTEX
  5
BF43
  8
0
 10
181.49835631251341
 20
227.68890708110479
 30
0.0
  0
VERTEX
  5
BF44
  8
0
 10
180.28526023030281
 20
227.6479447203055
 30
0.0
  0
VERTEX
  5
BF45
  8
0
 10
179.25403654575351
 20
227.61166877470171
 30
0.0
  0
SEQEND
  5
BF46
  8
0
  0
ARC
  5
6893
  8
0
 10
196.4999993239451
 20
235.00000070206079
 30
0.0
 40
7.5000001537619987
 50
265.43965298948848
 51
94.560347010511521
  0
POLYLINE
  5
6897
  8
0
 66
     1
 10
0.0
 20
0.0
 30
0.0
 70
   128
  0
VERTEX
  5
BF47
  8
0
 10
139.033815972507
 20
242.63645558974889
 30
0.0
  0
VERTEX
  5
BF48
  8
0
 10
141.49242002516991
 20
241.98612933403999
 30
0.0
  0
VERTEX
  5
BF49
  8
0
 10
143.91835886985069
 20
241.1888110393956
 30
0.0
  0
VERTEX
  5
BF4A
  8
0
 10
146.2752690166235
 20
240.19380974940211
 30
0.0
  0
VERTEX
  5
BF4B
  8
0
 10
147.94067494571209
 20
239.2925176712051
 30
0.0
  0
VERTEX
  5
BF4C
  8
0
 10
149.46938879787919
 20
238.16839525832981
 30
0.0
  0
VERTEX
  5
BF4D
  8
0
 10
150.12482382357121
 20
237.51353299602121
 30
0.0
  0
VERTEX
  5
BF4E
  8
0
 10
150.6756210327149
 20
236.7660803895742
 30
0.0
  0
VERTEX
  5
BF4F
  8
0
 10
151.10536120831969
 20
235.76337304556
 30
0.0
  0
VERTEX
  5
BF50
  8
0
 10
151.18455901741979
 20
234.6665233665444
 30
0.0
  0
VERTEX
  5
BF51
  8
0
 10
150.94732694327831
 20
233.7671896850988
 30
0.0
  0
VERTEX
  5
BF52
  8
0
 10
150.64563617110261
 20
233.18507337833941
 30
0.0
  0
VERTEX
  5
BF53
  8
0
 10
150.26488915085801
 20
232.65306106194109
 30
0.0
  0
VERTEX
  5
BF54
  8
0
 10
149.32210199534899
 20
231.7018931674138
 30
0.0
  0
VERTEX
  5
BF55
  8
0
 10
148.2473520189524
 20
230.9068966599479
 30
0.0
  0
VERTEX
  5
BF56
  8
0
 10
147.1120902895928
 20
230.23188430241501
 30
0.0
  0
VERTEX
  5
BF57
  8
0
 10
145.9324212372303
 20
229.644933616586
 30
0.0
  0
VERTEX
  5
BF58
  8
0
 10
143.6808529868722
 20
228.72628121993691
 30
0.0
  0
VERTEX
  5
BF59
  8
0
 10
141.3716330751777
 20
227.97966272927081
 30
0.0
  0
VERTEX
  5
BF5A
  8
0
 10
139.0339333191514
 20
227.3635742197111
 30
0.0
  0
SEQEND
  5
BF5B
  8
0
  0
POLYLINE
  5
689A
  8
0
 66
     1
 10
0.0
 20
0.0
 30
0.0
 70
   128
  0
VERTEX
  5
BF5C
  8
0
 10
139.96614810079339
 20
244.76837030968821
 30
0.0
  0
VERTEX
  5
BF5D
  8
0
 10
142.93113645166159
 20
244.5207130106464
 30
0.0
  0
VERTEX
  5
BF5E
  8
0
 10
146.02435581386089
 20
244.2742180021778
 30
0.0
  0
VERTEX
  5
BF5F
  8
0
 10
149.24587696790701
 20
244.0303772630468
 30
0.0
  0
VERTEX
  5
BF60
  8
0
 10
152.23448738455781
 20
243.81590391866121
 30
0.0
  0
VERTEX
  5
BF61
  8
0
 10
155.34519419074061
 20
243.6046594696418
 30
0.0
  0
VERTEX
  5
BF62
  8
0
 10
158.63271631300449
 20
243.39468906990439
 30
0.0
  0
VERTEX
  5
BF63
  8
0
 10
161.56955450773239
 20
243.2186504768506
 30
0.0
  0
VERTEX
  5
BF64
  8
0
 10
163.41859489679339
 20
243.1133961247578
 30
0.0
  0
VERTEX
  5
BF65
  8
0
 10
165.38911700248721
 20
243.00597085974371
 30
0.0
  0
VERTEX
  5
BF66
  8
0
 10
167.48116180300721
 20
242.89727433941511
 30
0.0
  0
VERTEX
  5
BF67
  8
0
 10
169.57937568426141
 20
242.79379508814961
 30
0.0
  0
VERTEX
  5
BF68
  8
0
 10
171.27754926681521
 20
242.71410367808491
 30
0.0
  0
VERTEX
  5
BF69
  8
0
 10
172.60835334658631
 20
242.65418843723091
 30
0.0
  0
VERTEX
  5
BF6A
  8
0
 10
174.11243185400971
 20
242.58915557882941
 30
0.0
  0
VERTEX
  5
BF6B
  8
0
 10
175.82229912281039
 20
242.51868100262431
 30
0.0
  0
VERTEX
  5
BF6C
  8
0
 10
177.26649358868599
 20
242.46202119982991
 30
0.0
  0
VERTEX
  5
BF6D
  8
0
 10
178.41042593121529
 20
242.4190029444471
 30
0.0
  0
VERTEX
  5
BF6E
  8
0
 10
179.25403654575351
 20
242.38833262941989
 30
0.0
  0
SEQEND
  5
BF6F
  8
0
  0
POLYLINE
  5
689B
  8
0
 66
     1
 10
0.0
 20
0.0
 30
0.0
 70
   128
  0
VERTEX
  5
BF70
  8
0
 10
179.25403654575351
 20
227.61166877470171
 30
0.0
  0
VERTEX
  5
BF71
  8
0
 10
178.32117170095449
 20
227.57770111209899
 30
0.0
  0
VERTEX
  5
BF72
  8
0
 10
177.03254163265231
 20
227.5289794372693
 30
0.0
  0
VERTEX
  5
BF73
  8
0
 10
175.38822084665301
 20
227.4637775438205
 30
0.0
  0
VERTEX
  5
BF74
  8
0
 10
173.56015384197241
 20
227.38729733399299
 30
0.0
  0
VERTEX
  5
BF75
  8
0
 10
171.99825510382661
 20
227.31862207300219
 30
0.0
  0
VERTEX
  5
BF76
  8
0
 10
171.08668029308319
 20
227.27712187341601
 30
0.0
  0
VERTEX
  5
BF77
  8
0
 10
170.26300743222239
 20
227.2387239093259
 30
0.0
  0
VERTEX
  5
BF78
  8
0
 10
169.52722162008291
 20
227.2037010582462
 30
0.0
  0
VERTEX
  5
BF79
  8
0
 10
168.56904342770579
 20
227.1570706682578
 30
0.0
  0
VERTEX
  5
BF7A
  8
0
 10
167.54948362708089
 20
227.10618320278081
 30
0.0
  0
VERTEX
  5
BF7B
  8
0
 10
166.55636966228491
 20
227.05535720459369
 30
0.0
  0
VERTEX
  5
BF7C
  8
0
 10
163.22534918785101
 20
226.875806594111
 30
0.0
  0
VERTEX
  5
BF7D
  8
0
 10
160.23140974342829
 20
226.70249025694281
 30
0.0
  0
VERTEX
  5
BF7E
  8
0
 10
156.96717254817489
 20
226.5006419213787
 30
0.0
  0
VERTEX
  5
BF7F
  8
0
 10
153.4579882025719
 20
226.26864294878391
 30
0.0
  0
VERTEX
  5
BF80
  8
0
 10
150.16224436461931
 20
226.0365862341896
 30
0.0
  0
VERTEX
  5
BF81
  8
0
 10
146.6585566848517
 20
225.7748249860779
 30
0.0
  0
VERTEX
  5
BF82
  8
0
 10
143.23486402630809
 20
225.5040289776698
 30
0.0
  0
VERTEX
  5
BF83
  8
0
 10
139.96614810079339
 20
225.2316310944334
 30
0.0
  0
SEQEND
  5
BF84
  8
0
  0
POLYLINE
  5
689D
  8
0
 66
     1
 10
0.0
 20
0.0
 30
0.0
 70
   128
  0
VERTEX
  5
BF85
  8
0
 10
136.89217172563079
 20
228.0744215416089
 30
0.0
  0
VERTEX
  5
BF86
  8
0
 10
139.8430281877518
 20
228.66302811897549
 30
0.0
  0
VERTEX
  5
BF87
  8
0
 10
142.769216708839
 20
229.4169332774654
 30
0.0
  0
VERTEX
  5
BF88
  8
0
 10
145.63146434724331
 20
230.4063480289951
 30
0.0
  0
VERTEX
  5
BF89
  8
0
 10
146.78566731512549
 20
230.90699258617309
 30
0.0
  0
VERTEX
  5
BF8A
  8
0
 10
147.90503323078161
 20
231.4878344944045
 30
0.0
  0
VERTEX
  5
BF8B
  8
0
 10
148.95065702497959
 20
232.16154113768789
 30
0.0
  0
VERTEX
  5
BF8C
  8
0
 10
149.8857216536999
 20
232.98560212723169
 30
0.0
  0
VERTEX
  5
BF8D
  8
0
 10
150.25640107691291
 20
233.4376584215388
 30
0.0
  0
VERTEX
  5
BF8E
  8
0
 10
150.5555307120085
 20
233.94176400623471
 30
0.0
  0
VERTEX
  5
BF8F
  8
0
 10
150.78835390508181
 20
234.7137360368688
 30
0.0
  0
VERTEX
  5
BF90
  8
0
 10
150.7425719499588
 20
235.5354621716142
 30
0.0
  0
VERTEX
  5
BF91
  8
0
 10
150.7106294482947
 20
235.6552895101085
 30
0.0
  0
VERTEX
  5
BF92
  8
0
 10
150.28886325657371
 20
236.51593168623
 30
0.0
  0
VERTEX
  5
BF93
  8
0
 10
149.74235571920869
 20
237.16376502423731
 30
0.0
  0
VERTEX
  5
BF94
  8
0
 10
149.10483933985239
 20
237.71915574914959
 30
0.0
  0
VERTEX
  5
BF95
  8
0
 10
147.59157426655301
 20
238.69081693127009
 30
0.0
  0
VERTEX
  5
BF96
  8
0
 10
145.96824921667579
 20
239.4555130916014
 30
0.0
  0
VERTEX
  5
BF97
  8
0
 10
143.00235096365219
 20
240.51636447555569
 30
0.0
  0
VERTEX
  5
BF98
  8
0
 10
139.9611664563418
 20
241.31197379327571
 30
0.0
  0
VERTEX
  5
BF99
  8
0
 10
136.89217172563079
 20
241.92557986251271
 30
0.0
  0
SEQEND
  5
BF9A
  8
0
  0
ARC
  5
689E
  8
0
 10
128.99786165484369
 20
235.00000070206079
 30
0.0
 40
10.501608362599329
 50
318.73992952071802
 51
41.260070479282042
  0
POLYLINE
  5
689F
  8
0
 66
     1
 10
0.0
 20
0.0
 30
0.0
 70
   128
  0
VERTEX
  5
BF9B
  8
0
 10
139.03477896004921
 20
227.36344709417969
 30
0.0
  0
VERTEX
  5
BF9C
  8
0
 10
137.95053880661729
 20
227.18953703887021
 30
0.0
  0
VERTEX
  5
BF9D
  8
0
 10
136.82120587676769
 20
226.8733953999654
 30
0.0
  0
SEQEND
  5
BF9E
  8
0
  0
LINE
  5
68A0
  8
0
 10
136.82120587676769
 20
226.8733953999654
 30
0.0
 11
135.26720056310299
 21
226.57550069860369
 31
0.0
  0
POLYLINE
  5
68A1
  8
0
 66
     1
 10
0.0
 20
0.0
 30
0.0
 70
   128
  0
VERTEX
  5
BF9F
  8
0
 10
135.26720056310299
 20
226.57550069860369
 30
0.0
  0
VERTEX
  5
BFA0
  8
0
 10
136.09915893524891
 20
227.2635962756649
 30
0.0
  0
VERTEX
  5
BFA1
  8
0
 10
136.89217172563079
 20
228.0744215416089
 30
0.0
  0
SEQEND
  5
BFA2
  8
0
  0
ARC
  5
68A2
  8
0
 10
128.99999945541191
 20
234.99999409130299
 30
0.0
 40
10.500005781769429
 50
41.267790681923017
 51
53.353518589724807
  0
LINE
  5
68A3
  8
0
 10
135.26720056310299
 20
243.4245007055178
 30
0.0
 11
136.83155473321679
 21
243.12450214646009
 31
0.0
  0
ARC
  5
68A4
  8
0
 10
142.55741778132619
 20
263.7493739283122
 30
0.0
 40
21.404931585831541
 50
254.48368286050459
 51
260.52529164214491
  0
ARC
  5
68A5
  8
0
 10
140.8171269310109
 20
215.26789510871529
 30
0.0
 40
10.000009988123651
 50
94.881648659930477
 51
120.91646457036219
  0
ARC
  5
68A9
  8
0
 10
140.81712663203271
 20
254.73210536969989
 30
0.0
 40
10.00000904033284
 50
239.08353417418849
 51
265.11835259552248
  0
ARC
  5
68AC
  8
0
 10
129.0002135454676
 20
235.00000070206079
 30
0.0
 40
10.499872693869181
 50
53.354434382876541
 51
306.64556561712351
  0
ARC
  5
68AD
  8
0
 10
129.00000083915629
 20
235.00000070206079
 30
0.0
 40
13.00000001660751
 50
59.08352807438316
 51
300.91647192561692
  0
ARC
  5
68AE
  8
0
 10
60.469436129724727
 20
119.5003121521322
 30
0.0
 40
1.4848028178454249
 50
297.48016850972112
 51
62.47468556822546
  0
LINE
  5
68AF
  8
0
 10
64.000000320375023
 20
124.500000461936
 30
0.0
 11
64.000000320375023
 21
128.50000024447209
 31
0.0
  0
LINE
  5
68B0
  8
0
 10
52.000000216066887
 20
128.50000024447209
 30
0.0
 11
52.000000216066887
 21
124.500000461936
 31
0.0
  0
LINE
  5
68B1
  8
0
 10
52.000000216066887
 20
124.500000461936
 30
0.0
 11
52.500000298023281
 21
124.0000003799796
 31
0.0
  0
LINE
  5
68B2
  8
0
 10
63.500000238418643
 20
124.0000003799796
 30
0.0
 11
64.000000320375023
 21
124.500000461936
 31
0.0
  0
LINE
  5
68B3
  8
0
 10
64.000000320375023
 20
128.50000024447209
 30
0.0
 11
63.500000238418643
 21
129.0000002682209
 31
0.0
  0
LINE
  5
68B4
  8
0
 10
52.500000298023281
 20
129.0000002682209
 30
0.0
 11
52.000000216066887
 21
128.50000024447209
 31
0.0
  0
LINE
  5
68B5
  8
0
 10
53.900000248104391
 20
124.0000003799796
 30
0.0
 11
53.900000248104391
 21
123.5000002980232
 31
0.0
  0
LINE
  5
68B6
  8
0
 10
62.100000288337533
 20
123.5000002980232
 30
0.0
 11
62.100000288337533
 21
124.0000003799796
 31
0.0
  0
LINE
  5
68B7
  8
0
 10
54.850000264123139
 20
116.2500005066394
 30
0.0
 11
55.100000305101332
 21
116.0
 31
0.0
  0
LINE
  5
68B8
  8
0
 10
60.900000231340577
 20
116.0
 30
0.0
 11
61.150000272318778
 21
116.2500005066394
 31
0.0
  0
ARC
  5
68B9
  8
0
 10
49.500000268220951
 20
165.00000026822079
 30
0.0
 40
2.000000000000028
 50
90.0
 51
180.0
  0
ARC
  5
68BA
  8
0
 10
66.500000268220958
 20
165.00000026822079
 30
0.0
 40
2.000000000000028
 50
0.0
 51
90.0
  0
LINE
  5
68BB
  8
0
 10
68.500000126659927
 20
164.65017160773269
 30
0.0
 11
68.500000126659927
 21
164.99999871850011
 31
0.0
  0
LINE
  5
68BC
  8
0
 10
47.50000040978199
 20
164.99999871850011
 30
0.0
 11
47.50000040978199
 21
164.76052960753429
 31
0.0
  0
LINE
  5
68BD
  8
0
 10
64.500000402331409
 20
129.5000002919696
 30
0.0
 11
64.500000402331409
 21
131.0000003632158
 31
0.0
  0
LINE
  5
68BE
  8
0
 10
51.500000134110508
 20
131.0000003632158
 30
0.0
 11
51.500000134110508
 21
129.5000002919696
 31
0.0
  0
LINE
  5
68BF
  8
0
 10
51.500000134110508
 20
129.5000002919696
 30
0.0
 11
52.000000216066887
 21
129.0000002682209
 31
0.0
  0
LINE
  5
68C0
  8
0
 10
64.000000320375023
 20
129.0000002682209
 30
0.0
 11
64.500000402331409
 21
129.5000002919696
 31
0.0
  0
LINE
  5
68C1
  8
0
 10
45.000000000000057
 20
162.64865881204599
 30
0.0
 11
45.000000000000057
 21
132.00000029429791
 31
0.0
  0
LINE
  5
68C2
  8
0
 10
71.00000053644186
 20
132.00000029429791
 30
0.0
 11
71.00000053644186
 21
162.64872214198101
 31
0.0
  0
ARC
  5
68C3
  8
0
 10
49.235376151253718
 20
162.340130469824
 30
0.0
 40
4.2465781036513208
 50
111.71550856576511
 51
175.8293122075136
  0
ARC
  5
68C4
  8
0
 10
66.765032014479914
 20
162.34032154203581
 30
0.0
 40
4.2462466481773946
 50
4.1614737664915058
 51
68.288481804105999
  0
ARC
  5
68C5
  8
0
 10
46.000000268220958
 20
132.0000002682209
 30
0.0
 40
1.0
 50
180.0
 51
270.0
  0
ARC
  5
68C6
  8
0
 10
70.000000268220958
 20
132.0000002682209
 30
0.0
 40
1.0
 50
270.0
 51
0.0
  0
ARC
  5
68C7
  8
0
 10
66.748368727366653
 20
163.40976857616309
 30
0.0
 40
3.284662007881884
 50
61.097821143392601
 51
71.386488831840396
  0
ARC
  5
68C8
  8
0
 10
48.999465625763428
 20
164.01614024391071
 30
0.0
 40
2.6329300578760639
 50
107.4671008809421
 51
120.47470240233621
  0
POLYLINE
  5
68C9
  8
0
 66
     1
 10
0.0
 20
0.0
 30
0.0
 70
   128
  0
VERTEX
  5
BFA3
  8
0
 10
50.767921917140313
 20
173.9606667160987
 30
0.0
  0
VERTEX
  5
BFA4
  8
0
 10
50.639090668409949
 20
173.50451236963261
 30
0.0
  0
VERTEX
  5
BFA5
  8
0
 10
50.506302695721281
 20
173.0798367261886
 30
0.0
  0
VERTEX
  5
BFA6
  8
0
 10
50.375211127102261
 20
172.6857680678367
 30
0.0
  0
VERTEX
  5
BFA7
  8
0
 10
50.250831600278502
 20
172.3251376152038
 30
0.0
  0
VERTEX
  5
BFA8
  8
0
 10
50.160648375749481
 20
172.06843531131739
 30
0.0
  0
VERTEX
  5
BFA9
  8
0
 10
50.079061724245491
 20
171.83827197551719
 30
0.0
  0
VERTEX
  5
BFAA
  8
0
 10
50.007572472095433
 20
171.63755705952639
 30
0.0
  0
VERTEX
  5
BFAB
  8
0
 10
49.935562610626157
 20
171.43582141399381
 30
0.0
  0
VERTEX
  5
BFAC
  8
0
 10
49.816159605979863
 20
171.10126054286951
 30
0.0
  0
VERTEX
  5
BFAD
  8
0
 10
49.664982669055398
 20
170.67572435736651
 30
0.0
  0
VERTEX
  5
BFAE
  8
0
 10
49.479196853935662
 20
170.14667725563041
 30
0.0
  0
VERTEX
  5
BFAF
  8
0
 10
49.255797713994923
 20
169.49713936448089
 30
0.0
  0
VERTEX
  5
BFB0
  8
0
 10
48.991691395640309
 20
168.70452052354801
 30
0.0
  0
VERTEX
  5
BFB1
  8
0
 10
48.683779388666089
 20
167.73910409212101
 30
0.0
  0
VERTEX
  5
BFB2
  8
0
 10
48.351688199429361
 20
166.6374920674881
 30
0.0
  0
SEQEND
  5
BFB3
  8
0
  0
ARC
  5
68CA
  8
0
 10
-62.965062724276947
 20
127.5987862979289
 30
0.0
 40
136.32289244501101
 50
16.640637465030348
 51
19.882280543735138
  0
LINE
  5
68CB
  8
0
 10
61.42778189852816
 20
177.0000006854533
 30
0.0
 11
54.572013979777523
 21
177.0000006854533
 31
0.0
  0
ARC
  5
68CC
  8
0
 10
53.413487002356533
 20
173.56627246528259
 30
0.0
 40
2.6081273200692219
 50
145.44719888369059
 51
161.20253079627241
  0
ARC
  5
68CD
  8
0
 10
62.53203937891476
 20
173.53870026205601
 30
0.0
 40
2.6686439561004351
 50
18.969058921337549
 51
34.377102696846677
  0
POLYLINE
  5
68CE
  8
0
 66
     1
 10
0.0
 20
0.0
 30
0.0
 70
   128
  0
VERTEX
  5
BFB4
  8
0
 10
64.73457587882865
 20
175.04551595449431
 30
0.0
  0
VERTEX
  5
BFB5
  8
0
 10
64.552988465875103
 20
175.3075156211853
 30
0.0
  0
VERTEX
  5
BFB6
  8
0
 10
64.552988465875103
 20
175.3075156211853
 30
0.0
  0
SEQEND
  5
BFB7
  8
0
  0
ARC
  5
68CF
  8
0
 10
61.401878713259237
 20
173.22055008323289
 30
0.0
 40
3.7795393673875028
 50
33.516326072590658
 51
89.607318599854764
  0
ARC
  5
68D0
  8
0
 10
54.59812602120877
 20
173.22054547663299
 30
0.0
 40
3.7795454110496771
 50
90.395846988956905
 51
146.48365084550031
  0
POLYLINE
  5
68D1
  8
0
 66
     1
 10
0.0
 20
0.0
 30
0.0
 70
   128
  0
VERTEX
  5
BFB8
  8
0
 10
51.447012070566132
 20
175.30751562118519
 30
0.0
  0
VERTEX
  5
BFB9
  8
0
 10
51.447012070566132
 20
175.30751562118519
 30
0.0
  0
VERTEX
  5
BFBA
  8
0
 10
51.264492869376959
 20
175.04385447502131
 30
0.0
  0
SEQEND
  5
BFBB
  8
0
  0
LINE
  5
68D3
  8
0
 10
64.000000320375023
 20
128.50000024447209
 30
0.0
 11
52.000000216066887
 21
128.50000024447209
 31
0.0
  0
LINE
  5
68D4
  8
0
 10
52.000000216066887
 20
124.500000461936
 30
0.0
 11
64.000000320375023
 21
124.500000461936
 31
0.0
  0
LINE
  5
68D5
  8
0
 10
63.500000238418643
 20
124.0000003799796
 30
0.0
 11
52.500000298023281
 21
124.0000003799796
 31
0.0
  0
LINE
  5
68D6
  8
0
 10
62.100000288337533
 20
123.5000002980232
 30
0.0
 11
61.150000272318778
 21
123.5000002980232
 31
0.0
  0
LINE
  5
68D7
  8
0
 10
61.150000272318778
 20
123.5000002980232
 30
0.0
 11
61.150000272318721
 21
116.2500005066394
 31
0.0
  0
LINE
  5
68D8
  8
0
 10
60.624404884874878
 20
117.1999998241663
 30
0.0
 11
61.150000272318778
 21
117.1999998241663
 31
0.0
  0
LINE
  5
68D9
  8
0
 10
60.624404884874878
 20
117.1999998241663
 30
0.0
 11
60.624404884874878
 21
123.5000002980232
 31
0.0
  0
LINE
  5
68DA
  8
0
 10
60.624404884874878
 20
123.5000002980232
 30
0.0
 11
55.375595651567039
 21
123.5000002980232
 31
0.0
  0
LINE
  5
68DB
  8
0
 10
55.375595651567039
 20
123.5000002980232
 30
0.0
 11
55.375595651567039
 21
117.1999998241663
 31
0.0
  0
LINE
  5
68DC
  8
0
 10
54.850000264123139
 20
117.1999998241663
 30
0.0
 11
55.375595651567039
 21
117.1999998241663
 31
0.0
  0
LINE
  5
68DD
  8
0
 10
54.850000264123139
 20
116.2500005066394
 30
0.0
 11
54.850000264123139
 21
123.5000002980232
 31
0.0
  0
LINE
  5
68DE
  8
0
 10
54.850000264123139
 20
123.5000002980232
 30
0.0
 11
53.900000248104391
 21
123.5000002980232
 31
0.0
  0
ARC
  5
68E0
  8
0
 10
58.000000268220958
 20
120.61223589354999
 30
0.0
 40
4.3047479119128091
 50
232.4355472684727
 51
307.56445273152929
  0
LINE
  5
68E2
  8
0
 10
55.100000305101332
 20
116.0
 30
0.0
 11
60.900000231340577
 21
116.0
 31
0.0
  0
LINE
  5
68E3
  8
0
 10
49.500000737607543
 20
166.9999990463256
 30
0.0
 11
66.500000730156955
 21
166.9999990463256
 31
0.0
  0
LINE
  5
68E4
  8
0
 10
51.500000134110508
 20
129.5000002919696
 30
0.0
 11
64.500000402331409
 21
129.5000002919696
 31
0.0
  0
LINE
  5
68E5
  8
0
 10
64.000000320375023
 20
129.0000002682209
 30
0.0
 11
52.000000216066887
 21
129.0000002682209
 31
0.0
  0
ARC
  5
68E6
  8
0
 10
49.991228585684212
 20
153.1452110965746
 30
0.0
 40
1.026515109615701
 50
290.64420846430329
 51
3.05954888986117
  0
LINE
  5
68E7
  8
0
 10
50.353140644729187
 20
152.18461079895491
 30
0.0
 11
50.353140644729187
 21
151.75267083942879
 31
0.0
  0
ARC
  5
68E8
  8
0
 10
49.950986489831678
 20
153.12105859411409
 30
0.0
 40
1.426258395759326
 50
286.37748388603711
 51
3.172868117352357
  0
LINE
  5
68E9
  8
0
 10
51.375058554112968
 20
153.2000001370906
 30
0.0
 11
51.375058554112968
 21
153.4314282089471
 31
0.0
  0
LINE
  5
68EA
  8
0
 10
51.375058554112968
 20
153.4314282089471
 30
0.0
 11
51.016280502080967
 21
153.4314282089471
 31
0.0
  0
LINE
  5
68EB
  8
0
 10
51.016280502080967
 20
153.4314282089471
 30
0.0
 11
51.016280502080967
 21
153.2000001370906
 31
0.0
  0
LINE
  5
68EC
  8
0
 10
57.77501194272196
 20
151.3999994695186
 30
0.0
 11
56.652521323412707
 21
151.3999994695186
 31
0.0
  0
LINE
  5
68ED
  8
0
 10
57.77501194272196
 20
151.3999994695186
 30
0.0
 11
57.77501194272196
 21
153.53750026226041
 31
0.0
  0
ARC
  5
68EE
  8
0
 10
58.112459389958637
 20
153.53755148092
 30
0.0
 40
0.3374474511236928
 50
359.99130349619412
 51
180.00869650380599
  0
LINE
  5
68EF
  8
0
 10
58.449906837195222
 20
153.53750026226041
 30
0.0
 11
58.449906837195222
 21
151.3999994695186
 31
0.0
  0
LINE
  5
68F0
  8
0
 10
59.570997678674807
 20
151.3999994695186
 30
0.0
 11
58.449906837195222
 21
151.3999994695186
 31
0.0
  0
LINE
  5
68F1
  8
0
 10
59.570997678674807
 20
151.3999994695186
 30
0.0
 11
59.570997678674807
 21
153.53750026226041
 31
0.0
  0
ARC
  5
68F2
  8
0
 10
59.904668962117341
 20
153.54057427457721
 30
0.0
 40
0.3336854431135807
 50
359.47216629649313
 51
180.52783370350679
  0
LINE
  5
68F3
  8
0
 10
60.238340245559868
 20
153.53750026226041
 30
0.0
 11
60.238340245559868
 21
151.3999994695186
 31
0.0
  0
LINE
  5
68F4
  8
0
 10
61.335724154487309
 20
151.3999994695186
 30
0.0
 11
60.238340245559868
 21
151.3999994695186
 31
0.0
  0
LINE
  5
68F5
  8
0
 10
61.335724154487309
 20
151.3999994695186
 30
0.0
 11
61.335724154487309
 21
153.53750026226041
 31
0.0
  0
ARC
  5
68F6
  8
0
 10
59.899922685756053
 20
153.56213106270201
 30
0.0
 40
1.4360127206753031
 50
359.0172022171738
 51
128.22254550386151
  0
ARC
  5
68F7
  8
0
 10
58.112349736546548
 20
153.5401736198545
 30
0.0
 40
1.459830860967664
 50
51.98381019563157
 51
180.10492461625711
  0
LINE
  5
68F8
  8
0
 10
56.652521323412707
 20
153.53750026226041
 30
0.0
 11
56.652521323412707
 21
151.3999994695186
 31
0.0
  0
LINE
  5
68F9
  8
0
 10
51.741172634065208
 20
153.4314282089471
 30
0.0
 11
51.741172634065208
 21
153.2000001370906
 31
0.0
  0
ARC
  5
68FA
  8
0
 10
49.912506851882988
 20
153.10172666683491
 30
0.0
 40
1.831304512603017
 50
283.92266233709819
 51
3.0761465458874362
  0
LINE
  5
68FB
  8
0
 10
50.353140644729187
 20
151.32422333955759
 30
0.0
 11
50.353140644729187
 21
150.8973143845796
 31
0.0
  0
POLYLINE
  5
68FC
  8
0
 66
     1
 10
0.0
 20
0.0
 30
0.0
 70
   128
  0
VERTEX
  5
BFBC
  8
0
 10
50.353140644729187
 20
150.8973143845796
 30
0.0
  0
VERTEX
  5
BFBD
  8
0
 10
50.785548593849001
 20
151.01549549400801
 30
0.0
  0
VERTEX
  5
BFBE
  8
0
 10
51.194727495312748
 20
151.2546274662017
 30
0.0
  0
SEQEND
  5
BFBF
  8
0
  0
POLYLINE
  5
68FD
  8
0
 66
     1
 10
0.0
 20
0.0
 30
0.0
 70
   128
  0
VERTEX
  5
BFC0
  8
0
 10
51.194727495312748
 20
151.2546274662017
 30
0.0
  0
VERTEX
  5
BFC1
  8
0
 10
51.681387778371629
 20
151.0069068372249
 30
0.0
  0
VERTEX
  5
BFC2
  8
0
 10
52.213406264782009
 20
150.8828360438346
 30
0.0
  0
VERTEX
  5
BFC3
  8
0
 10
52.767261471599397
 20
150.9467918276786
 30
0.0
  0
VERTEX
  5
BFC4
  8
0
 10
53.297889493405883
 20
151.1699292659759
 30
0.0
  0
VERTEX
  5
BFC5
  8
0
 10
53.76454962417489
 20
151.53509153425691
 30
0.0
  0
VERTEX
  5
BFC6
  8
0
 10
54.127694182097969
 20
152.01983375847331
 30
0.0
  0
VERTEX
  5
BFC7
  8
0
 10
54.358324576169309
 20
152.58852167427531
 30
0.0
  0
VERTEX
  5
BFC8
  8
0
 10
54.437339380383548
 20
153.20083087682721
 30
0.0
  0
VERTEX
  5
BFC9
  8
0
 10
54.357842616736953
 20
153.81304508447641
 30
0.0
  0
VERTEX
  5
BFCA
  8
0
 10
54.126988472417047
 20
154.38163428008551
 30
0.0
  0
VERTEX
  5
BFCB
  8
0
 10
53.763384073972759
 20
154.8659946620464
 30
0.0
  0
VERTEX
  5
BFCC
  8
0
 10
53.296699728816797
 20
155.23107311129559
 30
0.0
  0
VERTEX
  5
BFCD
  8
0
 10
52.765516173094568
 20
155.45250995457161
 30
0.0
  0
VERTEX
  5
BFCE
  8
0
 10
52.211592048406658
 20
155.51704315841189
 30
0.0
  0
VERTEX
  5
BFCF
  8
0
 10
51.678429432213363
 20
155.40049372613419
 30
0.0
  0
VERTEX
  5
BFD0
  8
0
 10
51.194727495312748
 20
155.1453728079795
 30
0.0
  0
SEQEND
  5
BFD1
  8
0
  0
POLYLINE
  5
68FE
  8
0
 66
     1
 10
0.0
 20
0.0
 30
0.0
 70
   128
  0
VERTEX
  5
BFD2
  8
0
 10
51.194727495312748
 20
155.1453728079795
 30
0.0
  0
VERTEX
  5
BFD3
  8
0
 10
50.922980606556003
 20
155.29556161165229
 30
0.0
  0
VERTEX
  5
BFD4
  8
0
 10
50.65151451155549
 20
155.42184522747991
 30
0.0
  0
VERTEX
  5
BFD5
  8
0
 10
50.391208454966602
 20
155.4985098391771
 30
0.0
  0
VERTEX
  5
BFD6
  8
0
 10
49.980652593076293
 20
155.50545005500311
 30
0.0
  0
VERTEX
  5
BFD7
  8
0
 10
49.588768817484443
 20
155.38784822821609
 30
0.0
  0
VERTEX
  5
BFD8
  8
0
 10
49.240348003804741
 20
155.16282579302779
 30
0.0
  0
VERTEX
  5
BFD9
  8
0
 10
48.948344849050102
 20
154.8401355594396
 30
0.0
  0
VERTEX
  5
BFDA
  8
0
 10
48.721964545548019
 20
154.43264840543259
 30
0.0
  0
VERTEX
  5
BFDB
  8
0
 10
48.567988984286842
 20
153.96242736279959
 30
0.0
  0
VERTEX
  5
BFDC
  8
0
 10
48.490886650979583
 20
153.45361976325501
 30
0.0
  0
VERTEX
  5
BFDD
  8
0
 10
48.491966053843562
 20
152.93197667598719
 30
0.0
  0
VERTEX
  5
BFDE
  8
0
 10
48.571349196136048
 20
152.4237744361161
 30
0.0
  0
VERTEX
  5
BFDF
  8
0
 10
48.727024421095912
 20
151.95569729804981
 30
0.0
  0
VERTEX
  5
BFE0
  8
0
 10
48.955416381359157
 20
151.5506408959626
 30
0.0
  0
VERTEX
  5
BFE1
  8
0
 10
49.249993711710033
 20
151.22702306509009
 30
0.0
  0
VERTEX
  5
BFE2
  8
0
 10
49.599761217832622
 20
151.0047294050454
 30
0.0
  0
VERTEX
  5
BFE3
  8
0
 10
49.790289327502308
 20
150.9383056163787
 30
0.0
  0
VERTEX
  5
BFE4
  8
0
 10
49.987888969481048
 20
150.8973143845796
 30
0.0
  0
SEQEND
  5
BFE5
  8
0
  0
LINE
  5
68FF
  8
0
 10
49.987888969481048
 20
150.8973143845796
 30
0.0
 11
49.987888969481048
 21
151.32422333955759
 31
0.0
  0
ARC
  5
6900
  8
0
 10
50.503808694834902
 20
152.99334786147719
 30
0.0
 40
1.7470403065421269
 50
173.2067452944606
 51
252.82382975391511
  0
LINE
  5
6901
  8
0
 10
48.769033588469092
 20
153.2000001370906
 30
0.0
 11
48.769033588469092
 21
153.4314282089471
 31
0.0
  0
LINE
  5
6902
  8
0
 10
49.066763445735027
 20
153.4314282089471
 30
0.0
 11
48.769033588469092
 21
153.4314282089471
 31
0.0
  0
LINE
  5
6903
  8
0
 10
49.066763445735027
 20
153.4314282089471
 30
0.0
 11
49.066763445735027
 21
153.2000001370906
 31
0.0
  0
ARC
  5
6904
  8
0
 10
50.44005152907107
 20
153.05722236115531
 30
0.0
 40
1.380690281393274
 50
174.06440763887579
 51
250.8834875298061
  0
LINE
  5
6905
  8
0
 10
49.987888969481048
 20
151.75267083942879
 30
0.0
 11
49.987888969481048
 21
152.18461079895491
 31
0.0
  0
ARC
  5
6906
  8
0
 10
50.379997014286687
 20
153.11456076137901
 30
0.0
 40
1.009235181419027
 50
175.1436671696973
 51
247.1375597064069
  0
LINE
  5
6907
  8
0
 10
49.374384880065982
 20
153.2000001370906
 30
0.0
 11
49.374384880065982
 21
153.4314282089471
 31
0.0
  0
LINE
  5
6908
  8
0
 10
49.691557958722171
 20
153.4314282089471
 30
0.0
 11
49.374384880065982
 21
153.4314282089471
 31
0.0
  0
LINE
  5
6909
  8
0
 10
49.691557958722171
 20
153.4314282089471
 30
0.0
 11
49.691557958722171
 21
153.2000001370906
 31
0.0
  0
POLYLINE
  5
690A
  8
0
 66
     1
 10
0.0
 20
0.0
 30
0.0
 70
   128
  0
VERTEX
  5
BFE6
  8
0
 10
49.691557958722171
 20
153.2000001370906
 30
0.0
  0
VERTEX
  5
BFE7
  8
0
 10
49.727257415652332
 20
152.9637962430715
 30
0.0
  0
VERTEX
  5
BFE8
  8
0
 10
49.829494282603321
 20
152.76361776888359
 30
0.0
  0
VERTEX
  5
BFE9
  8
0
 10
49.984170198440609
 20
152.62985004484651
 30
0.0
  0
VERTEX
  5
BFEA
  8
0
 10
50.16916252672678
 20
152.5828573703765
 30
0.0
  0
VERTEX
  5
BFEB
  8
0
 10
50.356852430850317
 20
152.62979230284679
 30
0.0
  0
VERTEX
  5
BFEC
  8
0
 10
50.51804248243576
 20
152.76351159811011
 30
0.0
  0
VERTEX
  5
BFED
  8
0
 10
50.626681260764663
 20
152.9637887924909
 30
0.0
  0
VERTEX
  5
BFEE
  8
0
 10
50.665234755724732
 20
153.2000001370906
 30
0.0
  0
SEQEND
  5
BFEF
  8
0
  0
POLYLINE
  5
690B
  8
0
 66
     1
 10
0.0
 20
0.0
 30
0.0
 70
   128
  0
VERTEX
  5
BFF0
  8
0
 10
50.665234755724732
 20
153.2000001370906
 30
0.0
  0
VERTEX
  5
BFF1
  8
0
 10
50.766140762716589
 20
153.870543077588
 30
0.0
  0
VERTEX
  5
BFF2
  8
0
 10
51.059409119188842
 20
154.45381177961821
 30
0.0
  0
SEQEND
  5
BFF3
  8
0
  0
POLYLINE
  5
690C
  8
0
 66
     1
 10
0.0
 20
0.0
 30
0.0
 70
   128
  0
VERTEX
  5
BFF4
  8
0
 10
51.059409119188842
 20
154.45381177961821
 30
0.0
  0
VERTEX
  5
BFF5
  8
0
 10
51.534324493259248
 20
154.13549131155011
 30
0.0
  0
VERTEX
  5
BFF6
  8
0
 10
52.080027833581028
 20
153.98302821815011
 30
0.0
  0
SEQEND
  5
BFF7
  8
0
  0
LINE
  5
690D
  8
0
 10
52.080027833581028
 20
153.98302821815011
 30
0.0
 11
52.080027833581028
 21
153.4314282089471
 31
0.0
  0
LINE
  5
690E
  8
0
 10
52.080027833581028
 20
153.4314282089471
 30
0.0
 11
51.741172634065208
 21
153.4314282089471
 31
0.0
  0
LINE
  5
690F
  8
0
 10
56.205973569303808
 20
151.3999994695186
 30
0.0
 11
56.205973569303808
 21
155.00000080466259
 31
0.0
  0
LINE
  5
6910
  8
0
 10
56.205973569303808
 20
155.00000080466259
 30
0.0
 11
55.100589832291057
 21
155.00000080466259
 31
0.0
  0
LINE
  5
6911
  8
0
 10
55.100589832291057
 20
155.00000080466259
 30
0.0
 11
55.100589832291057
 21
151.3999994695186
 31
0.0
  0
LINE
  5
6912
  8
0
 10
56.205973569303808
 20
151.3999994695186
 30
0.0
 11
55.100589832291057
 21
151.3999994695186
 31
0.0
  0
LINE
  5
6913
  8
0
 10
64.439078401774225
 20
151.3999994695186
 30
0.0
 11
64.439078401774225
 21
153.53750026226041
 31
0.0
  0
ARC
  5
6914
  8
0
 10
63.103480688296322
 20
153.63604646433961
 30
0.0
 40
1.3392283622264141
 50
355.78011523479671
 51
184.2198847652065
  0
LINE
  5
6915
  8
0
 10
61.767882974818413
 20
153.53750026226041
 30
0.0
 11
61.767882974818413
 21
151.3999994695186
 31
0.0
  0
LINE
  5
6916
  8
0
 10
62.826584633439843
 20
151.3999994695186
 30
0.0
 11
61.767882974818413
 21
151.3999994695186
 31
0.0
  0
LINE
  5
6917
  8
0
 10
62.826584633439843
 20
151.3999994695186
 30
0.0
 11
62.826584633439843
 21
152.18749976158131
 31
0.0
  0
LINE
  5
6918
  8
0
 10
63.444295972585742
 20
152.18749976158131
 30
0.0
 11
62.826584633439843
 21
152.18749976158131
 31
0.0
  0
LINE
  5
6919
  8
0
 10
63.444295972585742
 20
152.18749976158131
 30
0.0
 11
63.444295972585742
 21
151.3999994695186
 31
0.0
  0
LINE
  5
691A
  8
0
 10
64.439078401774225
 20
151.3999994695186
 30
0.0
 11
63.444295972585742
 21
151.3999994695186
 31
0.0
  0
POLYLINE
  5
691B
  8
0
 66
     1
 10
0.0
 20
0.0
 30
0.0
 70
   128
  0
VERTEX
  5
BFF8
  8
0
 10
69.351532571017799
 20
154.3999999612569
 30
0.0
  0
VERTEX
  5
BFF9
  8
0
 10
69.304986931383667
 20
154.99570740759361
 30
0.0
  0
VERTEX
  5
BFFA
  8
0
 10
69.166567251086292
 20
155.52426649630061
 30
0.0
  0
VERTEX
  5
BFFB
  8
0
 10
68.941922932863292
 20
155.9256329983472
 30
0.0
  0
VERTEX
  5
BFFC
  8
0
 10
68.645990528166351
 20
156.154755115509
 30
0.0
  0
VERTEX
  5
BFFD
  8
0
 10
68.418223485350666
 20
156.20000062882889
 30
0.0
  0
SEQEND
  5
BFFE
  8
0
  0
LINE
  5
691C
  8
0
 10
69.351532571017799
 20
154.3999999612569
 30
0.0
 11
69.351532571017799
 21
152.0000003129243
 31
0.0
  0
POLYLINE
  5
691D
  8
0
 66
     1
 10
0.0
 20
0.0
 30
0.0
 70
   128
  0
VERTEX
  5
BFFF
  8
0
 10
68.418223485350666
 20
150.19999964535231
 30
0.0
  0
VERTEX
  5
C000
  8
0
 10
68.750100284814891
 20
150.29993428289879
 30
0.0
  0
VERTEX
  5
C001
  8
0
 10
69.025518447160778
 20
150.59053114056579
 30
0.0
  0
VERTEX
  5
C002
  8
0
 10
69.221785366535244
 20
151.03745980560771
 30
0.0
  0
VERTEX
  5
C003
  8
0
 10
69.330243468284664
 20
151.59312969446171
 30
0.0
  0
VERTEX
  5
C004
  8
0
 10
69.351532571017799
 20
152.0000003129243
 30
0.0
  0
SEQEND
  5
C005
  8
0
  0
LINE
  5
691E
  8
0
 10
47.581777051091251
 20
150.19999964535231
 30
0.0
 11
68.418223485350666
 21
150.19999964535231
 31
0.0
  0
POLYLINE
  5
691F
  8
0
 66
     1
 10
0.0
 20
0.0
 30
0.0
 70
   128
  0
VERTEX
  5
C006
  8
0
 10
46.648467965424118
 20
152.0000003129243
 30
0.0
  0
VERTEX
  5
C007
  8
0
 10
46.69501360505825
 20
151.40429286658761
 30
0.0
  0
VERTEX
  5
C008
  8
0
 10
46.833433285355632
 20
150.87573377788061
 30
0.0
  0
VERTEX
  5
C009
  8
0
 10
47.058077603578617
 20
150.474367275834
 30
0.0
  0
VERTEX
  5
C00A
  8
0
 10
47.354010008275573
 20
150.2452451586723
 30
0.0
  0
VERTEX
  5
C00B
  8
0
 10
47.581777051091251
 20
150.19999964535231
 30
0.0
  0
SEQEND
  5
C00C
  8
0
  0
LINE
  5
6920
  8
0
 10
46.648467965424118
 20
154.3999999612569
 30
0.0
 11
46.648467965424118
 21
152.0000003129243
 31
0.0
  0
POLYLINE
  5
6921
  8
0
 66
     1
 10
0.0
 20
0.0
 30
0.0
 70
   128
  0
VERTEX
  5
C00D
  8
0
 10
47.581777051091251
 20
156.20000062882889
 30
0.0
  0
VERTEX
  5
C00E
  8
0
 10
47.249900251627032
 20
156.10006599128241
 30
0.0
  0
VERTEX
  5
C00F
  8
0
 10
46.974482089281139
 20
155.80946913361541
 30
0.0
  0
VERTEX
  5
C010
  8
0
 10
46.778215169906673
 20
155.36254233121861
 30
0.0
  0
VERTEX
  5
C011
  8
0
 10
46.669757068157253
 20
154.80687057971949
 30
0.0
  0
VERTEX
  5
C012
  8
0
 10
46.648467965424118
 20
154.3999999612569
 30
0.0
  0
SEQEND
  5
C013
  8
0
  0
LINE
  5
6922
  8
0
 10
47.581777051091251
 20
156.20000062882889
 30
0.0
 11
68.418223485350666
 21
156.20000062882889
 31
0.0
  0
POLYLINE
  5
6923
  8
0
 66
     1
 10
0.0
 20
0.0
 30
0.0
 70
   128
  0
VERTEX
  5
C014
  8
0
 10
67.554034367203769
 20
153.2000001370906
 30
0.0
  0
VERTEX
  5
C015
  8
0
 10
67.462364286184368
 20
153.88765892386431
 30
0.0
  0
VERTEX
  5
C016
  8
0
 10
67.196616046130714
 20
154.47304731607429
 30
0.0
  0
VERTEX
  5
C017
  8
0
 10
66.782716736197528
 20
154.8629585504531
 30
0.0
  0
VERTEX
  5
C018
  8
0
 10
66.270501427352485
 20
154.99971954524511
 30
0.0
  0
VERTEX
  5
C019
  8
0
 10
65.734596997499523
 20
154.86225819587699
 30
0.0
  0
VERTEX
  5
C01A
  8
0
 10
65.262407604605016
 20
154.47206383943549
 30
0.0
  0
VERTEX
  5
C01B
  8
0
 10
64.938466139137802
 20
153.88782097399229
 30
0.0
  0
VERTEX
  5
C01C
  8
0
 10
64.823782611638364
 20
153.1988993138074
 30
0.0
  0
VERTEX
  5
C01D
  8
0
 10
64.939330406487045
 20
152.51034086942661
 30
0.0
  0
VERTEX
  5
C01E
  8
0
 10
65.26348980143672
 20
151.92635318636891
 30
0.0
  0
VERTEX
  5
C01F
  8
0
 10
65.736163482070026
 20
151.5367921292781
 30
0.0
  0
VERTEX
  5
C020
  8
0
 10
66.272139623761234
 20
151.4005545377731
 30
0.0
  0
VERTEX
  5
C021
  8
0
 10
66.784083917737064
 20
151.53766757249821
 30
0.0
  0
VERTEX
  5
C022
  8
0
 10
67.197743877768573
 20
151.92839278280729
 30
0.0
  0
VERTEX
  5
C023
  8
0
 10
67.462872788310108
 20
152.51497326791281
 30
0.0
  0
VERTEX
  5
C024
  8
0
 10
67.554034367203769
 20
153.2000001370906
 30
0.0
  0
SEQEND
  5
C025
  8
0
  0
POLYLINE
  5
694F
  8
0
 66
     1
 10
0.0
 20
0.0
 30
0.0
 70
   128
  0
VERTEX
  5
C026
  8
0
 10
53.582743816077773
 20
154.45381177961821
 30
0.0
  0
VERTEX
  5
C027
  8
0
 10
53.063334971666393
 20
154.13549131155011
 30
0.0
  0
VERTEX
  5
C028
  8
0
 10
52.493778131902282
 20
153.98302821815011
 30
0.0
  0
SEQEND
  5
C029
  8
0
  0
POLYLINE
  5
6950
  8
0
 66
     1
 10
0.0
 20
0.0
 30
0.0
 70
   128
  0
VERTEX
  5
C02A
  8
0
 10
54.018503129482333
 20
153.4314282089471
 30
0.0
  0
VERTEX
  5
C02B
  8
0
 10
53.873279206454811
 20
153.9776507616042
 30
0.0
  0
VERTEX
  5
C02C
  8
0
 10
53.582743816077773
 20
154.45381177961821
 30
0.0
  0
SEQEND
  5
C02D
  8
0
  0
LINE
  5
6951
  8
0
 10
52.493778131902282
 20
153.98302821815011
 30
0.0
 11
52.493778131902282
 21
153.4314282089471
 31
0.0
  0
LINE
  5
6952
  8
0
 10
54.018503129482333
 20
153.4314282089471
 30
0.0
 11
52.493778131902282
 21
153.4314282089471
 31
0.0
  0
LINE
  5
6955
  8
0
 10
52.493778131902282
 20
152.9685720652341
 30
0.0
 11
52.493778131902282
 21
152.41697019338599
 31
0.0
  0
POLYLINE
  5
6956
  8
0
 66
     1
 10
0.0
 20
0.0
 30
0.0
 70
   128
  0
VERTEX
  5
C02E
  8
0
 10
53.582743816077773
 20
151.9461866319179
 30
0.0
  0
VERTEX
  5
C02F
  8
0
 10
53.873279206454811
 20
152.422349512577
 30
0.0
  0
VERTEX
  5
C030
  8
0
 10
54.018503129482333
 20
152.9685720652341
 30
0.0
  0
SEQEND
  5
C031
  8
0
  0
POLYLINE
  5
6957
  8
0
 66
     1
 10
0.0
 20
0.0
 30
0.0
 70
   128
  0
VERTEX
  5
C032
  8
0
 10
52.493778131902282
 20
152.41697019338599
 30
0.0
  0
VERTEX
  5
C033
  8
0
 10
53.063334971666393
 20
152.26450896263111
 30
0.0
  0
VERTEX
  5
C034
  8
0
 10
53.582743816077773
 20
151.9461866319179
 30
0.0
  0
SEQEND
  5
C035
  8
0
  0
LINE
  5
6958
  8
0
 10
54.018503129482333
 20
152.9685720652341
 30
0.0
 11
52.493778131902282
 21
152.9685720652341
 31
0.0
  0
POLYLINE
  5
695B
  8
0
 66
     1
 10
0.0
 20
0.0
 30
0.0
 70
   128
  0
VERTEX
  5
C036
  8
0
 10
52.493778131902282
 20
154.40993717312799
 30
0.0
  0
VERTEX
  5
C037
  8
0
 10
52.903620600700442
 20
154.52325119078151
 30
0.0
  0
VERTEX
  5
C038
  8
0
 10
53.281582035124359
 20
154.74285705387581
 30
0.0
  0
SEQEND
  5
C039
  8
0
  0
POLYLINE
  5
695E
  8
0
 66
     1
 10
0.0
 20
0.0
 30
0.0
 70
   128
  0
VERTEX
  5
C03A
  8
0
 10
53.281582035124359
 20
154.74285705387581
 30
0.0
  0
VERTEX
  5
C03B
  8
0
 10
52.903613615781133
 20
154.96246664226049
 30
0.0
  0
VERTEX
  5
C03C
  8
0
 10
52.493778131902282
 20
155.0757769346236
 30
0.0
  0
SEQEND
  5
C03D
  8
0
  0
LINE
  5
695F
  8
0
 10
52.493778131902282
 20
155.0757769346236
 30
0.0
 11
52.493778131902282
 21
154.40993717312799
 31
0.0
  0
POLYLINE
  5
6961
  8
0
 66
     1
 10
0.0
 20
0.0
 30
0.0
 70
   128
  0
VERTEX
  5
C03E
  8
0
 10
52.493778131902282
 20
151.32422333955759
 30
0.0
  0
VERTEX
  5
C03F
  8
0
 10
52.903620600700442
 20
151.437537357211
 30
0.0
  0
VERTEX
  5
C040
  8
0
 10
53.281582035124359
 20
151.65714322030539
 30
0.0
  0
SEQEND
  5
C041
  8
0
  0
LINE
  5
6964
  8
0
 10
52.493778131902282
 20
151.99006310105321
 30
0.0
 11
52.493778131902282
 21
151.32422333955759
 31
0.0
  0
POLYLINE
  5
6965
  8
0
 66
     1
 10
0.0
 20
0.0
 30
0.0
 70
   128
  0
VERTEX
  5
C042
  8
0
 10
53.281582035124359
 20
151.65714322030539
 30
0.0
  0
VERTEX
  5
C043
  8
0
 10
52.903613615781133
 20
151.87675280868999
 30
0.0
  0
VERTEX
  5
C044
  8
0
 10
52.493778131902282
 20
151.99006310105321
 30
0.0
  0
SEQEND
  5
C045
  8
0
  0
LINE
  5
6967
  8
0
 10
63.444295972585742
 20
153.0875000953674
 30
0.0
 11
63.444295972585742
 21
153.53750026226041
 31
0.0
  0
LINE
  5
6968
  8
0
 10
63.444295972585742
 20
153.0875000953674
 30
0.0
 11
62.826584633439843
 21
153.0875000953674
 31
0.0
  0
LINE
  5
6969
  8
0
 10
62.826584633439843
 20
153.53750026226041
 30
0.0
 11
62.826584633439843
 21
153.0875000953674
 31
0.0
  0
ARC
  5
696A
  8
0
 10
63.135440303012793
 20
153.55959377446419
 30
0.0
 40
0.309644873861741
 50
355.90840455608429
 51
184.09159544391889
  0
LINE
  5
6971
  8
0
 10
51.998868193477449
 20
152.40435449779031
 30
0.0
 11
51.989439949393329
 21
152.40435449779031
 31
0.0
  0
LINE
  5
6972
  8
0
 10
51.989439949393329
 20
152.40435449779031
 30
0.0
 11
52.080027833581028
 21
152.41697019338599
 31
0.0
  0
LINE
  5
6974
  8
0
 10
52.080027833581028
 20
152.77923604845989
 30
0.0
 11
51.989439949393329
 21
152.40435449779031
 31
0.0
  0
LINE
  5
6975
  8
0
 10
52.080027833581028
 20
152.41697019338599
 30
0.0
 11
52.080027833581028
 21
152.77923604845989
 31
0.0
  0
LINE
  5
6977
  8
0
 10
52.080027833581028
 20
154.40993717312799
 30
0.0
 11
52.080027833581028
 21
155.0757769346236
 31
0.0
  0
POLYLINE
  5
6978
  8
0
 66
     1
 10
0.0
 20
0.0
 30
0.0
 70
   128
  0
VERTEX
  5
C046
  8
0
 10
51.332203745842037
 20
154.74285705387581
 30
0.0
  0
VERTEX
  5
C047
  8
0
 10
51.684659514576254
 20
154.52324746549121
 30
0.0
  0
VERTEX
  5
C048
  8
0
 10
52.080027833581028
 20
154.40993717312799
 30
0.0
  0
SEQEND
  5
C049
  8
0
  0
POLYLINE
  5
6979
  8
0
 66
     1
 10
0.0
 20
0.0
 30
0.0
 70
   128
  0
VERTEX
  5
C04A
  8
0
 10
52.080027833581028
 20
155.0757769346236
 30
0.0
  0
VERTEX
  5
C04B
  8
0
 10
51.684652995318231
 20
154.9624629169702
 30
0.0
  0
VERTEX
  5
C04C
  8
0
 10
51.332203745842037
 20
154.74285705387581
 30
0.0
  0
SEQEND
  5
C04D
  8
0
  0
LINE
  5
697A
  8
0
 10
51.769479718059358
 20
151.91157682240001
 30
0.0
 11
51.498172879219112
 21
151.5368666350841
 31
0.0
  0
LINE
  5
697B
  8
0
 10
52.080027833581028
 20
151.32422333955759
 30
0.0
 11
52.080027833581028
 21
151.99006310105321
 31
0.0
  0
LINE
  5
697C
  8
0
 10
51.498172879219112
 20
151.5368666350841
 30
0.0
 11
52.080027833581028
 21
151.32422333955759
 31
0.0
  0
LINE
  5
697D
  8
0
 10
52.080027833581028
 20
151.99006310105321
 30
0.0
 11
51.769479718059358
 21
151.91157682240001
 31
0.0
  0
POLYLINE
  5
698C
  8
0
 66
     1
 10
0.0
 20
0.0
 30
0.0
 70
   128
  0
VERTEX
  5
C04E
  8
0
 10
66.772869862616119
 20
153.2000001370906
 30
0.0
  0
VERTEX
  5
C04F
  8
0
 10
66.735514514148292
 20
153.458311766386
 30
0.0
  0
VERTEX
  5
C050
  8
0
 10
66.628358401358184
 20
153.67729736864561
 30
0.0
  0
VERTEX
  5
C051
  8
0
 10
66.465870551765022
 20
153.8236193209886
 30
0.0
  0
VERTEX
  5
C052
  8
0
 10
66.270996890962181
 20
153.87500038743011
 30
0.0
  0
VERTEX
  5
C053
  8
0
 10
66.072727628052291
 20
153.8236193209886
 30
0.0
  0
VERTEX
  5
C054
  8
0
 10
65.902045071125087
 20
153.67729736864561
 30
0.0
  0
VERTEX
  5
C055
  8
0
 10
65.7866956479848
 20
153.458311766386
 30
0.0
  0
VERTEX
  5
C056
  8
0
 10
65.745946560055074
 20
153.2000001370906
 30
0.0
  0
VERTEX
  5
C057
  8
0
 10
65.7866956479848
 20
152.94168850779531
 30
0.0
  0
VERTEX
  5
C058
  8
0
 10
65.902045071125087
 20
152.72270290553561
 30
0.0
  0
VERTEX
  5
C059
  8
0
 10
66.072727628052291
 20
152.5763809531926
 30
0.0
  0
VERTEX
  5
C05A
  8
0
 10
66.270996890962181
 20
152.52499988675109
 30
0.0
  0
VERTEX
  5
C05B
  8
0
 10
66.465870551765022
 20
152.5763809531926
 30
0.0
  0
VERTEX
  5
C05C
  8
0
 10
66.628358401358184
 20
152.72270290553561
 30
0.0
  0
VERTEX
  5
C05D
  8
0
 10
66.735514514148292
 20
152.94168850779531
 30
0.0
  0
VERTEX
  5
C05E
  8
0
 10
66.772869862616119
 20
153.2000001370906
 30
0.0
  0
SEQEND
  5
C05F
  8
0
  0
LINE
  5
6998
  8
0
 10
70.000000372529087
 20
131.0000003632158
 30
0.0
 11
46.00000016391283
 21
131.0000003632158
 31
0.0
  0
POLYLINE
  5
699F
  8
0
 66
     1
 10
0.0
 20
0.0
 30
0.0
 70
   128
  0
VERTEX
  5
C060
  8
0
 10
68.500000126659927
 20
164.65017160773269
 30
0.0
  0
VERTEX
  5
C061
  8
0
 10
68.478785529732761
 20
164.5397651791572
 30
0.0
  0
VERTEX
  5
C062
  8
0
 10
68.209678009152469
 20
163.92099073529241
 30
0.0
  0
VERTEX
  5
C063
  8
0
 10
67.61240407824522
 20
163.29807004332531
 30
0.0
  0
VERTEX
  5
C064
  8
0
 10
66.707128733396587
 20
162.70655727386469
 30
0.0
  0
VERTEX
  5
C065
  8
0
 10
65.524702034890709
 20
162.17395251989359
 30
0.0
  0
VERTEX
  5
C066
  8
0
 10
64.089249428361711
 20
161.7147136330604
 30
0.0
  0
VERTEX
  5
C067
  8
0
 10
62.522309441119489
 20
161.36712914705271
 30
0.0
  0
VERTEX
  5
C068
  8
0
 10
60.805539442226348
 20
161.12184485793111
 30
0.0
  0
VERTEX
  5
C069
  8
0
 10
59.110236661508743
 20
160.9985787272453
 30
0.0
  0
VERTEX
  5
C06A
  8
0
 10
57.381020700559077
 20
160.9824631214141
 30
0.0
  0
VERTEX
  5
C06B
  8
0
 10
55.740195866674242
 20
161.0703091919421
 30
0.0
  0
VERTEX
  5
C06C
  8
0
 10
54.16227535344666
 20
161.25346308946601
 30
0.0
  0
VERTEX
  5
C06D
  8
0
 10
52.681209128350083
 20
161.5271042883395
 30
0.0
  0
VERTEX
  5
C06E
  8
0
 10
51.34126132354146
 20
161.87775096297261
 30
0.0
  0
VERTEX
  5
C06F
  8
0
 10
50.122883245348987
 20
162.3141053915023
 30
0.0
  0
VERTEX
  5
C070
  8
0
 10
49.11615893244749
 20
162.8048639595508
 30
0.0
  0
VERTEX
  5
C071
  8
0
 10
48.302535042166767
 20
163.3686568439006
 30
0.0
  0
VERTEX
  5
C072
  8
0
 10
47.765155397355613
 20
163.95827716588971
 30
0.0
  0
VERTEX
  5
C073
  8
0
 10
47.566681243479309
 20
164.35983738303179
 30
0.0
  0
VERTEX
  5
C074
  8
0
 10
47.50000040978199
 20
164.76052960753429
 30
0.0
  0
SEQEND
  5
C075
  8
0
  0
POLYLINE
  5
69A8
  8
0
 66
     1
 10
0.0
 20
0.0
 30
0.0
 70
   128
  0
VERTEX
  5
C076
  8
0
 10
65.636553876101971
 20
167.9221946597099
 30
0.0
  0
VERTEX
  5
C077
  8
0
 10
65.810463931411505
 20
167.60053446888921
 30
0.0
  0
VERTEX
  5
C078
  8
0
 10
66.126605570316315
 20
167.26214399933809
 30
0.0
  0
SEQEND
  5
C079
  8
0
  0
ARC
  5
69AB
  8
0
 10
47.190916707639637
 20
169.77025784637081
 30
0.0
 40
3.6717781696159171
 50
316.98068830811081
 51
329.77575703845378
  0
ARC
  5
69AC
  8
0
 10
58.000001602838722
 20
160.84420568877201
 30
0.0
 40
10.411982698717759
 50
42.825566834532019
 51
137.1746847212367
  0
ARC
  5
69AD
  8
0
 10
58.000000268220901
 20
163.12882053063689
 30
0.0
 40
7.9496667024502008
 50
29.141039039211439
 51
150.85896096078849
  0
POLYLINE
  5
69B1
  8
0
 66
     1
 10
0.0
 20
0.0
 30
0.0
 70
   128
  0
VERTEX
  5
C07A
  8
0
 10
50.94446808099736
 20
174.4066733717919
 30
0.0
  0
VERTEX
  5
C07B
  8
0
 10
50.84830529987795
 20
174.1871196627616
 30
0.0
  0
VERTEX
  5
C07C
  8
0
 10
50.767921917140313
 20
173.9606667160987
 30
0.0
  0
SEQEND
  5
C07D
  8
0
  0
POLYLINE
  5
69B2
  8
0
 66
     1
 10
0.0
 20
0.0
 30
0.0
 70
   128
  0
VERTEX
  5
C07E
  8
0
 10
65.232078619300125
 20
173.96066671610171
 30
0.0
  0
VERTEX
  5
C07F
  8
0
 10
65.151695236563512
 20
174.1871196627616
 30
0.0
  0
VERTEX
  5
C080
  8
0
 10
65.055760629475003
 20
174.40616300702089
 30
0.0
  0
SEQEND
  5
C081
  8
0
  0
POLYLINE
  5
69B7
  8
0
 66
     1
 10
0.0
 20
0.0
 30
0.0
 70
   128
  0
VERTEX
  5
C082
  8
0
 10
70.987287051975784
 20
162.64872214198101
 30
0.0
  0
VERTEX
  5
C083
  8
0
 10
70.982856750488338
 20
162.4568175375461
 30
0.0
  0
VERTEX
  5
C084
  8
0
 10
70.8789230138064
 20
162.136200428009
 30
0.0
  0
VERTEX
  5
C085
  8
0
 10
70.681481696665344
 20
161.8136908710002
 30
0.0
  0
VERTEX
  5
C086
  8
0
 10
70.382990948855934
 20
161.4850979149341
 30
0.0
  0
VERTEX
  5
C087
  8
0
 10
69.995073676109371
 20
161.16748711466781
 30
0.0
  0
VERTEX
  5
C088
  8
0
 10
69.488158524036464
 20
160.84026134014121
 30
0.0
  0
VERTEX
  5
C089
  8
0
 10
68.504105396568832
 20
160.35373842716211
 30
0.0
  0
VERTEX
  5
C08A
  8
0
 10
67.401370108127651
 20
159.9386200159787
 30
0.0
  0
VERTEX
  5
C08B
  8
0
 10
66.824983879923877
 20
159.75783726572979
 30
0.0
  0
VERTEX
  5
C08C
  8
0
 10
66.241103298962173
 20
159.59490796923629
 30
0.0
  0
VERTEX
  5
C08D
  8
0
 10
65.557493437081632
 20
159.42688806354991
 30
0.0
  0
VERTEX
  5
C08E
  8
0
 10
64.787238445133028
 20
159.26270148158071
 30
0.0
  0
VERTEX
  5
C08F
  8
0
 10
63.183379434049193
 20
158.99202188849441
 30
0.0
  0
VERTEX
  5
C090
  8
0
 10
61.528812702745263
 20
158.79827140271661
 30
0.0
  0
VERTEX
  5
C091
  8
0
 10
59.823438948951718
 20
158.6796358078717
 30
0.0
  0
VERTEX
  5
C092
  8
0
 10
58.022851915593549
 20
158.6378864794969
 30
0.0
  0
VERTEX
  5
C093
  8
0
 10
56.215059203095791
 20
158.67840646207321
 30
0.0
  0
VERTEX
  5
C094
  8
0
 10
54.435375453904328
 20
158.80119575560079
 30
0.0
  0
VERTEX
  5
C095
  8
0
 10
53.355212397873458
 20
158.91937686502931
 30
0.0
  0
VERTEX
  5
C096
  8
0
 10
52.304026745259819
 20
159.06883178651319
 30
0.0
  0
VERTEX
  5
C097
  8
0
 10
51.27187034115201
 20
159.2515610009431
 30
0.0
  0
VERTEX
  5
C098
  8
0
 10
50.270999856293258
 20
159.46756078302849
 30
0.0
  0
VERTEX
  5
C099
  8
0
 10
49.314566031098423
 20
159.7168348580598
 30
0.0
  0
VERTEX
  5
C09A
  8
0
 10
48.539808094501552
 20
159.95738430321211
 30
0.0
  0
VERTEX
  5
C09B
  8
0
 10
47.531808800995407
 20
160.3388484418391
 30
0.0
  0
VERTEX
  5
C09C
  8
0
 10
46.592883840203342
 20
160.79528963565821
 30
0.0
  0
VERTEX
  5
C09D
  8
0
 10
46.308025792241153
 20
160.96410116553301
 30
0.0
  0
VERTEX
  5
C09E
  8
0
 10
46.042285934090671
 20
161.14123871922479
 30
0.0
  0
VERTEX
  5
C09F
  8
0
 10
45.798904336988983
 20
161.3267097473144
 30
0.0
  0
VERTEX
  5
C0A0
  8
0
 10
45.659103505313453
 20
161.44738680124269
 30
0.0
  0
VERTEX
  5
C0A1
  8
0
 10
45.527158379554812
 20
161.5743484199046
 30
0.0
  0
VERTEX
  5
C0A2
  8
0
 10
45.387834385037479
 20
161.72750627994529
 30
0.0
  0
VERTEX
  5
C0A3
  8
0
 10
45.189062207937297
 20
162.00635543465609
 30
0.0
  0
VERTEX
  5
C0A4
  8
0
 10
45.049403868615677
 20
162.32147774100301
 30
0.0
  0
VERTEX
  5
C0A5
  8
0
 10
45.001456588506763
 20
162.59284651279441
 30
0.0
  0
VERTEX
  5
C0A6
  8
0
 10
45.004597939550933
 20
162.64865881204599
 30
0.0
  0
SEQEND
  5
C0A7
  8
0
  0
LINE
  5
69BB
  8
0
 10
66.126605570316315
 20
167.26214399933809
 30
0.0
 11
66.290688775479794
 21
166.9999990463256
 31
0.0
  0
LINE
  5
69BE
  8
0
 10
49.709373897972682
 20
166.9999990463256
 30
0.0
 11
49.875498823821538
 21
167.2652769684791
 31
0.0
  0
ARC
  5
69C9
  8
0
 10
259.53057999629442
 20
119.4996885290961
 30
0.0
 40
1.484803928645712
 50
117.4802119369121
 51
242.47464215699509
  0
LINE
  5
69CA
  8
0
 10
268.00001439895823
 20
124.500000461936
 30
0.0
 11
268.00001439895823
 21
128.50000024447209
 31
0.0
  0
LINE
  5
69CB
  8
0
 10
256.0000142946501
 20
128.50000024447209
 30
0.0
 11
256.0000142946501
 21
124.500000461936
 31
0.0
  0
LINE
  5
69CC
  8
0
 10
256.0000142946501
 20
124.500000461936
 30
0.0
 11
256.50001437660649
 21
124.0000003799796
 31
0.0
  0
LINE
  5
69CD
  8
0
 10
267.50001431700179
 20
124.0000003799796
 30
0.0
 11
268.00001439895823
 21
124.500000461936
 31
0.0
  0
LINE
  5
69CE
  8
0
 10
268.00001439895823
 20
128.50000024447209
 30
0.0
 11
267.50001431700179
 21
129.0000002682209
 31
0.0
  0
LINE
  5
69CF
  8
0
 10
256.50001437660649
 20
129.0000002682209
 30
0.0
 11
256.0000142946501
 21
128.50000024447209
 31
0.0
  0
LINE
  5
69D0
  8
0
 10
257.9000143266876
 20
124.0000003799796
 30
0.0
 11
257.9000143266876
 21
123.5000002980232
 31
0.0
  0
LINE
  5
69D1
  8
0
 10
266.10001436692068
 20
123.5000002980232
 30
0.0
 11
266.10001436692068
 21
124.0000003799796
 31
0.0
  0
LINE
  5
69D2
  8
0
 10
258.85001434270629
 20
116.2500005066394
 30
0.0
 11
259.10001438368448
 21
116.0
 31
0.0
  0
LINE
  5
69D3
  8
0
 10
264.90001430992379
 20
116.0
 30
0.0
 11
265.15001435090198
 21
116.2500005066394
 31
0.0
  0
LINE
  5
69D5
  8
0
 10
268.50001448091461
 20
129.5000002919696
 30
0.0
 11
268.50001448091461
 21
131.0000003632158
 31
0.0
  0
LINE
  5
69D6
  8
0
 10
255.50001421269371
 20
131.0000003632158
 30
0.0
 11
255.50001421269371
 21
129.5000002919696
 31
0.0
  0
LINE
  5
69D7
  8
0
 10
255.50001421269371
 20
129.5000002919696
 30
0.0
 11
256.0000142946501
 21
129.0000002682209
 31
0.0
  0
LINE
  5
69D8
  8
0
 10
268.00001439895823
 20
129.0000002682209
 30
0.0
 11
268.50001448091461
 21
129.5000002919696
 31
0.0
  0
LINE
  5
69D9
  8
0
 10
269.50001417916587
 20
165.47261884808529
 30
0.0
 11
269.50001417916587
 21
172.5416067838668
 31
0.0
  0
LINE
  5
69DA
  8
0
 10
254.500014514442
 20
172.55043572187421
 30
0.0
 11
254.500014514442
 21
165.4783595204353
 31
0.0
  0
ARC
  5
69DB
  8
0
 10
259.63973835411429
 20
172.3010822896025
 30
0.0
 40
5.1457689689960553
 50
155.85234047283021
 51
177.2224760514265
  0
ARC
  5
69DC
  8
0
 10
264.72958935536872
 20
172.39025183649579
 30
0.0
 40
4.7728252974095691
 50
1.8172577654080151
 51
24.991237088356609
  0
POLYLINE
  5
69DD
  8
0
 66
     1
 10
0.0
 20
0.0
 30
0.0
 70
   128
  0
VERTEX
  5
C0A8
  8
0
 10
254.6329314540157
 20
165.35061493722361
 30
0.0
  0
VERTEX
  5
C0A9
  8
0
 10
254.8238209381359
 20
164.45424368977541
 30
0.0
  0
VERTEX
  5
C0AA
  8
0
 10
255.2619937739926
 20
163.72720858454699
 30
0.0
  0
VERTEX
  5
C0AB
  8
0
 10
255.79436849128771
 20
163.23231121897689
 30
0.0
  0
VERTEX
  5
C0AC
  8
0
 10
256.2973981655793
 20
162.9318851828574
 30
0.0
  0
VERTEX
  5
C0AD
  8
0
 10
256.83387303050932
 20
162.71838507056231
 30
0.0
  0
VERTEX
  5
C0AE
  8
0
 10
257.36698675226739
 20
162.56625539064399
 30
0.0
  0
VERTEX
  5
C0AF
  8
0
 10
257.96428815719059
 20
162.43748700618741
 30
0.0
  0
VERTEX
  5
C0B0
  8
0
 10
258.9571252863513
 20
162.2924763560294
 30
0.0
  0
VERTEX
  5
C0B1
  8
0
 10
259.99145074073539
 20
162.21037840843189
 30
0.0
  0
VERTEX
  5
C0B2
  8
0
 10
260.93631020538828
 20
162.17933183908451
 30
0.0
  0
VERTEX
  5
C0B3
  8
0
 10
261.76222593839128
 20
162.1741015315055
 30
0.0
  0
VERTEX
  5
C0B4
  8
0
 10
262.55893641408852
 20
162.17443680763239
 30
0.0
  0
VERTEX
  5
C0B5
  8
0
 10
263.44420008153043
 20
162.18698358535761
 30
0.0
  0
VERTEX
  5
C0B6
  8
0
 10
264.38423459675482
 20
162.2333597242831
 30
0.0
  0
VERTEX
  5
C0B7
  8
0
 10
265.29752583500323
 20
162.3219732046127
 30
0.0
  0
VERTEX
  5
C0B8
  8
0
 10
265.8458028852599
 20
162.4002043008804
 30
0.0
  0
VERTEX
  5
C0B9
  8
0
 10
266.43436941575578
 20
162.52006924152369
 30
0.0
  0
VERTEX
  5
C0BA
  8
0
 10
267.2199232436376
 20
162.77836969494811
 30
0.0
  0
VERTEX
  5
C0BB
  8
0
 10
267.8979689187961
 20
163.1373423933982
 30
0.0
  0
VERTEX
  5
C0BC
  8
0
 10
268.5674329220908
 20
163.69771173596371
 30
0.0
  0
VERTEX
  5
C0BD
  8
0
 10
269.10069751810602
 20
164.46397414803499
 30
0.0
  0
VERTEX
  5
C0BE
  8
0
 10
269.3688052639024
 20
165.35273155570019
 30
0.0
  0
SEQEND
  5
C0BF
  8
0
  0
LINE
  5
69DE
  8
0
 10
265.42800063524709
 20
177.0000006854533
 30
0.0
 11
258.5722327164965
 21
177.0000006854533
 31
0.0
  0
POLYLINE
  5
69DF
  8
0
 66
     1
 10
0.0
 20
0.0
 30
0.0
 70
   128
  0
VERTEX
  5
C0C0
  8
0
 10
268.73459135439538
 20
175.04551222920421
 30
0.0
  0
VERTEX
  5
C0C1
  8
0
 10
268.55215084996388
 20
175.32422727346409
 30
0.0
  0
VERTEX
  5
C0C2
  8
0
 10
268.55215084996388
 20
175.32422727346409
 30
0.0
  0
SEQEND
  5
C0C3
  8
0
  0
ARC
  5
69E1
  8
0
 10
265.39246510836688
 20
173.18368290382429
 30
0.0
 40
3.8164832220315752
 50
34.115866184723131
 51
89.466507510961264
  0
ARC
  5
69E2
  8
0
 10
258.60766780324212
 20
173.18348426974359
 30
0.0
 40
3.8166809136676352
 50
90.531956988761038
 51
145.88254258599099
  0
POLYLINE
  5
69E3
  8
0
 66
     1
 10
0.0
 20
0.0
 30
0.0
 70
   128
  0
VERTEX
  5
C0C4
  8
0
 10
255.44787784364439
 20
175.3242272734646
 30
0.0
  0
VERTEX
  5
C0C5
  8
0
 10
255.44787784364391
 20
175.32422727346409
 30
0.0
  0
VERTEX
  5
C0C6
  8
0
 10
255.2654387361961
 20
175.0455159544945
 30
0.0
  0
SEQEND
  5
C0C7
  8
0
  0
ARC
  5
69E5
  8
0
 10
266.54454988791872
 20
173.54518268961959
 30
0.0
 40
2.6546695372942009
 50
18.936435815264161
 51
34.413834504780993
  0
ARC
  5
69E6
  8
0
 10
257.42424648394348
 20
173.56066779722769
 30
0.0
 40
2.6201574269255481
 50
145.47944298674159
 51
161.1743953950778
  0
POLYLINE
  5
69E7
  8
0
 66
     1
 10
0.0
 20
0.0
 30
0.0
 70
   128
  0
VERTEX
  5
C0C8
  8
0
 10
271.67100393470719
 20
166.5622662603854
 30
0.0
  0
VERTEX
  5
C0C9
  8
0
 10
271.3677066310899
 20
167.5727326273917
 30
0.0
  0
VERTEX
  5
C0CA
  8
0
 10
271.10577867623738
 20
168.4039305746555
 30
0.0
  0
VERTEX
  5
C0CB
  8
0
 10
270.88258722123078
 20
169.08537557721129
 30
0.0
  0
VERTEX
  5
C0CC
  8
0
 10
270.69557299163512
 20
169.63984778523439
 30
0.0
  0
VERTEX
  5
C0CD
  8
0
 10
270.57242420759371
 20
169.9979077875613
 30
0.0
  0
VERTEX
  5
C0CE
  8
0
 10
270.46900921758578
 20
170.29491028189651
 30
0.0
  0
VERTEX
  5
C0CF
  8
0
 10
270.38432312455348
 20
170.53601107001299
 30
0.0
  0
VERTEX
  5
C0D0
  8
0
 10
270.3048179790037
 20
170.76095899939531
 30
0.0
  0
VERTEX
  5
C0D1
  8
0
 10
270.18297770317957
 20
171.10375648736951
 30
0.0
  0
VERTEX
  5
C0D2
  8
0
 10
270.04279223528079
 20
171.49663677811611
 30
0.0
  0
VERTEX
  5
C0D3
  8
0
 10
269.88811445679829
 20
171.93092367053021
 30
0.0
  0
VERTEX
  5
C0D4
  8
0
 10
269.72366570752428
 20
172.39860033988941
 30
0.0
  0
VERTEX
  5
C0D5
  8
0
 10
269.55505953427718
 20
172.89356476068491
 30
0.0
  0
VERTEX
  5
C0D6
  8
0
 10
269.40507276137492
 20
173.34927020949689
 30
0.0
  0
SEQEND
  5
C0D7
  8
0
  0
POLYLINE
  5
69E8
  8
0
 66
     1
 10
0.0
 20
0.0
 30
0.0
 70
   128
  0
VERTEX
  5
C0D8
  8
0
 10
254.63536416106561
 20
173.4990711118497
 30
0.0
  0
VERTEX
  5
C0D9
  8
0
 10
254.50631677430439
 20
173.0798367261886
 30
0.0
  0
VERTEX
  5
C0DA
  8
0
 10
254.37522520568541
 20
172.6857680678367
 30
0.0
  0
VERTEX
  5
C0DB
  8
0
 10
254.25084567886159
 20
172.3251376152038
 30
0.0
  0
VERTEX
  5
C0DC
  8
0
 10
254.16066245433259
 20
172.06843531131739
 30
0.0
  0
VERTEX
  5
C0DD
  8
0
 10
254.07907580282861
 20
171.83827197551719
 30
0.0
  0
VERTEX
  5
C0DE
  8
0
 10
254.0075865506785
 20
171.63755705952639
 30
0.0
  0
VERTEX
  5
C0DF
  8
0
 10
253.9355766892092
 20
171.43582141399381
 30
0.0
  0
VERTEX
  5
C0E0
  8
0
 10
253.8161736845629
 20
171.10126054286951
 30
0.0
  0
VERTEX
  5
C0E1
  8
0
 10
253.6649967476385
 20
170.67572435736651
 30
0.0
  0
VERTEX
  5
C0E2
  8
0
 10
253.4792109325187
 20
170.14667725563041
 30
0.0
  0
VERTEX
  5
C0E3
  8
0
 10
253.25581179257799
 20
169.49713936448089
 30
0.0
  0
VERTEX
  5
C0E4
  8
0
 10
252.99170547422341
 20
168.70452052354801
 30
0.0
  0
VERTEX
  5
C0E5
  8
0
 10
252.68379346724919
 20
167.73910409212101
 30
0.0
  0
VERTEX
  5
C0E6
  8
0
 10
252.32902475890111
 20
166.5622662603854
 30
0.0
  0
SEQEND
  5
C0E7
  8
0
  0
ARC
  5
69E9
  8
0
 10
253.25164588765799
 20
163.40976857616371
 30
0.0
 40
3.2846620078812201
 50
106.3136829276033
 51
118.90217885660741
  0
ARC
  5
69EA
  8
0
 10
271.00054898926152
 20
164.01614024391029
 30
0.0
 40
2.6329300578764618
 50
59.525297597663808
 51
75.247681542859652
  0
LINE
  5
69EB
  8
0
 10
248.99993119087409
 20
162.64846137166001
 30
0.0
 11
249.00001407858321
 21
132.00000029429791
 31
0.0
  0
LINE
  5
69EC
  8
0
 10
275.00001461502512
 20
132.00000029429791
 30
0.0
 11
275.00001461502512
 21
162.64865881204599
 31
0.0
  0
ARC
  5
69ED
  8
0
 10
250.00001434680419
 20
132.0000002682209
 30
0.0
 40
1.0
 50
180.0
 51
270.0
  0
ARC
  5
69EE
  8
0
 10
274.00001434680422
 20
132.0000002682209
 30
0.0
 40
1.0
 50
270.0
 51
0.0
  0
ARC
  5
69EF
  8
0
 10
270.76796349952679
 20
162.3425422153592
 30
0.0
 40
4.2431078250449099
 50
4.1371655437393837
 51
68.314154373663257
  0
ARC
  5
69F0
  8
0
 10
253.23804081571029
 20
162.33808121887401
 30
0.0
 40
4.2494598517191013
 50
111.7386527378017
 51
175.81139169160289
  0
LINE
  5
69F1
  8
0
 10
268.00001439895823
 20
128.50000024447209
 30
0.0
 11
256.0000142946501
 21
128.50000024447209
 31
0.0
  0
LINE
  5
69F2
  8
0
 10
256.0000142946501
 20
124.500000461936
 30
0.0
 11
268.00001439895823
 21
124.500000461936
 31
0.0
  0
LINE
  5
69F3
  8
0
 10
267.50001431700179
 20
124.0000003799796
 30
0.0
 11
256.50001437660649
 21
124.0000003799796
 31
0.0
  0
LINE
  5
69F4
  8
0
 10
258.85001434270629
 20
117.1999998241663
 30
0.0
 11
259.37560973015019
 21
117.1999998241663
 31
0.0
  0
LINE
  5
69F5
  8
0
 10
258.85001434270629
 20
116.2500005066394
 30
0.0
 11
258.85001434270629
 21
123.5000002980232
 31
0.0
  0
LINE
  5
69F6
  8
0
 10
258.85001434270629
 20
123.5000002980232
 30
0.0
 11
257.9000143266876
 21
123.5000002980232
 31
0.0
  0
LINE
  5
69F7
  8
0
 10
266.10001436692068
 20
123.5000002980232
 30
0.0
 11
265.15001435090198
 21
123.5000002980232
 31
0.0
  0
LINE
  5
69F8
  8
0
 10
265.15001435090198
 20
123.5000002980232
 30
0.0
 11
265.15001435090198
 21
116.2500005066394
 31
0.0
  0
LINE
  5
69F9
  8
0
 10
264.62441896345808
 20
117.1999998241663
 30
0.0
 11
265.15001435090198
 21
117.1999998241663
 31
0.0
  0
LINE
  5
69FA
  8
0
 10
264.62441896345808
 20
117.1999998241663
 30
0.0
 11
264.62441896345808
 21
123.5000002980232
 31
0.0
  0
LINE
  5
69FB
  8
0
 10
264.62441896345808
 20
123.5000002980232
 30
0.0
 11
259.37560973015019
 21
123.5000002980232
 31
0.0
  0
LINE
  5
69FC
  8
0
 10
259.37560973015019
 20
123.5000002980232
 30
0.0
 11
259.37560973015019
 21
117.1999998241663
 31
0.0
  0
ARC
  5
69FD
  8
0
 10
262.00001434680411
 20
120.6620956082275
 30
0.0
 40
4.3443764581271109
 50
232.8364431386459
 51
307.16355686135421
  0
LINE
  5
6A00
  8
0
 10
259.10001438368448
 20
116.0
 30
0.0
 11
264.90001430992379
 21
116.0
 31
0.0
  0
LINE
  5
6A05
  8
0
 10
255.50001421269371
 20
129.5000002919696
 30
0.0
 11
268.50001448091461
 21
129.5000002919696
 31
0.0
  0
LINE
  5
6A06
  8
0
 10
268.00001439895823
 20
129.0000002682209
 30
0.0
 11
256.0000142946501
 21
129.0000002682209
 31
0.0
  0
POLYLINE
  5
6A07
  8
0
 66
     1
 10
0.0
 20
0.0
 30
0.0
 70
   128
  0
VERTEX
  5
C0E8
  8
0
 10
254.500014514442
 20
165.4783595204353
 30
0.0
  0
VERTEX
  5
C0E9
  8
0
 10
254.59146526899511
 20
165.3686906993388
 30
0.0
  0
VERTEX
  5
C0EA
  8
0
 10
254.6329314540157
 20
165.35061493722361
 30
0.0
  0
SEQEND
  5
C0EB
  8
0
  0
POLYLINE
  5
6A08
  8
0
 66
     1
 10
0.0
 20
0.0
 30
0.0
 70
   128
  0
VERTEX
  5
C0EC
  8
0
 10
269.3688052639024
 20
165.35273155570019
 30
0.0
  0
VERTEX
  5
C0ED
  8
0
 10
269.40880743112729
 20
165.36911910772321
 30
0.0
  0
VERTEX
  5
C0EE
  8
0
 10
269.49464137923292
 20
165.44338649511329
 30
0.0
  0
VERTEX
  5
C0EF
  8
0
 10
269.50001417916587
 20
165.47261884808529
 30
0.0
  0
SEQEND
  5
C0F0
  8
0
  0
LINE
  5
6A1D
  8
0
 10
268.52176971059612
 20
161.86031660437581
 30
0.0
 11
268.53324593302182
 21
161.8179004490375
 31
0.0
  0
POLYLINE
  5
6A23
  8
0
 66
     1
 10
0.0
 20
0.0
 30
0.0
 70
   128
  0
VERTEX
  5
C0F1
  8
0
 10
255.47771741893459
 20
161.85960134863851
 30
0.0
  0
VERTEX
  5
C0F2
  8
0
 10
255.47771741893459
 20
161.85960134863851
 30
0.0
  0
VERTEX
  5
C0F3
  8
0
 10
255.46672315594131
 20
161.8170808851718
 30
0.0
  0
SEQEND
  5
C0F4
  8
0
  0
ARC
  5
6A29
  8
0
 10
266.40463271505541
 20
159.4973226861494
 30
0.0
 40
3.1489800547657101
 50
13.38068824423074
 51
47.470548219943829
  0
LINE
  5
6A2A
  8
0
 10
269.50001417916587
 20
159.64105686545361
 30
0.0
 11
269.49580180716089
 21
159.76584850251669
 31
0.0
  0
POLYLINE
  5
6A30
  8
0
 66
     1
 10
0.0
 20
0.0
 30
0.0
 70
   128
  0
VERTEX
  5
C0F5
  8
0
 10
254.53190253373549
 20
160.2259944975375
 30
0.0
  0
VERTEX
  5
C0F6
  8
0
 10
254.5149221948939
 20
160.08258013427249
 30
0.0
  0
VERTEX
  5
C0F7
  8
0
 10
254.500014514442
 20
159.64097677171219
 30
0.0
  0
SEQEND
  5
C0F8
  8
0
  0
ARC
  5
6A31
  8
0
 10
257.59102270982129
 20
159.49881384564091
 30
0.0
 40
3.1443617255638481
 50
132.49998919680471
 51
166.62840913640201
  0
LINE
  5
6A3B
  8
0
 10
269.50001417916587
 20
159.64105686545361
 30
0.0
 11
269.50001417916587
 21
142.00000053644169
 31
0.0
  0
ARC
  5
6A3E
  8
0
 10
265.50001434680388
 20
142.00000026822079
 30
0.0
 40
4.0000000000000178
 50
318.18968510422042
 51
0.0
  0
LINE
  5
6A44
  8
0
 10
259.90001442168227
 20
137.9999998807906
 30
0.0
 11
258.50001423877052
 21
137.9999998807906
 31
0.0
  0
LINE
  5
6A47
  8
0
 10
265.5000144548373
 20
137.9999998807906
 30
0.0
 11
264.1000142719256
 21
137.9999998807906
 31
0.0
  0
ARC
  5
6A48
  8
0
 10
262.00001434680388
 20
95.265914944129349
 30
0.0
 40
42.785651976559812
 50
87.186685509899235
 51
92.81331449010078
  0
ARC
  5
6A49
  8
0
 10
265.50000185518388
 20
142.00002738482411
 30
0.0
 40
4.0000275040532971
 50
270.000180475501
 51
318.18951311836992
  0
LINE
  5
6A4A
  8
0
 10
254.500014514442
 20
142.00000053644169
 30
0.0
 11
254.500014514442
 21
159.64097677171219
 31
0.0
  0
ARC
  5
6A4D
  8
0
 10
258.50002683842399
 20
142.00002738482411
 30
0.0
 40
4.0000275040532687
 50
221.81048688163011
 51
269.99981952449912
  0
ARC
  5
6A4E
  8
0
 10
258.50001434680399
 20
142.00000026822079
 30
0.0
 40
4.0000000000000178
 50
180.0
 51
221.81031489577961
  0
LINE
  5
6A8E
  8
0
 10
274.00001445111229
 20
131.0000003632158
 30
0.0
 11
249.9995784686723
 21
131.0000003632158
 31
0.0
  0
LINE
  5
6A8F
  8
0
 10
262.00001434680388
 20
145.78589944541449
 30
0.0
 11
265.00001437288103
 21
147.51794895529741
 31
0.0
  0
LINE
  5
6A90
  8
0
 10
265.00001437288103
 20
147.51794895529741
 30
0.0
 11
265.00001437288103
 21
150.98205170035351
 31
0.0
  0
LINE
  5
6A91
  8
0
 10
265.00001437288103
 20
150.98205170035351
 30
0.0
 11
262.00001434680388
 21
152.71410121023649
 31
0.0
  0
LINE
  5
6A92
  8
0
 10
262.00001434680388
 20
152.71410121023649
 30
0.0
 11
259.0000143207269
 21
150.98205170035351
 31
0.0
  0
LINE
  5
6A93
  8
0
 10
259.0000143207269
 20
150.98205170035351
 30
0.0
 11
259.0000143207269
 21
147.51794895529741
 31
0.0
  0
LINE
  5
6A94
  8
0
 10
259.0000143207269
 20
147.51794895529741
 30
0.0
 11
262.00001434680388
 21
145.78589944541449
 31
0.0
  0
ARC
  5
6A9C
  8
0
 10
260.62145772149779
 20
160.8790903280842
 30
0.0
 40
5.23636001069843
 50
154.13504244225791
 51
169.2076302872027
  0
ARC
  5
6A9D
  8
0
 10
264.67278549463481
 20
161.3215889201955
 30
0.0
 40
3.8865031856954748
 50
7.9677108641447578
 51
29.8876274634083
  0
POLYLINE
  5
6AA6
  8
0
 66
     1
 10
0.0
 20
0.0
 30
0.0
 70
   128
  0
VERTEX
  5
C0F9
  8
0
 10
269.49580180716089
 20
159.76584850251669
 30
0.0
  0
VERTEX
  5
C0FA
  8
0
 10
269.48510789569792
 20
160.08265650272361
 30
0.0
  0
VERTEX
  5
C0FB
  8
0
 10
269.46813035082391
 20
160.22605969011781
 30
0.0
  0
SEQEND
  5
C0FC
  8
0
  0
ARC
  5
6AAD
  8
0
 10
129.00009493188671
 20
60.47073323186072
 30
0.0
 40
1.4837433835678751
 50
27.23781250770552
 51
152.76703113767081
  0
POLYLINE
  5
6AAE
  8
0
 66
     1
 10
0.0
 20
0.0
 30
0.0
 70
   128
  0
VERTEX
  5
C0FD
  8
0
 10
165.5029059946537
 20
50.007712833583241
 30
0.0
  0
VERTEX
  5
C0FE
  8
0
 10
166.22145488858229
 20
50.040131241083031
 30
0.0
  0
VERTEX
  5
C0FF
  8
0
 10
166.90040767192841
 20
50.073104716837292
 30
0.0
  0
SEQEND
  5
C100
  8
0
  0
LINE
  5
6AAF
  8
0
 10
167.98759639263159
 20
50.128210142254723
 30
0.0
 11
168.35900411009791
 21
50.146694101393109
 31
0.0
  0
LINE
  5
6AB1
  8
0
 10
132.15000080876061
 20
60.624404616653969
 30
0.0
 11
132.15000080876061
 21
55.375595383346138
 31
0.0
  0
LINE
  5
6AB3
  8
0
 10
131.62440542131671
 20
54.849999995902238
 30
0.0
 11
126.3755961880088
 21
54.849999995902238
 31
0.0
  0
LINE
  5
6AB5
  8
0
 10
125.8500008005649
 20
55.375595383346138
 30
0.0
 11
125.8500008005649
 21
60.624404616653969
 31
0.0
  0
LINE
  5
6AB7
  8
0
 10
126.3755961880088
 20
61.150000004097869
 30
0.0
 11
131.62440542131671
 21
61.150000004097869
 31
0.0
  0
CIRCLE
  5
6AB9
  8
0
 10
129.0000008046627
 20
58.000000000000057
 30
0.0
 40
2.9000000000000048
  0
CIRCLE
  5
6ABF
  8
0
 10
129.0000008046627
 20
58.000000000000057
 30
0.0
 40
6.0
  0
CIRCLE
  5
6AC1
  8
0
 10
129.0000008046627
 20
58.000000000000057
 30
0.0
 40
6.5000000000000142
  0
LINE
  5
6AC3
  8
0
 10
160.45000046491629
 20
58.721687858458608
 30
0.0
 11
160.45000046491629
 21
57.278312141541392
 31
0.0
  0
LINE
  5
6AC4
  8
0
 10
160.45000046491629
 20
57.278312141541392
 30
0.0
 11
161.69999927282339
 21
56.55662428308279
 31
0.0
  0
LINE
  5
6AC5
  8
0
 10
161.69999927282339
 20
56.55662428308279
 30
0.0
 11
162.95000180602079
 21
57.278312141541392
 31
0.0
  0
LINE
  5
6AC6
  8
0
 10
162.95000180602079
 20
57.278312141541392
 30
0.0
 11
162.95000180602079
 21
58.721687858458608
 31
0.0
  0
LINE
  5
6AC7
  8
0
 10
162.95000180602079
 20
58.721687858458608
 30
0.0
 11
161.69999927282339
 21
59.443375716917217
 31
0.0
  0
LINE
  5
6AC8
  8
0
 10
161.69999927282339
 20
59.443375716917217
 30
0.0
 11
160.45000046491629
 21
58.721687858458608
 31
0.0
  0
CIRCLE
  5
6ACA
  8
0
 10
131.2500008046627
 20
64.997142273814404
 30
0.0
 40
0.5999999999999944
  0
LINE
  5
6ACB
  8
0
 10
130.00000085216021
 20
64.422616075724363
 30
0.0
 11
130.00000085216021
 21
66.440971374511719
 31
0.0
  0
ARC
  5
6ACC
  8
0
 10
129.0000008046627
 20
58.0
 30
0.0
 40
8.5
 50
96.75632703058838
 51
83.243672969411605
  0
LINE
  5
6ACD
  8
0
 10
128.00000075716531
 20
66.440971374511719
 30
0.0
 11
128.00000075716531
 21
64.422616075724363
 31
0.0
  0
CIRCLE
  5
6ACE
  8
0
 10
126.7500008046627
 20
64.997142273814404
 30
0.0
 40
0.5999999999999944
  0
ARC
  5
6AD1
  8
0
 10
143.92481236126201
 20
40.499999999999993
 30
0.0
 40
10.0
 50
93.60080140337331
 51
130.4590830807912
  0
ARC
  5
6AD3
  8
0
 10
143.0577001012829
 20
54.454757768616219
 30
0.0
 40
3.9816827901008511
 50
273.44220733075377
 51
339.27669807222139
  0
ARC
  5
6AD7
  8
0
 10
129.0000008046627
 20
58.0
 30
0.0
 40
13.0
 50
49.540916919208797
 51
310.45908308079117
  0
CIRCLE
  5
6AD9
  8
0
 10
129.0000008046627
 20
58.0
 30
0.0
 40
9.0
  0
LINE
  5
6ADD
  8
0
 10
147.05490335822111
 20
61.525134874507792
 30
0.0
 11
147.05490335822111
 21
54.474865125492222
 31
0.0
  0
ARC
  5
6AE0
  8
0
 10
143.09992063158461
 20
61.612896885493967
 30
0.0
 40
3.9118005747714659
 50
21.219290812436562
 51
87.115588763836826
  0
ARC
  5
6AE1
  8
0
 10
143.92481236126201
 20
75.5
 30
0.0
 40
10.0
 50
229.5409169192134
 51
266.3991985966332
  0
POLYLINE
  5
6AE4
  8
0
 66
     1
 10
0.0
 20
0.0
 30
0.0
 70
   128
  0
VERTEX
  5
C101
  8
0
 10
143.2967671751976
 20
65.519741542637348
 30
0.0
  0
VERTEX
  5
C102
  8
0
 10
143.50716505199671
 20
65.508725393563509
 30
0.0
  0
VERTEX
  5
C103
  8
0
 10
143.9248120039702
 20
65.499999832361937
 30
0.0
  0
SEQEND
  5
C104
  8
0
  0
POLYLINE
  5
6AE6
  8
0
 66
     1
 10
0.0
 20
0.0
 30
0.0
 70
   128
  0
VERTEX
  5
C105
  8
0
 10
143.9248120039702
 20
50.500000167638071
 30
0.0
  0
VERTEX
  5
C106
  8
0
 10
143.5116046667099
 20
50.491459473967552
 30
0.0
  0
VERTEX
  5
C107
  8
0
 10
143.2967671751976
 20
50.480258457362652
 30
0.0
  0
SEQEND
  5
C108
  8
0
  0
LINE
  5
6AEB
  8
0
 10
164.7005798349922
 20
50.500000167638071
 30
0.0
 11
143.9248120039702
 21
50.500000167638071
 31
0.0
  0
LINE
  5
6AED
  8
0
 10
143.9248120039702
 20
65.499999832361937
 30
0.0
 11
164.7005798349922
 21
65.499999832361937
 31
0.0
  0
LINE
  5
6B00
  8
0
 10
165.69999992847451
 20
64.50132377326247
 30
0.0
 11
165.69999992847451
 21
51.499999865889549
 31
0.0
  0
ARC
  5
6B01
  8
0
 10
164.70000080466269
 20
51.5
 30
0.0
 40
1.0
 50
270.0000000000033
 51
0.0
  0
ARC
  5
6B02
  8
0
 10
164.70000080466269
 20
64.5
 30
0.0
 40
1.0
 50
0.0
 51
90.0
  0
ARC
  5
6B0D
  8
0
 10
140.81663672748709
 20
77.730587808580935
 30
0.0
 40
9.9984560001805391
 50
239.0814766736853
 51
265.1204100960249
  0
ARC
  5
6B0F
  8
0
 10
140.8166307020893
 20
38.269430847459773
 30
0.0
 40
9.9984368992241972
 50
94.879564594539701
 51
120.918548635755
  0
POLYLINE
  5
6B18
  8
0
 66
     1
 10
0.0
 20
0.0
 30
0.0
 70
   128
  0
VERTEX
  5
C109
  8
0
 10
139.96614810079339
 20
67.768369607627392
 30
0.0
  0
VERTEX
  5
C10A
  8
0
 10
143.462203592062
 20
67.477530606091022
 30
0.0
  0
VERTEX
  5
C10B
  8
0
 10
147.1601670235396
 20
67.186747483909073
 30
0.0
  0
VERTEX
  5
C10C
  8
0
 10
151.03466264903551
 20
66.900649845600071
 30
0.0
  0
VERTEX
  5
C10D
  8
0
 10
155.06956554949289
 20
66.622882887721005
 30
0.0
  0
SEQEND
  5
C10E
  8
0
  0
POLYLINE
  5
6B1A
  8
0
 66
     1
 10
0.0
 20
0.0
 30
0.0
 70
   128
  0
VERTEX
  5
C10F
  8
0
 10
155.05841948091989
 20
49.376378573477211
 30
0.0
  0
VERTEX
  5
C110
  8
0
 10
150.99797785282141
 20
49.096730343997422
 30
0.0
  0
VERTEX
  5
C111
  8
0
 10
147.1016743779183
 20
48.808787755668099
 30
0.0
  0
VERTEX
  5
C112
  8
0
 10
143.4382201731205
 20
48.52052758634084
 30
0.0
  0
VERTEX
  5
C113
  8
0
 10
139.96614810079339
 20
48.231630392372608
 30
0.0
  0
SEQEND
  5
C114
  8
0
  0
LINE
  5
6B21
  8
0
 10
165.5029059946537
 20
50.007712833583241
 30
0.0
 11
165.46663656830791
 21
49.998156532645112
 31
0.0
  0
POLYLINE
  5
6B22
  8
0
 66
     1
 10
0.0
 20
0.0
 30
0.0
 70
   128
  0
VERTEX
  5
C115
  8
0
 10
165.46663656830791
 20
49.998156532645112
 30
0.0
  0
VERTEX
  5
C116
  8
0
 10
161.9046480953694
 20
49.8007450178265
 30
0.0
  0
VERTEX
  5
C117
  8
0
 10
158.4205945581198
 20
49.592175327241357
 30
0.0
  0
VERTEX
  5
C118
  8
0
 10
155.05841948091989
 20
49.376378573477211
 30
0.0
  0
SEQEND
  5
C119
  8
0
  0
POLYLINE
  5
6B25
  8
0
 66
     1
 10
0.0
 20
0.0
 30
0.0
 70
   128
  0
VERTEX
  5
C11A
  8
0
 10
155.06956554949289
 20
66.622882887721005
 30
0.0
  0
VERTEX
  5
C11B
  8
0
 10
158.41753423213959
 20
66.408013731241169
 30
0.0
  0
VERTEX
  5
C11C
  8
0
 10
161.89750671386719
 20
66.199666626751366
 30
0.0
  0
VERTEX
  5
C11D
  8
0
 10
165.46666264533999
 20
66.001842536032143
 30
0.0
  0
SEQEND
  5
C11E
  8
0
  0
POLYLINE
  5
6B3A
  8
0
 66
     1
 10
0.0
 20
0.0
 30
0.0
 70
   128
  0
VERTEX
  5
C11F
  8
0
 10
167.99602672457701
 20
50.12858639657486
 30
0.0
  0
VERTEX
  5
C120
  8
0
 10
167.7985751628876
 20
50.118735797703152
 30
0.0
  0
VERTEX
  5
C121
  8
0
 10
167.20746845006951
 20
50.088818922638779
 30
0.0
  0
VERTEX
  5
C122
  8
0
 10
166.8744945526123
 20
50.071722634136563
 30
0.0
  0
SEQEND
  5
C123
  8
0
  0
POLYLINE
  5
6B3C
  8
0
 66
     1
 10
0.0
 20
0.0
 30
0.0
 70
   128
  0
VERTEX
  5
C124
  8
0
 10
165.46666264533999
 20
66.001842536032143
 30
0.0
  0
VERTEX
  5
C125
  8
0
 10
166.1904083192349
 20
65.963685318827515
 30
0.0
  0
VERTEX
  5
C126
  8
0
 10
166.8997631967068
 20
65.926927879452592
 30
0.0
  0
VERTEX
  5
C127
  8
0
 10
167.65286788344389
 20
65.888597436249142
 30
0.0
  0
VERTEX
  5
C128
  8
0
 10
168.358244150877
 20
65.853344082832223
 30
0.0
  0
SEQEND
  5
C129
  8
0
  0
POLYLINE
  5
6B49
  8
0
 66
     1
 10
0.0
 20
0.0
 30
0.0
 70
   128
  0
VERTEX
  5
C12A
  8
0
 10
185.10687366127971
 20
50.799823638051627
 30
0.0
  0
VERTEX
  5
C12B
  8
0
 10
182.34393760561949
 20
50.716365493833912
 30
0.0
  0
VERTEX
  5
C12C
  8
0
 10
179.57927674055099
 20
50.623253259807711
 30
0.0
  0
VERTEX
  5
C12D
  8
0
 10
176.66014671325689
 20
50.514510173350459
 30
0.0
  0
VERTEX
  5
C12E
  8
0
 10
173.68953689932829
 20
50.39284778013814
 30
0.0
  0
VERTEX
  5
C12F
  8
0
 10
171.10213652253151
 20
50.277833633124708
 30
0.0
  0
VERTEX
  5
C130
  8
0
 10
168.35900411009791
 20
50.146694101393109
 30
0.0
  0
SEQEND
  5
C131
  8
0
  0
POLYLINE
  5
6B4B
  8
0
 66
     1
 10
0.0
 20
0.0
 30
0.0
 70
   128
  0
VERTEX
  5
C132
  8
0
 10
168.3582516014576
 20
65.853343151509648
 30
0.0
  0
VERTEX
  5
C133
  8
0
 10
171.66515082120901
 20
65.69642228260625
 30
0.0
  0
VERTEX
  5
C134
  8
0
 10
175.35820618271831
 20
65.5374450534581
 30
0.0
  0
VERTEX
  5
C135
  8
0
 10
178.4743928909302
 20
65.416645530611163
 30
0.0
  0
VERTEX
  5
C136
  8
0
 10
181.76117926836019
 20
65.302462123334294
 30
0.0
  0
VERTEX
  5
C137
  8
0
 10
185.10687366127971
 20
65.200176361948138
 30
0.0
  0
SEQEND
  5
C138
  8
0
  0
ARC
  5
6B4D
  8
0
 10
196.49999782318361
 20
57.999999999999893
 30
0.0
 40
7.5000000344380231
 50
265.43966441816309
 51
94.560335581836895
  0
ARC
  5
6B4F
  8
0
 10
187.95279768628021
 20
-49.159453443761322
 30
0.0
 40
99.999781791135604
 50
85.439655800258365
 51
91.630818105053663
  0
ARC
  5
6B50
  8
0
 10
187.95279462423599
 20
165.1595731928162
 30
0.0
 40
99.999901404543081
 50
268.369185601288
 51
274.56034049340047
  0
ARC
  5
6B51
  8
0
 10
143.70644172621331
 20
54.374233049684896
 30
0.0
 40
3.3499734500006482
 50
336.63764379473042
 51
1.7214049075928399
  0
ARC
  5
6B52
  8
0
 10
143.62129419511101
 20
61.604307661950543
 30
0.0
 40
3.4345218321135991
 50
358.6790975132626
 51
24.502699976160841
  0
LINE
  5
99C1
  8
0
 10
129.0000008046627
 20
239.61880280993131
 30
0.0
 11
133.00000099465251
 21
237.30940175599611
 31
0.0
  0
LINE
  5
99C2
  8
0
 10
129.0000008046627
 20
239.61880280993131
 30
0.0
 11
125.0000006146729
 21
237.30940175599611
 31
0.0
  0
LINE
  5
99C3
  8
0
 10
129.0000008046627
 20
230.38119859419021
 30
0.0
 11
133.00000099465251
 21
232.6905996481255
 31
0.0
  0
LINE
  5
99C4
  8
0
 10
129.0000008046627
 20
230.38119859419021
 30
0.0
 11
125.0000006146729
 21
232.6905996481255
 31
0.0
  0
CIRCLE
  5
9E3B
  8
0
 10
129.0000008046627
 20
58.000000000000057
 30
0.0
 40
4.0999999999999988
  0
CIRCLE
  5
9EC8
  8
0
 10
262.00001434680388
 20
149.25000026822079
 30
0.0
 40
6.0
  0
CIRCLE
  5
9EC9
  8
3
 10
262.00001434680388
 20
149.25000026822079
 30
0.0
 40
5.052999999999999
  0
CIRCLE
  5
9ED0
  8
3
 10
161.70000080466269
 20
58.0
 30
0.0
 40
2.0669999999999988
  0
CIRCLE
  5
9ED1
  8
0
 10
161.70000080466269
 20
58.0
 30
0.0
 40
2.5
  0
LINE
  5
9F58
  8
1
 10
129.0000008046627
 20
253.00000071866839
 30
0.0
 11
129.0000008046627
 21
217.00000068545339
 31
0.0
  0
LINE
  5
9F59
  8
1
 10
262.00001434680388
 20
182.0000006854533
 30
0.0
 11
262.00001434680388
 21
111.0
 31
0.0
  0
LINE
  5
9F5A
  8
1
 10
58.000000268220958
 20
182.0000006854533
 30
0.0
 11
58.000000268220958
 21
111.0
 31
0.0
  0
LINE
  5
9F65
  8
1
 10
111.0000008225489
 20
235.00000070206079
 30
0.0
 11
208.99999947770709
 21
235.00000070206079
 31
0.0
  0
LINE
  5
9F66
  8
1
 10
111.0000008046627
 20
58.000000000000057
 30
0.0
 11
208.99999785762159
 21
58.000000000000057
 31
0.0
  0
LINE
  5
9F6C
  8
1
 10
129.0000008046627
 20
171.9999990463256
 30
0.0
 11
129.0000008046627
 21
111.0
 31
0.0
  0
LINE
  5
9F6D
  8
1
 10
129.0000008046627
 20
76.0
 30
0.0
 11
129.0000008046627
 21
40.0
 31
0.0
  0
LINE
  5
9FB1
  8
1
 10
271.00001434680399
 20
149.25000026822079
 30
0.0
 11
253.00001434680391
 21
149.25000026822079
 31
0.0
  0
LINE
  5
9FF6
  8
1
 10
161.70000080466269
 20
63.5
 30
0.0
 11
161.70000080466269
 21
52.5
 31
0.0
  0
ENDSEC
  0
EOF
