  0
SECTION
  2
HEADER
  9
$ACADVER
  1
AC1009
  9
$INSBASE
 10
0.0
 20
0.0
 30
0.0
  9
$EXTMIN
 10
0.0
 20
-2.960436562073669
 30
0.0
  9
$EXTMAX
 10
330.0
 20
239.11920499999999
 30
0.0
  9
$LIMMIN
 10
0.0
 20
0.0
  9
$LIMMAX
 10
375.0
 20
270.0
  9
$ORTHOMODE
 70
     1
  9
$REGENMODE
 70
     1
  9
$FILLMODE
 70
     1
  9
$QTEXTMODE
 70
     0
  9
$MIRRTEXT
 70
     0
  9
$DRAGMODE
 70
     2
  9
$LTSCALE
 40
10.0
  9
$OSMODE
 70
  3071
  9
$ATTMODE
 70
     1
  9
$TEXTSIZE
 40
0.2
  9
$TRACEWID
 40
0.05
  9
$TEXTSTYLE
  7
STANDARD
  9
$CLAYER
  8
0
  9
$CELTYPE
  6
BYLAYER
  9
$CECOLOR
 62
   256
  9
$DIMSCALE
 40
1.0
  9
$DIMASZ
 40
3.0
  9
$DIMEXO
 40
2.0
  9
$DIMDLI
 40
10.0
  9
$DIMRND
 40
0.0
  9
$DIMDLE
 40
0.0
  9
$DIMEXE
 40
2.0
  9
$DIMTP
 40
0.0
  9
$DIMTM
 40
0.0
  9
$DIMTXT
 40
3.2000000000000002
  9
$DIMCEN
 40
0.09
  9
$DIMTSZ
 40
0.0
  9
$DIMTOL
 70
     0
  9
$DIMLIM
 70
     0
  9
$DIMTIH
 70
     0
  9
$DIMTOH
 70
     0
  9
$DIMSE1
 70
     0
  9
$DIMSE2
 70
     0
  9
$DIMTAD
 70
     1
  9
$DIMZIN
 70
     0
  9
$DIMBLK
  1

  9
$DIMASO
 70
     0
  9
$DIMSHO
 70
     0
  9
$DIMPOST
  1

  9
$DIMAPOST
  1

  9
$DIMALT
 70
     0
  9
$DIMALTD
 70
     2
  9
$DIMALTF
 40
25.399999999999999
  9
$DIMLFAC
 40
1.0
  9
$DIMTOFL
 70
     1
  9
$DIMTVP
 40
1.6000000000000001
  9
$DIMTIX
 70
     1
  9
$DIMSOXD
 70
     0
  9
$DIMSAH
 70
     0
  9
$DIMBLK1
  1

  9
$DIMBLK2
  1

  9
$DIMSTYLE
  2
STANDARD
  9
$DIMCLRD
 70
     0
  9
$DIMCLRE
 70
     0
  9
$DIMCLRT
 70
     0
  9
$DIMTFAC
 40
1.0
  9
$DIMGAP
 40
0.09
  9
$LUNITS
 70
     2
  9
$LUPREC
 70
     2
  9
$SKETCHINC
 40
0.1
  9
$FILLETRAD
 40
2.5
  9
$AUNITS
 70
     0
  9
$AUPREC
 70
     0
  9
$MENU
  1
E:\r13\win\SUPPORT\ACAD
  9
$ELEVATION
 40
0.0
  9
$PELEVATION
 40
0.0
  9
$THICKNESS
 40
0.0
  9
$LIMCHECK
 70
     0
  9
$BLIPMODE
 70
     0
  9
$CHAMFERA
 40
0.0
  9
$CHAMFERB
 40
0.0
  9
$SKPOLY
 70
     0
  9
$TDCREATE
 40
2449840.6022337968
  9
$TDUPDATE
 40
2456598.5902976738
  9
$TDINDWG
 40
0.0007644097
  9
$TDUSRTIMER
 40
0.0007644097
  9
$USRTIMER
 70
     1
  9
$ANGBASE
 50
0.0
  9
$ANGDIR
 70
     0
  9
$PDMODE
 70
     0
  9
$PDSIZE
 40
0.0
  9
$PLINEWID
 40
0.0
  9
$COORDS
 70
     1
  9
$SPLFRAME
 70
     0
  9
$SPLINETYPE
 70
     6
  9
$SPLINESEGS
 70
     8
  9
$ATTDIA
 70
     0
  9
$ATTREQ
 70
     1
  9
$HANDLING
 70
     1
  9
$HANDSEED
  5
261
  9
$SURFTAB1
 70
     6
  9
$SURFTAB2
 70
     6
  9
$SURFTYPE
 70
     6
  9
$SURFU
 70
     6
  9
$SURFV
 70
     6
  9
$UCSNAME
  2

  9
$UCSORG
 10
0.0
 20
0.0
 30
0.0
  9
$UCSXDIR
 10
1.0
 20
0.0
 30
0.0
  9
$UCSYDIR
 10
0.0
 20
1.0
 30
0.0
  9
$PUCSNAME
  2

  9
$PUCSORG
 10
0.0
 20
0.0
 30
0.0
  9
$PUCSXDIR
 10
1.0
 20
0.0
 30
0.0
  9
$PUCSYDIR
 10
0.0
 20
1.0
 30
0.0
  9
$USERI1
 70
     0
  9
$USERI2
 70
     1
  9
$USERI3
 70
     0
  9
$USERI4
 70
     0
  9
$USERI5
 70
     0
  9
$USERR1
 40
0.0
  9
$USERR2
 40
0.0
  9
$USERR3
 40
0.0
  9
$USERR4
 40
0.0
  9
$USERR5
 40
0.0
  9
$WORLDVIEW
 70
     1
  9
$SHADEDGE
 70
     3
  9
$SHADEDIF
 70
    70
  9
$TILEMODE
 70
     1
  9
$MAXACTVP
 70
    16
  9
$PLIMCHECK
 70
     0
  9
$PEXTMIN
 10
1.0000000000000000E+020
 20
1.0000000000000000E+020
 30
1.0000000000000000E+020
  9
$PEXTMAX
 10
-1.0000000000000000E+020
 20
-1.0000000000000000E+020
 30
-1.0000000000000000E+020
  9
$PLIMMIN
 10
0.0
 20
0.0
  9
$PLIMMAX
 10
12.0
 20
9.0
  9
$UNITMODE
 70
     0
  9
$VISRETAIN
 70
     0
  9
$PLINEGEN
 70
     0
  9
$PSLTSCALE
 70
     0
  0
ENDSEC
  0
SECTION
  2
TABLES
  0
TABLE
  2
VPORT
 70
     1
  0
VPORT
  2
*ACTIVE
 70
     0
 10
0.0
 20
0.0
 11
1.0
 21
1.0
 12
195.0581083320873
 22
133.5127261426681
 13
0.0
 23
0.0
 14
10.0
 24
10.0
 15
10.0
 25
10.0
 16
0.0
 26
0.0
 36
1.0
 17
0.0
 27
0.0
 37
0.0
 40
275.42274993631997
 41
1.831871345029239
 42
50.0
 43
0.0
 44
0.0
 50
0.0
 51
0.0
 71
     0
 72
   100
 73
     1
 74
     0
 75
     0
 76
     0
 77
     0
 78
     2
  0
ENDTAB
  0
TABLE
  2
LTYPE
 70
     4
  0
LTYPE
  2
CONTINUOUS
 70
     0
  3
Solid Line
 72
    65
 73
     0
 40
0.0
  0
LTYPE
  2
CENTER
 70
     0
  3
____ _ ____ _ ____ _ ____ _ ____ _ ____ _ ____
 72
    65
 73
     4
 40
2.0
 49
1.25
 49
-0.25
 49
0.25
 49
-0.25
  0
LTYPE
  2
HIDDEN
 70
     0
  3
_ _ _ _ _ _ _ _ _ _ _ _ _ _ _ _ _ _ _ _ _ _ _
 72
    65
 73
     2
 40
0.375
 49
0.25
 49
-0.125
  0
LTYPE
  2
PHANTOM2
 70
     0
  3
___ _ _ ___ _ _ ___ _ _ ___ _ _
 72
    65
 73
     6
 40
1.25
 49
0.625
 49
-0.125
 49
0.125
 49
-0.125
 49
0.125
 49
-0.125
  0
ENDTAB
  0
TABLE
  2
LAYER
 70
     3
  0
LAYER
  2
0
 70
     0
 62
     7
  6
CONTINUOUS
  0
LAYER
  2
1
 70
     0
 62
     1
  6
CENTER
  0
LAYER
  2
2
 70
     0
 62
     2
  6
HIDDEN
  0
ENDTAB
  0
TABLE
  2
STYLE
 70
     2
  0
STYLE
  2
STANDARD
 70
     0
 40
0.0
 41
1.0
 50
0.0
 71
     0
 42
0.2
  3
TXT
  4
BIGFONT
  0
STYLE
  2
STANDARD1
 70
     0
 40
0.0
 41
1.0
 50
0.0
 71
     0
 42
3.0
  3
txt
  4

  0
ENDTAB
  0
TABLE
  2
VIEW
 70
     1
  0
VIEW
  2
ALL
 70
     0
 40
270.0
 10
220.99159700000001
 20
135.0
 41
0.0
 11
0.0
 21
0.0
 31
1.0
 12
0.0
 22
0.0
 32
0.0
 42
0.0
 43
0.0
 44
0.0
 50
0.0
 71
     0
  0
ENDTAB
  0
TABLE
  2
UCS
 70
     0
  0
ENDTAB
  0
TABLE
  2
APPID
 70
     3
  0
APPID
  2
ACAD
 70
     0
  0
APPID
  2
ACAD_MLEADERVER
 70
     0
  0
APPID
  2
ACAD_NAV_VCDISPLAY
 70
     0
  0
ENDTAB
  0
TABLE
  2
DIMSTYLE
 70
     1
  0
DIMSTYLE
  2
STANDARD
 70
     0
  3

  4

  5

  6

  7

 40
1.0
 41
0.18
 42
0.0625
 43
0.38
 44
0.18
 45
0.0
 46
0.0
 47
0.0
 48
0.0
140
0.18
141
0.09
142
0.0
143
25.399999999999999
144
1.0
145
0.0
146
1.0
147
0.09
 71
     0
 72
     0
 73
     1
 74
     1
 75
     0
 76
     0
 77
     0
 78
     0
170
     0
171
     2
172
     0
173
     0
174
     0
175
     0
176
     0
177
     0
178
     0
  0
ENDTAB
  0
ENDSEC
  0
SECTION
  2
BLOCKS
  0
BLOCK
  8
0
  2
$MODEL_SPACE
 70
     0
 10
0.0
 20
0.0
 30
0.0
  3
$MODEL_SPACE
  1

  0
ENDBLK
  5
117
  8
0
  0
BLOCK
 67
     1
  8
0
  2
$PAPER_SPACE
 70
     0
 10
0.0
 20
0.0
 30
0.0
  3
$PAPER_SPACE
  1

  0
ENDBLK
  5
115
 67
     1
  8
0
  0
ENDSEC
  0
SECTION
  2
ENTITIES
  0
ARC
  5
35
  8
0
 10
99.973309999999998
 20
147.621441
 30
0.0
 40
16.0
 50
177.219435
 51
272.78056500000002
  0
ARC
  5
36
  8
0
 10
101.0
 20
127.64813100000001
 30
0.0
 40
4.0
 50
266.40929199999999
 51
93.590707999999992
  0
ARC
  5
37
  8
0
 10
99.973309999999998
 20
107.67482099999999
 30
0.0
 40
16.0
 50
87.219435000000004
 51
182.780565
  0
ARC
  5
38
  8
0
 10
80.0
 20
106.64813100000001
 30
0.0
 40
4.0
 50
176.40929199999999
 51
3.5907079999999989
  0
ARC
  5
39
  8
0
 10
60.026690000000002
 20
107.67482099999999
 30
0.0
 40
16.0
 50
357.21943499999998
 51
92.780564999999996
  0
ARC
  5
3A
  8
0
 10
59.0
 20
127.64813100000001
 30
0.0
 40
4.0
 50
86.409291999999994
 51
273.59070800000001
  0
ARC
  5
3B
  8
0
 10
80.0
 20
148.64813100000001
 30
0.0
 40
4.0
 50
356.40929199999999
 51
183.59070800000001
  0
ARC
  5
3C
  8
0
 10
60.026690000000002
 20
147.621441
 30
0.0
 40
16.0
 50
267.21943499999998
 51
2.7805650000000002
  0
LINE
  5
3D
  8
1
 10
80.0
 20
157.64813100000001
 30
0.0
 11
80.0
 21
97.648131000000006
 31
0.0
  0
LINE
  5
3E
  8
1
 10
50.0
 20
127.64813100000001
 30
0.0
 11
110.0
 21
127.64813100000001
 31
0.0
  0
ARC
  5
3F
  8
0
 10
248.0
 20
127.64813100000001
 30
0.0
 40
70.0
 50
160.52877899999999
 51
199.47134
  0
LINE
  5
40
  8
0
 10
192.0
 20
150.14813100000001
 30
0.0
 11
192.0
 21
105.14813100000001
 31
0.0
  0
ARC
  5
41
  8
0
 10
184.36039
 20
105.14813100000001
 30
0.0
 40
2.5
 50
199.47455199999999
 51
269.999978
  0
LINE
  5
42
  8
0
 10
210.0
 20
116.64813100000001
 30
0.0
 11
195.77812
 21
115.85802700000001
 31
0.0
  0
ARC
  5
43
  8
0
 10
196.0
 20
111.864186
 30
0.0
 40
4.0
 50
93.17983000000001
 51
180.0
  0
LINE
  5
44
  8
0
 10
189.5
 20
102.64813100000001
 30
0.0
 11
184.360389
 21
102.64813100000001
 31
0.0
  0
ARC
  5
45
  8
0
 10
189.5
 20
105.14813100000001
 30
0.0
 40
2.5
 50
270.0
 51
360.0
  0
ARC
  5
46
  8
0
 10
189.5
 20
150.14813100000001
 30
0.0
 40
2.5
 50
360.0
 51
90.0
  0
ARC
  5
47
  8
0
 10
196.0
 20
143.43207699999999
 30
0.0
 40
4.0
 50
180.0
 51
266.82017000000002
  0
LINE
  5
48
  8
0
 10
189.5
 20
152.64813100000001
 30
0.0
 11
184.36039
 21
152.64813100000001
 31
0.0
  0
LINE
  5
49
  8
0
 10
210.0
 20
138.64813100000001
 30
0.0
 11
195.77812
 21
139.43823599999999
 31
0.0
  0
LINE
  5
4A
  8
0
 10
210.0
 20
116.64813100000001
 30
0.0
 11
210.0
 21
138.64813100000001
 31
0.0
  0
LINE
  5
4B
  8
1
 10
215.0
 20
127.64813100000001
 30
0.0
 11
173.0
 21
127.64813100000001
 31
0.0
  0
LINE
  5
4C
  8
2
 10
210.0
 20
130.14813100000001
 30
0.0
 11
200.0
 21
130.14813100000001
 31
0.0
  0
LINE
  5
4D
  8
2
 10
210.0
 20
125.14813100000001
 30
0.0
 11
200.0
 21
125.14813100000001
 31
0.0
  0
LINE
  5
4E
  8
2
 10
200.0
 20
125.14813100000001
 30
0.0
 11
200.0
 21
130.14813100000001
 31
0.0
  0
LINE
  5
4F
  8
2
 10
200.0
 20
130.14813100000001
 30
0.0
 11
198.556624
 21
127.64813100000001
 31
0.0
  0
LINE
  5
50
  8
2
 10
200.0
 20
125.14813100000001
 30
0.0
 11
198.556624
 21
127.64813100000001
 31
0.0
  0
LINE
  5
51
  8
1
 10
270.0
 20
127.64813100000001
 30
0.0
 11
330.0
 21
127.64813100000001
 31
0.0
  0
LINE
  5
52
  8
1
 10
300.0
 20
157.64813100000001
 30
0.0
 11
300.0
 21
97.648131000000006
 31
0.0
  0
ARC
  5
53
  8
0
 10
280.02668999999997
 20
147.621441
 30
0.0
 40
16.0
 50
267.21943499999998
 51
2.7805650000000002
  0
ARC
  5
54
  8
0
 10
300.0
 20
148.64813100000001
 30
0.0
 40
4.0
 50
356.40929199999999
 51
183.59070800000001
  0
ARC
  5
55
  8
0
 10
279.0
 20
127.64813100000001
 30
0.0
 40
4.0
 50
86.409291999999994
 51
273.59070800000001
  0
ARC
  5
56
  8
0
 10
280.02668999999997
 20
107.67482099999999
 30
0.0
 40
16.0
 50
357.21943499999998
 51
92.780564999999996
  0
ARC
  5
57
  8
0
 10
300.0
 20
106.64813100000001
 30
0.0
 40
4.0
 50
176.40929199999999
 51
3.5907079999999989
  0
ARC
  5
58
  8
0
 10
319.97331000000003
 20
107.67482099999999
 30
0.0
 40
16.0
 50
87.219435000000004
 51
182.780565
  0
ARC
  5
59
  8
0
 10
321.0
 20
127.64813100000001
 30
0.0
 40
4.0
 50
266.40929199999999
 51
93.590707999999992
  0
ARC
  5
5A
  8
0
 10
319.97331000000003
 20
147.621441
 30
0.0
 40
16.0
 50
177.219435
 51
272.78056500000002
  0
CIRCLE
  5
5B
  8
0
 10
300.0
 20
127.64813100000001
 30
0.0
 40
11.0
  0
CIRCLE
  5
5C
  8
0
 10
300.0
 20
127.64813100000001
 30
0.0
 40
2.5
  0
CIRCLE
  5
5D
  8
0
 10
300.0
 20
127.64813100000001
 30
0.0
 40
12.0
  0
LINE
  5
5E
  8
0
 10
182.61651599999999
 20
129.14027899999999
 30
0.0
 11
182.61651599999999
 21
126.155984
 31
0.0
  0
LINE
  5
5F
  8
0
 10
185.11651599999999
 20
131.64027899999999
 30
0.0
 11
189.5
 21
131.64027899999999
 31
0.0
  0
LINE
  5
60
  8
0
 10
185.11651599999999
 20
123.655984
 30
0.0
 11
189.5
 21
123.655984
 31
0.0
  0
ARC
  5
61
  8
0
 10
189.5
 20
129.14027899999999
 30
0.0
 40
2.5
 50
0.0
 51
90.0
  0
ARC
  5
62
  8
0
 10
189.5
 20
126.155984
 30
0.0
 40
2.5
 50
270.0
 51
0.0
  0
POLYLINE
  5
63
  8
0
 66
     1
 10
0.0
 20
0.0
 30
0.0
  0
VERTEX
  5
64
  8
0
 10
179.07959199999999
 20
136.30773300000001
 30
0.0
 42
0.076183
  0
VERTEX
  5
65
  8
0
 10
179.36137199999999
 20
134.46911399999999
 30
0.0
 42
0.086293
  0
VERTEX
  5
66
  8
0
 10
180.115533
 20
133.00734499999999
 30
0.0
 42
0.105917
 70
     2
 50
307.15428000000003
  0
VERTEX
  5
67
  8
0
 10
181.404031
 20
131.896962
 30
0.0
 42
0.146851
 50
307.15428000000003
  0
VERTEX
  5
68
  8
0
 10
182.61651599999999
 20
131.64027899999999
 30
0.0
 42
0.125716
  0
SEQEND
  5
69
  8
0
  0
POLYLINE
  5
6A
  8
0
 66
     1
 10
0.0
 20
0.0
 30
0.0
  0
VERTEX
  5
6B
  8
0
 10
179.11971600000001
 20
140.118357
 30
0.0
 42
0.018299
 50
257.786587
  0
VERTEX
  5
6C
  8
0
 10
179.07959199999999
 20
136.30773300000001
 30
0.0
 42
0.022358
  0
SEQEND
  5
6D
  8
0
  0
ARC
  5
6E
  8
0
 10
185.11651599999999
 20
129.14027899999999
 30
0.0
 40
2.5
 50
90.0
 51
180.0
  0
ARC
  5
6F
  8
0
 10
185.11651599999999
 20
126.155984
 30
0.0
 40
2.5
 50
180.0
 51
270.0
  0
POLYLINE
  5
70
  8
0
 66
     1
 10
0.0
 20
0.0
 30
0.0
  0
VERTEX
  5
71
  8
0
 10
179.11971600000001
 20
115.17790599999999
 30
0.0
 42
-0.018299
  0
VERTEX
  5
72
  8
0
 10
179.07959199999999
 20
118.98853
 30
0.0
 42
-0.022358
  0
SEQEND
  5
73
  8
0
  0
POLYLINE
  5
74
  8
0
 66
     1
 10
0.0
 20
0.0
 30
0.0
  0
VERTEX
  5
75
  8
0
 10
179.07959199999999
 20
118.98853
 30
0.0
 42
-0.076183
  0
VERTEX
  5
76
  8
0
 10
179.36137199999999
 20
120.82714900000001
 30
0.0
 42
-0.086293
  0
VERTEX
  5
77
  8
0
 10
180.115533
 20
122.288918
 30
0.0
 42
-0.105917
 70
     2
 50
52.845719999999993
  0
VERTEX
  5
78
  8
0
 10
181.404031
 20
123.39930099999999
 30
0.0
 42
-0.146851
  0
VERTEX
  5
79
  8
0
 10
182.61651599999999
 20
123.655984
 30
0.0
 42
-0.125716
  0
SEQEND
  5
7A
  8
0
  0
ARC
  5
7B
  8
0
 10
184.36039
 20
150.14813100000001
 30
0.0
 40
2.5
 50
90.0
 51
160.52877899999999
  0
ARC
  5
7C
  8
0
 10
184.36039
 20
236.61920499999999
 30
0.0
 40
2.5
 50
90.0
 51
160.52877899999999
  0
POLYLINE
  5
7D
  8
0
 66
     1
 10
0.0
 20
0.0
 30
0.0
  0
VERTEX
  5
7E
  8
0
 10
179.07959199999999
 20
205.45960299999999
 30
0.0
 42
-0.076183
  0
VERTEX
  5
7F
  8
0
 10
179.36137199999999
 20
207.29822200000001
 30
0.0
 42
-0.086293
  0
VERTEX
  5
80
  8
0
 10
180.115533
 20
208.75999100000001
 30
0.0
 42
-0.105917
 70
     2
 50
52.845719999999993
  0
VERTEX
  5
81
  8
0
 10
181.404031
 20
209.870374
 30
0.0
 42
-0.146851
  0
VERTEX
  5
82
  8
0
 10
182.61651599999999
 20
210.12705700000001
 30
0.0
 42
-0.125716
  0
SEQEND
  5
83
  8
0
  0
POLYLINE
  5
84
  8
0
 66
     1
 10
0.0
 20
0.0
 30
0.0
  0
VERTEX
  5
85
  8
0
 10
179.11971600000001
 20
201.648979
 30
0.0
 42
-0.018299
  0
VERTEX
  5
86
  8
0
 10
179.07959199999999
 20
205.45960299999999
 30
0.0
 42
-0.022358
  0
SEQEND
  5
87
  8
0
  0
ARC
  5
88
  8
0
 10
185.11651599999999
 20
212.62705700000001
 30
0.0
 40
2.5
 50
180.0
 51
270.0
  0
ARC
  5
89
  8
0
 10
185.11651599999999
 20
215.61135200000001
 30
0.0
 40
2.5
 50
90.0
 51
180.0
  0
POLYLINE
  5
8A
  8
0
 66
     1
 10
0.0
 20
0.0
 30
0.0
  0
VERTEX
  5
8B
  8
0
 10
179.11971600000001
 20
226.58942999999999
 30
0.0
 42
0.018299
 50
257.786587
  0
VERTEX
  5
8C
  8
0
 10
179.07959199999999
 20
222.778806
 30
0.0
 42
0.022358
  0
SEQEND
  5
8D
  8
0
  0
POLYLINE
  5
8E
  8
0
 66
     1
 10
0.0
 20
0.0
 30
0.0
  0
VERTEX
  5
8F
  8
0
 10
179.07959199999999
 20
222.778806
 30
0.0
 42
0.076183
  0
VERTEX
  5
90
  8
0
 10
179.36137199999999
 20
220.94018800000001
 30
0.0
 42
0.086293
  0
VERTEX
  5
91
  8
0
 10
180.115533
 20
219.478418
 30
0.0
 42
0.105917
 70
     2
 50
307.15428000000003
  0
VERTEX
  5
92
  8
0
 10
181.404031
 20
218.36803499999999
 30
0.0
 42
0.146851
 50
307.15428000000003
  0
VERTEX
  5
93
  8
0
 10
182.61651599999999
 20
218.11135200000001
 30
0.0
 42
0.125716
  0
SEQEND
  5
94
  8
0
  0
ARC
  5
95
  8
0
 10
189.5
 20
212.62705700000001
 30
0.0
 40
2.5
 50
270.0
 51
0.0
  0
ARC
  5
96
  8
0
 10
189.5
 20
215.61135200000001
 30
0.0
 40
2.5
 50
0.0
 51
90.0
  0
LINE
  5
97
  8
0
 10
185.11651599999999
 20
210.12705700000001
 30
0.0
 11
189.5
 21
210.12705700000001
 31
0.0
  0
LINE
  5
98
  8
0
 10
185.11651599999999
 20
218.11135200000001
 30
0.0
 11
189.5
 21
218.11135200000001
 31
0.0
  0
LINE
  5
99
  8
0
 10
182.61651599999999
 20
215.61135200000001
 30
0.0
 11
182.61651599999999
 21
212.62705700000001
 31
0.0
  0
LINE
  5
9A
  8
2
 10
200.0
 20
211.61920499999999
 30
0.0
 11
198.556624
 21
214.11920499999999
 31
0.0
  0
LINE
  5
9B
  8
2
 10
200.0
 20
216.61920499999999
 30
0.0
 11
198.556624
 21
214.11920499999999
 31
0.0
  0
LINE
  5
9C
  8
2
 10
200.0
 20
211.61920499999999
 30
0.0
 11
200.0
 21
216.61920499999999
 31
0.0
  0
LINE
  5
9D
  8
2
 10
210.0
 20
211.61920499999999
 30
0.0
 11
200.0
 21
211.61920499999999
 31
0.0
  0
LINE
  5
9E
  8
2
 10
210.0
 20
216.61920499999999
 30
0.0
 11
200.0
 21
216.61920499999999
 31
0.0
  0
LINE
  5
9F
  8
1
 10
215.0
 20
214.11920499999999
 30
0.0
 11
173.0
 21
214.11920499999999
 31
0.0
  0
LINE
  5
A0
  8
0
 10
210.0
 20
203.11920499999999
 30
0.0
 11
210.0
 21
225.11920499999999
 31
0.0
  0
LINE
  5
A1
  8
0
 10
210.0
 20
225.11920499999999
 30
0.0
 11
195.77812
 21
225.90930900000001
 31
0.0
  0
LINE
  5
A2
  8
0
 10
189.5
 20
239.11920499999999
 30
0.0
 11
184.36039
 21
239.11920499999999
 31
0.0
  0
ARC
  5
A3
  8
0
 10
196.0
 20
229.90315000000001
 30
0.0
 40
4.0
 50
180.0
 51
266.82017000000002
  0
ARC
  5
A4
  8
0
 10
189.5
 20
236.61920499999999
 30
0.0
 40
2.5
 50
360.0
 51
90.0
  0
ARC
  5
A5
  8
0
 10
189.5
 20
191.61920499999999
 30
0.0
 40
2.5
 50
270.0
 51
360.0
  0
LINE
  5
A6
  8
0
 10
189.5
 20
189.11920499999999
 30
0.0
 11
184.360389
 21
189.11920499999999
 31
0.0
  0
ARC
  5
A7
  8
0
 10
196.0
 20
198.33525900000001
 30
0.0
 40
4.0
 50
93.17983000000001
 51
180.0
  0
LINE
  5
A8
  8
0
 10
210.0
 20
203.11920499999999
 30
0.0
 11
195.77812
 21
202.32910000000001
 31
0.0
  0
ARC
  5
A9
  8
0
 10
184.36039
 20
191.61920499999999
 30
0.0
 40
2.5
 50
199.47455199999999
 51
269.999978
  0
LINE
  5
AA
  8
0
 10
192.0
 20
236.61920499999999
 30
0.0
 11
192.0
 21
191.61920499999999
 31
0.0
  0
ARC
  5
AB
  8
0
 10
248.0
 20
214.11920499999999
 30
0.0
 40
70.0
 50
160.52877899999999
 51
199.47134
  0
ARC
  5
AC
  8
0
 10
248.0
 20
41.177058000000002
 30
0.0
 40
70.0
 50
160.52866
 51
199.47122100000001
  0
LINE
  5
AD
  8
0
 10
192.0
 20
18.677057999999999
 30
0.0
 11
192.0
 21
63.677057999999988
 31
0.0
  0
ARC
  5
AE
  8
0
 10
184.36039
 20
63.677057999999988
 30
0.0
 40
2.5
 50
90.000022000000001
 51
160.52544800000001
  0
LINE
  5
AF
  8
0
 10
210.0
 20
52.177058000000002
 30
0.0
 11
195.77812
 21
52.967162999999992
 31
0.0
  0
ARC
  5
B0
  8
0
 10
196.0
 20
56.961004000000003
 30
0.0
 40
4.0
 50
180.0
 51
266.82017000000002
  0
LINE
  5
B1
  8
0
 10
189.5
 20
66.177058000000002
 30
0.0
 11
184.360389
 21
66.177058000000002
 31
0.0
  0
ARC
  5
B2
  8
0
 10
189.5
 20
63.677057999999988
 30
0.0
 40
2.5
 50
0.0
 51
90.0
  0
ARC
  5
B3
  8
0
 10
189.5
 20
18.677057999999999
 30
0.0
 40
2.5
 50
270.0
 51
0.0
  0
ARC
  5
B4
  8
0
 10
196.0
 20
25.393111999999999
 30
0.0
 40
4.0
 50
93.17983000000001
 51
180.0
  0
LINE
  5
B5
  8
0
 10
189.5
 20
16.177057999999999
 30
0.0
 11
184.36039
 21
16.177057999999999
 31
0.0
  0
LINE
  5
B6
  8
0
 10
210.0
 20
30.177057999999999
 30
0.0
 11
195.77812
 21
29.386953999999999
 31
0.0
  0
LINE
  5
B7
  8
0
 10
210.0
 20
52.177058000000002
 30
0.0
 11
210.0
 21
30.177057999999999
 31
0.0
  0
LINE
  5
B8
  8
1
 10
215.0
 20
41.177058000000002
 30
0.0
 11
173.0
 21
41.177058000000002
 31
0.0
  0
LINE
  5
B9
  8
2
 10
210.0
 20
38.677058000000002
 30
0.0
 11
200.0
 21
38.677058000000002
 31
0.0
  0
LINE
  5
BA
  8
2
 10
210.0
 20
43.677058000000002
 30
0.0
 11
200.0
 21
43.677058000000002
 31
0.0
  0
LINE
  5
BB
  8
2
 10
200.0
 20
43.677058000000002
 30
0.0
 11
200.0
 21
38.677058000000002
 31
0.0
  0
LINE
  5
BC
  8
2
 10
200.0
 20
38.677058000000002
 30
0.0
 11
198.556624
 21
41.177058000000002
 31
0.0
  0
LINE
  5
BD
  8
2
 10
200.0
 20
43.677058000000002
 30
0.0
 11
198.556624
 21
41.177058000000002
 31
0.0
  0
LINE
  5
BE
  8
0
 10
182.61651599999999
 20
39.684911
 30
0.0
 11
182.61651599999999
 21
42.669206000000003
 31
0.0
  0
LINE
  5
BF
  8
0
 10
185.11651599999999
 20
37.184911
 30
0.0
 11
189.5
 21
37.184911
 31
0.0
  0
LINE
  5
C0
  8
0
 10
185.11651599999999
 20
45.169206000000003
 30
0.0
 11
189.5
 21
45.169206000000003
 31
0.0
  0
ARC
  5
C1
  8
0
 10
189.5
 20
39.684911
 30
0.0
 40
2.5
 50
270.0
 51
360.0
  0
ARC
  5
C2
  8
0
 10
189.5
 20
42.669206000000003
 30
0.0
 40
2.5
 50
360.0
 51
90.0
  0
POLYLINE
  5
C3
  8
0
 66
     1
 10
0.0
 20
0.0
 30
0.0
  0
VERTEX
  5
C4
  8
0
 10
179.07959199999999
 20
32.517457
 30
0.0
 42
-0.076183
  0
VERTEX
  5
C5
  8
0
 10
179.36137199999999
 20
34.356074999999997
 30
0.0
 42
-0.086293
  0
VERTEX
  5
C6
  8
0
 10
180.115533
 20
35.817844999999998
 30
0.0
 42
-0.105917
 70
     2
 50
52.845719999999993
  0
VERTEX
  5
C7
  8
0
 10
181.404031
 20
36.928227999999997
 30
0.0
 42
-0.146851
  0
VERTEX
  5
C8
  8
0
 10
182.61651599999999
 20
37.184911
 30
0.0
 42
-0.125716
  0
SEQEND
  5
C9
  8
0
  0
POLYLINE
  5
CA
  8
0
 66
     1
 10
0.0
 20
0.0
 30
0.0
  0
VERTEX
  5
CB
  8
0
 10
179.11971600000001
 20
28.70683300000001
 30
0.0
 42
-0.018299
  0
VERTEX
  5
CC
  8
0
 10
179.07959199999999
 20
32.517457
 30
0.0
 42
-0.022358
  0
SEQEND
  5
CD
  8
0
  0
ARC
  5
CE
  8
0
 10
185.11651599999999
 20
39.684911
 30
0.0
 40
2.5
 50
180.0
 51
270.0
  0
ARC
  5
CF
  8
0
 10
185.11651599999999
 20
42.669206000000003
 30
0.0
 40
2.5
 50
90.0
 51
180.0
  0
POLYLINE
  5
D0
  8
0
 66
     1
 10
0.0
 20
0.0
 30
0.0
  0
VERTEX
  5
D1
  8
0
 10
179.11971600000001
 20
53.647283999999999
 30
0.0
 42
0.018299
  0
VERTEX
  5
D2
  8
0
 10
179.07959199999999
 20
49.836659999999988
 30
0.0
 42
0.022358
  0
SEQEND
  5
D3
  8
0
  0
POLYLINE
  5
D4
  8
0
 66
     1
 10
0.0
 20
0.0
 30
0.0
  0
VERTEX
  5
D5
  8
0
 10
179.07959199999999
 20
49.836659999999988
 30
0.0
 42
0.076183
  0
VERTEX
  5
D6
  8
0
 10
179.36137199999999
 20
47.998041000000001
 30
0.0
 42
0.086293
  0
VERTEX
  5
D7
  8
0
 10
180.115533
 20
46.53627199999999
 30
0.0
 42
0.105917
 70
     2
 50
307.15428000000003
  0
VERTEX
  5
D8
  8
0
 10
181.404031
 20
45.425888999999998
 30
0.0
 42
0.146851
  0
VERTEX
  5
D9
  8
0
 10
182.61651599999999
 20
45.169206000000003
 30
0.0
 42
0.125716
  0
SEQEND
  5
DA
  8
0
  0
ARC
  5
DB
  8
0
 10
184.36039
 20
18.677057999999999
 30
0.0
 40
2.5
 50
199.47122100000001
 51
270.0
  0
TEXT
  5
1D0
  8
0
 62
     3
 10
0.0
 20
0.0
 30
0.0
 40
10.0
  1
CK50C
  7
STANDARD1
  0
ENDSEC
  0
EOF
