  0
SECTION
  2
HEADER
  9
$ACADVER
  1
AC1009
  9
$INSBASE
 10
0.0
 20
0.0
 30
0.0
  9
$EXTMIN
 10
0.0
 20
-1.4802182810368341
 30
0.0
  9
$EXTMAX
 10
75.77185902553461
 20
64.944792093342613
 30
0.0
  9
$LIMMIN
 10
0.0
 20
0.0
  9
$LIMMAX
 10
12.0
 20
9.0
  9
$ORTHOMODE
 70
     0
  9
$REGENMODE
 70
     1
  9
$FILLMODE
 70
     1
  9
$QTEXTMODE
 70
     0
  9
$MIRRTEXT
 70
     0
  9
$DRAGMODE
 70
     2
  9
$LTSCALE
 40
5.0
  9
$OSMODE
 70
  3071
  9
$ATTMODE
 70
     1
  9
$TEXTSIZE
 40
0.2
  9
$TRACEWID
 40
0.05
  9
$TEXTSTYLE
  7
STANDARD
  9
$CLAYER
  8
0
  9
$CELTYPE
  6
BYLAYER
  9
$CECOLOR
 62
   256
  9
$DIMSCALE
 40
1.0
  9
$DIMASZ
 40
0.18
  9
$DIMEXO
 40
0.0625
  9
$DIMDLI
 40
0.38
  9
$DIMRND
 40
0.0
  9
$DIMDLE
 40
0.0
  9
$DIMEXE
 40
0.18
  9
$DIMTP
 40
0.0
  9
$DIMTM
 40
0.0
  9
$DIMTXT
 40
0.18
  9
$DIMCEN
 40
0.09
  9
$DIMTSZ
 40
0.0
  9
$DIMTOL
 70
     0
  9
$DIMLIM
 70
     0
  9
$DIMTIH
 70
     1
  9
$DIMTOH
 70
     1
  9
$DIMSE1
 70
     0
  9
$DIMSE2
 70
     0
  9
$DIMTAD
 70
     0
  9
$DIMZIN
 70
     0
  9
$DIMBLK
  1

  9
$DIMASO
 70
     1
  9
$DIMSHO
 70
     1
  9
$DIMPOST
  1

  9
$DIMAPOST
  1

  9
$DIMALT
 70
     0
  9
$DIMALTD
 70
     2
  9
$DIMALTF
 40
25.399999999999999
  9
$DIMLFAC
 40
1.0
  9
$DIMTOFL
 70
     0
  9
$DIMTVP
 40
0.0
  9
$DIMTIX
 70
     0
  9
$DIMSOXD
 70
     0
  9
$DIMSAH
 70
     0
  9
$DIMBLK1
  1

  9
$DIMBLK2
  1

  9
$DIMSTYLE
  2
STANDARD
  9
$DIMCLRD
 70
     0
  9
$DIMCLRE
 70
     0
  9
$DIMCLRT
 70
     0
  9
$DIMTFAC
 40
1.0
  9
$DIMGAP
 40
0.09
  9
$LUNITS
 70
     2
  9
$LUPREC
 70
     4
  9
$SKETCHINC
 40
0.1
  9
$FILLETRAD
 40
2.5
  9
$AUNITS
 70
     0
  9
$AUPREC
 70
     0
  9
$MENU
  1
.
  9
$ELEVATION
 40
0.0
  9
$PELEVATION
 40
0.0
  9
$THICKNESS
 40
0.0
  9
$LIMCHECK
 70
     0
  9
$BLIPMODE
 70
     0
  9
$CHAMFERA
 40
0.25
  9
$CHAMFERB
 40
0.25
  9
$SKPOLY
 70
     0
  9
$TDCREATE
 40
2453083.4120647679
  9
$TDUPDATE
 40
2456598.586819306
  9
$TDINDWG
 40
0.4199505093
  9
$TDUSRTIMER
 40
0.4199503935
  9
$USRTIMER
 70
     1
  9
$ANGBASE
 50
0.0
  9
$ANGDIR
 70
     0
  9
$PDMODE
 70
     0
  9
$PDSIZE
 40
0.0
  9
$PLINEWID
 40
0.0
  9
$COORDS
 70
     1
  9
$SPLFRAME
 70
     0
  9
$SPLINETYPE
 70
     6
  9
$SPLINESEGS
 70
     8
  9
$ATTDIA
 70
     0
  9
$ATTREQ
 70
     1
  9
$HANDLING
 70
     1
  9
$HANDSEED
  5
3841
  9
$SURFTAB1
 70
     6
  9
$SURFTAB2
 70
     6
  9
$SURFTYPE
 70
     6
  9
$SURFU
 70
     6
  9
$SURFV
 70
     6
  9
$UCSNAME
  2

  9
$UCSORG
 10
0.0
 20
0.0
 30
0.0
  9
$UCSXDIR
 10
1.0
 20
0.0
 30
0.0
  9
$UCSYDIR
 10
0.0
 20
1.0
 30
0.0
  9
$PUCSNAME
  2

  9
$PUCSORG
 10
0.0
 20
0.0
 30
0.0
  9
$PUCSXDIR
 10
1.0
 20
0.0
 30
0.0
  9
$PUCSYDIR
 10
0.0
 20
1.0
 30
0.0
  9
$USERI1
 70
     0
  9
$USERI2
 70
     1
  9
$USERI3
 70
     0
  9
$USERI4
 70
     0
  9
$USERI5
 70
     0
  9
$USERR1
 40
0.0
  9
$USERR2
 40
0.0
  9
$USERR3
 40
0.0
  9
$USERR4
 40
0.0
  9
$USERR5
 40
0.0
  9
$WORLDVIEW
 70
     1
  9
$SHADEDGE
 70
     3
  9
$SHADEDIF
 70
    70
  9
$TILEMODE
 70
     1
  9
$MAXACTVP
 70
    64
  9
$PLIMCHECK
 70
     0
  9
$PEXTMIN
 10
0.0
 20
0.0
 30
0.0
  9
$PEXTMAX
 10
0.0
 20
0.0
 30
0.0
  9
$PLIMMIN
 10
0.0
 20
0.0
  9
$PLIMMAX
 10
12.0
 20
9.0
  9
$UNITMODE
 70
     0
  9
$VISRETAIN
 70
     1
  9
$PLINEGEN
 70
     0
  9
$PSLTSCALE
 70
     1
  0
ENDSEC
  0
SECTION
  2
TABLES
  0
TABLE
  2
VPORT
 70
     1
  0
VPORT
  2
*ACTIVE
 70
     0
 10
0.0
 20
0.0
 11
1.0
 21
1.0
 12
39.726640719657723
 22
31.731639481783301
 13
0.0
 23
0.0
 14
0.5
 24
0.5
 15
0.5
 25
0.5
 16
0.0
 26
0.0
 36
1.0
 17
0.0
 27
0.0
 37
0.0
 40
67.026056610954143
 41
1.831871345029239
 42
50.0
 43
0.0
 44
0.0
 50
0.0
 51
0.0
 71
     0
 72
  1000
 73
     1
 74
     2
 75
     0
 76
     0
 77
     0
 78
     0
  0
ENDTAB
  0
TABLE
  2
LTYPE
 70
     3
  0
LTYPE
  2
CONTINUOUS
 70
     0
  3
Solid Line
 72
    65
 73
     0
 40
0.0
  0
LTYPE
  2
CENTER
 70
     0
  3
____ _ ____ _ ____ _ ____ _ ____ _ ____ _ ____
 72
    65
 73
     4
 40
2.0
 49
1.25
 49
-0.25
 49
0.25
 49
-0.25
  0
LTYPE
  2
PHANTOM2
 70
     0
  3
___ _ _ ___ _ _ ___ _ _ ___ _ _
 72
    65
 73
     6
 40
1.25
 49
0.625
 49
-0.125
 49
0.125
 49
-0.125
 49
0.125
 49
-0.125
  0
ENDTAB
  0
TABLE
  2
LAYER
 70
     3
  0
LAYER
  2
0
 70
     0
 62
     7
  6
CONTINUOUS
  0
LAYER
  2
1
 70
     0
 62
     1
  6
CENTER
  0
LAYER
  2
3
 70
     0
 62
     3
  6
CONTINUOUS
  0
ENDTAB
  0
TABLE
  2
STYLE
 70
     2
  0
STYLE
  2
STANDARD
 70
     0
 40
0.0
 41
1.0
 50
0.0
 71
     0
 42
0.2
  3
simplex.shx
  4
bigfont.shx
  0
STYLE
  2
STANDARD1
 70
     0
 40
0.0
 41
1.0
 50
0.0
 71
     0
 42
3.0
  3
txt
  4

  0
ENDTAB
  0
TABLE
  2
VIEW
 70
     0
  0
ENDTAB
  0
TABLE
  2
UCS
 70
     0
  0
ENDTAB
  0
TABLE
  2
APPID
 70
     4
  0
APPID
  2
ACAD
 70
     0
  0
APPID
  2
DCO15
 70
     0
  0
APPID
  2
ACAD_MLEADERVER
 70
     0
  0
APPID
  2
ACAD_NAV_VCDISPLAY
 70
     0
  0
ENDTAB
  0
TABLE
  2
DIMSTYLE
 70
     1
  0
DIMSTYLE
  2
STANDARD
 70
     0
  3

  4

  5

  6

  7

 40
1.0
 41
0.18
 42
0.0625
 43
0.38
 44
0.18
 45
0.0
 46
0.0
 47
0.0
 48
0.0
140
0.18
141
0.09
142
0.0
143
25.399999999999999
144
1.0
145
0.0
146
1.0
147
0.09
 71
     0
 72
     0
 73
     1
 74
     1
 75
     0
 76
     0
 77
     0
 78
     0
170
     0
171
     2
172
     0
173
     0
174
     0
175
     0
176
     0
177
     0
178
     0
  0
ENDTAB
  0
ENDSEC
  0
SECTION
  2
BLOCKS
  0
BLOCK
  8
0
  2
$MODEL_SPACE
 70
     0
 10
0.0
 20
0.0
 30
0.0
  3
$MODEL_SPACE
  1

  0
ENDBLK
  5
21
  8
0
  0
BLOCK
 67
     1
  8
0
  2
$PAPER_SPACE
 70
     0
 10
0.0
 20
0.0
 30
0.0
  3
$PAPER_SPACE
  1

  0
ENDBLK
  5
5B
 67
     1
  8
0
  0
BLOCK
  8
0
  2
STDGX5
 70
     0
 10
0.0
 20
0.0
 30
0.0
  3
STDGX5
  1

  0
ENDBLK
  5
16DA
  8
0
  0
ENDSEC
  0
SECTION
  2
ENTITIES
  0
INSERT
  5
1747
  8
0
  2
STDGX5
 10
142.93956481232809
 20
0.1619180124085346
 30
0.0
  0
LINE
  5
33D9
  8
0
 10
19.696859025534732
 20
54.164205056338908
 30
0.0
 11
19.696859025534732
 21
54.164205056338908
 31
0.0
  0
CIRCLE
  5
33DA
  8
0
 10
31.603109025534739
 20
49.744792093342589
 30
0.0
 40
12.699999999999999
  0
LINE
  5
33DB
  8
1
 10
31.603109025534739
 20
34.544792093342579
 30
0.0
 11
31.603109025534739
 21
64.944792093342613
 31
0.0
  0
LINE
  5
33DC
  8
1
 10
16.40310902553475
 20
49.744792093342589
 30
0.0
 11
46.80310902553483
 21
49.744792093342589
 31
0.0
  0
LINE
  5
33DD
  8
1
 10
75.77185902553461
 20
49.744792093342589
 30
0.0
 11
66.803109025534823
 21
49.744792093342589
 31
0.0
  0
LINE
  5
33DE
  8
0
 10
69.648246083308464
 20
37.069254151116333
 30
0.0
 11
70.341334025534849
 21
37.044792093342693
 31
0.0
  0
LINE
  5
33DF
  8
0
 10
69.648246083308464
 20
62.420330035568867
 30
0.0
 11
70.341334025534849
 21
62.4447920933425
 31
0.0
  0
LINE
  5
33E0
  8
0
 10
69.648246083308464
 20
37.069254151116297
 30
0.0
 11
70.41753402553482
 21
37.83854209334234
 31
0.0
  0
LINE
  5
33E1
  8
0
 10
69.303109025534823
 20
38.952967093342501
 30
0.0
 11
69.303109025534823
 21
39.105367093342501
 31
0.0
  0
LINE
  5
33E2
  8
0
 10
69.303109025534823
 20
60.3842170933425
 30
0.0
 11
69.303109025534823
 21
60.536617093342471
 31
0.0
  0
LINE
  5
33E3
  8
0
 10
69.30310902553461
 20
41.334217093342517
 30
0.0
 11
69.30310902553461
 21
41.486617093342481
 31
0.0
  0
LINE
  5
33E4
  8
0
 10
69.30310902553461
 20
58.002967093342512
 30
0.0
 11
69.30310902553461
 21
58.155367093342477
 31
0.0
  0
LINE
  5
33E5
  8
0
 10
69.30310902553461
 20
55.621717093342482
 30
0.0
 11
69.30310902553461
 21
55.774117093342483
 31
0.0
  0
LINE
  5
33E6
  8
0
 10
69.30310902553461
 20
43.715467093342511
 30
0.0
 11
69.30310902553461
 21
43.867867093342483
 31
0.0
  0
LINE
  5
33E7
  8
0
 10
69.30310902553461
 20
48.4779670933425
 30
0.0
 11
69.30310902553461
 21
48.630367093342471
 31
0.0
  0
LINE
  5
33E8
  8
0
 10
69.30310902553461
 20
53.392867093342488
 30
0.0
 11
70.41753402553482
 21
54.507292093342549
 31
0.0
  0
LINE
  5
33E9
  8
0
 10
69.30310902553461
 20
53.240467093342509
 30
0.0
 11
69.30310902553461
 21
53.392867093342488
 31
0.0
  0
LINE
  5
33EA
  8
0
 10
69.30310902553461
 20
46.096717093342498
 30
0.0
 11
69.30310902553461
 21
46.249117093342498
 31
0.0
  0
LINE
  5
33EB
  8
0
 10
69.30310902553461
 20
50.859217093342487
 30
0.0
 11
69.30310902553461
 21
51.011617093342487
 31
0.0
  0
LINE
  5
33EC
  8
0
 10
73.27185902553461
 20
61.68279209334267
 30
0.0
 11
73.271859025534837
 21
37.806792093342501
 31
0.0
  0
LINE
  5
33ED
  8
0
 10
69.30310902553461
 20
50.859217093342608
 30
0.0
 11
70.41753402553482
 21
49.744792093342511
 31
0.0
  0
LINE
  5
33EE
  8
0
 10
70.41753402553482
 20
49.744792093342511
 30
0.0
 11
69.30310902553461
 21
48.630367093342521
 31
0.0
  0
LINE
  5
33EF
  8
0
 10
69.303109025534823
 20
48.4779670933425
 30
0.0
 11
70.41753402553482
 21
47.363542093342481
 31
0.0
  0
LINE
  5
33F0
  8
0
 10
70.41753402553482
 20
47.363542093342481
 30
0.0
 11
69.30310902553461
 21
46.249117093342669
 31
0.0
  0
LINE
  5
33F1
  8
0
 10
69.30310902553461
 20
46.096717093341567
 30
0.0
 11
70.41753402553482
 21
44.982292093342487
 31
0.0
  0
LINE
  5
33F2
  8
0
 10
70.41753402553482
 20
44.982292093342487
 30
0.0
 11
69.30310902553461
 21
43.867867093342561
 31
0.0
  0
LINE
  5
33F3
  8
0
 10
69.303109025534823
 20
43.715467093342482
 30
0.0
 11
70.41753402553482
 21
42.6010420933425
 31
0.0
  0
LINE
  5
33F4
  8
0
 10
70.41753402553482
 20
42.6010420933425
 30
0.0
 11
69.30310902553461
 21
41.486617093342403
 31
0.0
  0
LINE
  5
33F5
  8
0
 10
69.30310902553461
 20
41.334217093342403
 30
0.0
 11
70.41753402553482
 21
40.21979209334247
 31
0.0
  0
LINE
  5
33F6
  8
0
 10
70.41753402553482
 20
40.21979209334247
 30
0.0
 11
69.303109025534823
 21
39.1053670933427
 31
0.0
  0
LINE
  5
33F7
  8
0
 10
69.303109025534823
 20
38.952967093342409
 30
0.0
 11
70.41753402553482
 21
37.83854209334234
 31
0.0
  0
LINE
  5
33F8
  8
0
 10
69.648246083308464
 20
62.420330035568867
 30
0.0
 11
70.417534025534366
 21
61.651042093342063
 31
0.0
  0
LINE
  5
33F9
  8
0
 10
70.417534025534138
 20
61.651042093342113
 30
0.0
 11
69.303109025534823
 21
60.536617093342578
 31
0.0
  0
LINE
  5
33FA
  8
0
 10
69.303109025534823
 20
60.384217093342301
 30
0.0
 11
70.41753402553482
 21
59.269792093342481
 31
0.0
  0
LINE
  5
33FB
  8
0
 10
70.41753402553482
 20
59.269792093342481
 30
0.0
 11
69.30310902553461
 21
58.155367093342562
 31
0.0
  0
LINE
  5
33FC
  8
0
 10
69.30310902553461
 20
58.002967093342527
 30
0.0
 11
70.41753402553482
 21
56.888542093342522
 31
0.0
  0
LINE
  5
33FD
  8
0
 10
70.41753402553482
 20
56.888542093342522
 30
0.0
 11
69.303109025534823
 21
55.774117093342539
 31
0.0
  0
LINE
  5
33FE
  8
0
 10
69.30310902553461
 20
55.621717093342539
 30
0.0
 11
70.41753402553482
 21
54.5072920933425
 31
0.0
  0
LINE
  5
33FF
  8
0
 10
69.30310902553461
 20
53.24046709334246
 30
0.0
 11
70.41753402553482
 21
52.126042093342512
 31
0.0
  0
LINE
  5
3400
  8
0
 10
70.41753402553482
 20
52.126042093342512
 30
0.0
 11
69.303109025534823
 21
51.011617093342437
 31
0.0
  0
LINE
  5
3401
  8
0
 10
72.763859025534799
 20
62.4447920933425
 30
0.0
 11
72.763859025534799
 21
37.044792093342501
 31
0.0
  0
LINE
  5
3402
  8
0
 10
73.271859025534837
 20
61.682792093342499
 30
0.0
 11
72.763859025534799
 21
62.19079209334248
 31
0.0
  0
LINE
  5
3403
  8
0
 10
72.763859025534799
 20
37.298792093342477
 30
0.0
 11
73.271859025534837
 21
37.806792093342501
 31
0.0
  0
LINE
  5
3404
  8
0
 10
72.763859025534799
 20
62.4447920933425
 30
0.0
 11
70.341334025534849
 21
62.4447920933425
 31
0.0
  0
LINE
  5
3405
  8
0
 10
70.341334025540533
 20
37.044792093342501
 30
0.0
 11
72.763859025534799
 21
37.044792093342501
 31
0.0
  0
LINE
  5
3406
  8
3
 10
43.509359025534792
 20
47.439742093342574
 30
0.0
 11
43.509359025534792
 21
49.668592093342589
 31
0.0
  0
LINE
  5
3407
  8
3
 10
43.509359025534792
 20
52.202242093342612
 30
0.0
 11
43.509359025534792
 21
54.164205056338908
 31
0.0
  0
LINE
  5
3408
  8
3
 10
38.74685902553469
 20
56.964742093342608
 30
0.0
 11
38.74685902553469
 21
59.193592093342602
 31
0.0
  0
LINE
  5
3409
  8
3
 10
41.128109025534712
 20
45.058492093342601
 30
0.0
 11
41.128109025534712
 21
47.287342093342602
 31
0.0
  0
LINE
  5
340A
  8
3
 10
41.128109025534712
 20
42.677242093342578
 30
0.0
 11
41.128109025534712
 21
44.906092093342608
 31
0.0
  0
LINE
  5
340B
  8
3
 10
43.509359025534792
 20
49.820992093342589
 30
0.0
 11
43.509359025534792
 21
52.049842093342619
 31
0.0
  0
LINE
  5
340C
  8
3
 10
41.128109025534712
 20
54.583492093342578
 30
0.0
 11
41.128109025534712
 21
56.8123420933426
 31
0.0
  0
LINE
  5
340D
  8
3
 10
36.365609025534781
 20
56.964742093342608
 30
0.0
 11
36.365609025534781
 21
59.193592093342602
 31
0.0
  0
LINE
  5
340E
  8
3
 10
36.365609025534781
 20
52.202242093342591
 30
0.0
 11
36.365609025534781
 21
54.431092093342592
 31
0.0
  0
LINE
  5
340F
  8
3
 10
36.365609025534781
 20
42.677242093342578
 30
0.0
 11
36.365609025534781
 21
44.906092093342608
 31
0.0
  0
LINE
  5
3410
  8
3
 10
36.365609025534781
 20
40.295992093342591
 30
0.0
 11
36.365609025534781
 21
42.524842093342578
 31
0.0
  0
LINE
  5
3411
  8
3
 10
41.128109025534712
 20
41.344531680712521
 30
0.0
 11
41.128109025534712
 21
42.524842093342578
 31
0.0
  0
LINE
  5
3412
  8
3
 10
36.365609025534781
 20
59.345992093342602
 30
0.0
 11
36.365609025534781
 21
61.518007191606962
 31
0.0
  0
LINE
  5
3413
  8
3
 10
33.984359025534758
 20
59.345992093342602
 30
0.0
 11
33.984359025534758
 21
61.574842093342603
 31
0.0
  0
LINE
  5
3414
  8
3
 10
33.984359025534758
 20
56.964742093342608
 30
0.0
 11
33.984359025534758
 21
59.193592093342602
 31
0.0
  0
LINE
  5
3415
  8
3
 10
33.984359025534758
 20
54.583492093342578
 30
0.0
 11
33.984359025534758
 21
56.8123420933426
 31
0.0
  0
LINE
  5
3416
  8
3
 10
36.365609025534781
 20
37.971576995078209
 30
0.0
 11
36.365609025534781
 21
40.14359209334259
 31
0.0
  0
LINE
  5
3417
  8
3
 10
41.128109025534712
 20
49.820992093342589
 30
0.0
 11
41.128109025534712
 21
52.049842093342619
 31
0.0
  0
LINE
  5
3418
  8
3
 10
36.365609025534781
 20
45.058492093342601
 30
0.0
 11
36.365609025534781
 21
47.287342093342602
 31
0.0
  0
LINE
  5
3419
  8
3
 10
33.984359025534758
 20
45.058492093342601
 30
0.0
 11
33.984359025534758
 21
47.287342093342602
 31
0.0
  0
LINE
  5
341A
  8
3
 10
33.984359025534758
 20
42.677242093342578
 30
0.0
 11
33.984359025534758
 21
44.906092093342608
 31
0.0
  0
LINE
  5
341B
  8
3
 10
33.984359025534758
 20
40.295992093342591
 30
0.0
 11
33.984359025534758
 21
42.524842093342578
 31
0.0
  0
LINE
  5
341C
  8
3
 10
33.984359025534758
 20
37.914742093342603
 30
0.0
 11
33.984359025534758
 21
40.14359209334259
 31
0.0
  0
LINE
  5
341D
  8
3
 10
43.509359025534792
 20
45.325379130346249
 30
0.0
 11
43.509359025534792
 21
47.287342093342602
 31
0.0
  0
LINE
  5
341E
  8
3
 10
41.128109025534712
 20
56.964742093342608
 30
0.0
 11
41.128109025534712
 21
58.145052505972643
 31
0.0
  0
LINE
  5
341F
  8
3
 10
36.365609025534781
 20
54.58349209334262
 30
0.0
 11
36.365609025534781
 21
56.8123420933426
 31
0.0
  0
LINE
  5
3420
  8
3
 10
36.325085611512549
 20
37.9552655073648
 30
0.0
 11
35.327384025534769
 21
38.952967093342608
 31
0.0
  0
LINE
  5
3421
  8
3
 10
35.164563512714238
 20
38.952967093342608
 30
0.0
 11
33.984359025534758
 21
37.914742093342603
 31
0.0
  0
LINE
  5
3422
  8
3
 10
33.984359025534758
 20
37.914742093342603
 30
0.0
 11
32.946134025534747
 21
38.952967093342608
 31
0.0
  0
LINE
  5
3423
  8
3
 10
36.022521988531111
 20
37.838542093342603
 30
0.0
 11
27.18369606253836
 21
37.838542093342603
 31
0.0
  0
LINE
  5
3424
  8
3
 10
28.183634025534701
 20
38.952967093342608
 30
0.0
 11
28.02081351271417
 21
38.952967093342608
 31
0.0
  0
LINE
  5
3425
  8
3
 10
36.365609025534781
 20
49.820992093342589
 30
0.0
 11
36.365609025534781
 21
52.049842093342619
 31
0.0
  0
LINE
  5
3426
  8
3
 10
30.564884025534731
 20
38.952967093342608
 30
0.0
 11
30.402063512714189
 21
38.952967093342608
 31
0.0
  0
LINE
  5
3427
  8
3
 10
32.783313512714223
 20
38.952967093342608
 30
0.0
 11
31.603109025534739
 21
37.914742093342603
 31
0.0
  0
LINE
  5
3428
  8
3
 10
38.74685902553469
 20
52.202242093342612
 30
0.0
 11
38.74685902553469
 21
54.431092093342592
 31
0.0
  0
LINE
  5
3429
  8
3
 10
28.183634025534701
 20
60.384217093342578
 30
0.0
 11
28.183634025534701
 21
60.536617093342578
 31
0.0
  0
LINE
  5
342A
  8
3
 10
29.221859025534709
 20
59.345992093342602
 30
0.0
 11
29.221859025534709
 21
61.574842093342603
 31
0.0
  0
LINE
  5
342B
  8
3
 10
32.946134025534747
 20
43.715467093342603
 30
0.0
 11
32.946134025534747
 21
43.867867093342589
 31
0.0
  0
LINE
  5
342C
  8
3
 10
32.783313512714223
 20
43.867867093342589
 30
0.0
 11
32.783313512714223
 21
43.715467093342603
 31
0.0
  0
LINE
  5
342D
  8
3
 10
29.221859025534709
 20
54.583492093342578
 30
0.0
 11
29.221859025534709
 21
56.8123420933426
 31
0.0
  0
LINE
  5
342E
  8
3
 10
32.783313512714223
 20
53.392867093342574
 30
0.0
 11
32.783313512714223
 21
53.240467093342602
 31
0.0
  0
LINE
  5
342F
  8
3
 10
30.402063512714189
 20
48.630367093342592
 30
0.0
 11
30.402063512714189
 21
48.477967093342578
 31
0.0
  0
LINE
  5
3430
  8
3
 10
28.183634025534701
 20
48.477967093342613
 30
0.0
 11
28.183634025534701
 21
48.630367093342592
 31
0.0
  0
LINE
  5
3431
  8
3
 10
29.221859025534709
 20
47.439742093342574
 30
0.0
 11
29.221859025534709
 21
49.668592093342589
 31
0.0
  0
LINE
  5
3432
  8
3
 10
35.327384025534769
 20
43.715467093342603
 30
0.0
 11
35.327384025534769
 21
43.867867093342589
 31
0.0
  0
LINE
  5
3433
  8
3
 10
35.164563512714238
 20
43.867867093342589
 30
0.0
 11
35.164563512714238
 21
43.715467093342603
 31
0.0
  0
LINE
  5
3434
  8
3
 10
30.402063512714189
 20
43.867867093342589
 30
0.0
 11
30.402063512714189
 21
43.715467093342603
 31
0.0
  0
LINE
  5
3435
  8
3
 10
30.402063512714189
 20
41.486617093342574
 30
0.0
 11
30.402063512714189
 21
41.33421709334263
 31
0.0
  0
LINE
  5
3436
  8
3
 10
35.327384025534769
 20
53.240467093342602
 30
0.0
 11
35.327384025534769
 21
53.392867093342574
 31
0.0
  0
LINE
  5
3437
  8
3
 10
35.327384025534769
 20
55.621717093342589
 30
0.0
 11
35.327384025534769
 21
55.774117093342603
 31
0.0
  0
LINE
  5
3438
  8
3
 10
35.164563512714238
 20
55.774117093342603
 30
0.0
 11
35.164563512714238
 21
55.621717093342589
 31
0.0
  0
LINE
  5
3439
  8
3
 10
35.327384025534769
 20
48.477967093342578
 30
0.0
 11
35.327384025534769
 21
48.630367093342592
 31
0.0
  0
LINE
  5
343A
  8
3
 10
36.365609025534781
 20
47.439742093342574
 30
0.0
 11
36.365609025534781
 21
49.668592093342589
 31
0.0
  0
LINE
  5
343B
  8
3
 10
26.84060902553469
 20
59.345992093342602
 30
0.0
 11
26.84060902553469
 21
61.518007191606962
 31
0.0
  0
LINE
  5
343C
  8
3
 10
28.02081351271417
 20
60.536617093342578
 30
0.0
 11
28.02081351271417
 21
60.384217093342578
 31
0.0
  0
LINE
  5
343D
  8
3
 10
37.708634025534678
 20
43.715467093342603
 30
0.0
 11
37.708634025534678
 21
43.867867093342589
 31
0.0
  0
LINE
  5
343E
  8
3
 10
37.545813512714261
 20
43.867867093342589
 30
0.0
 11
37.545813512714261
 21
43.715467093342603
 31
0.0
  0
LINE
  5
343F
  8
3
 10
26.84060902553469
 20
54.583492093342578
 30
0.0
 11
26.84060902553469
 21
56.8123420933426
 31
0.0
  0
LINE
  5
3440
  8
3
 10
28.02081351271417
 20
53.392867093342574
 30
0.0
 11
28.02081351271417
 21
53.240467093342602
 31
0.0
  0
LINE
  5
3441
  8
3
 10
37.708634025534678
 20
53.240467093342602
 30
0.0
 11
37.708634025534678
 21
53.392867093342574
 31
0.0
  0
LINE
  5
3442
  8
3
 10
37.545813512714261
 20
53.392867093342574
 30
0.0
 11
37.545813512714261
 21
53.240467093342602
 31
0.0
  0
LINE
  5
3443
  8
3
 10
26.84060902553469
 20
49.820992093342589
 30
0.0
 11
26.84060902553469
 21
52.049842093342619
 31
0.0
  0
LINE
  5
3444
  8
3
 10
28.02081351271417
 20
48.630367093342592
 30
0.0
 11
28.02081351271417
 21
48.477967093342578
 31
0.0
  0
LINE
  5
3445
  8
3
 10
40.089884025534701
 20
43.715467093342603
 30
0.0
 11
40.089884025534701
 21
43.867867093342589
 31
0.0
  0
LINE
  5
3446
  8
3
 10
40.089884025534701
 20
48.477967093342578
 30
0.0
 11
40.089884025534701
 21
48.630367093342592
 31
0.0
  0
LINE
  5
3447
  8
3
 10
39.92706351271417
 20
48.630367093342592
 30
0.0
 11
39.92706351271417
 21
48.477967093342578
 31
0.0
  0
LINE
  5
3448
  8
3
 10
28.02081351271417
 20
43.867867093342589
 30
0.0
 11
28.02081351271417
 21
43.715467093342603
 31
0.0
  0
LINE
  5
3449
  8
3
 10
39.92706351271417
 20
53.392867093342574
 30
0.0
 11
39.92706351271417
 21
53.240467093342602
 31
0.0
  0
LINE
  5
344A
  8
3
 10
28.02081351271417
 20
41.486617093342574
 30
0.0
 11
28.02081351271417
 21
41.33421709334263
 31
0.0
  0
LINE
  5
344B
  8
3
 10
28.02081351271417
 20
38.952967093342608
 30
0.0
 11
26.884940927426069
 21
37.953740834104138
 31
0.0
  0
LINE
  5
344C
  8
3
 10
28.02081351271417
 20
39.105367093342579
 30
0.0
 11
28.02081351271417
 21
38.952967093342608
 31
0.0
  0
LINE
  5
344D
  8
3
 10
42.471134025534717
 20
48.477967093342578
 30
0.0
 11
42.471134025534717
 21
48.630367093342592
 31
0.0
  0
LINE
  5
344E
  8
3
 10
25.639563512714151
 20
46.249117093342583
 30
0.0
 11
25.639563512714151
 21
46.096717093342619
 31
0.0
  0
LINE
  5
344F
  8
3
 10
25.802384025534678
 20
50.859217093342608
 30
0.0
 11
25.802384025534678
 21
51.011617093342579
 31
0.0
  0
LINE
  5
3450
  8
3
 10
25.639563512714151
 20
51.011617093342579
 30
0.0
 11
25.639563512714151
 21
50.859217093342608
 31
0.0
  0
LINE
  5
3451
  8
3
 10
25.802384025534678
 20
55.621717093342589
 30
0.0
 11
25.802384025534678
 21
55.774117093342603
 31
0.0
  0
LINE
  5
3452
  8
3
 10
25.639563512714151
 20
55.774117093342603
 30
0.0
 11
25.639563512714151
 21
55.621717093342589
 31
0.0
  0
LINE
  5
3453
  8
3
 10
40.089884025534701
 20
53.240467093342602
 30
0.0
 11
40.089884025534701
 21
53.392867093342574
 31
0.0
  0
LINE
  5
3454
  8
3
 10
41.128109025534712
 20
52.202242093342591
 30
0.0
 11
41.128109025534712
 21
54.431092093342592
 31
0.0
  0
LINE
  5
3455
  8
3
 10
22.078109025534761
 20
56.964742093342608
 30
0.0
 11
22.078109025534761
 21
58.145052505972671
 31
0.0
  0
LINE
  5
3456
  8
3
 10
41.128109025534712
 20
47.439742093342574
 30
0.0
 11
41.128109025534712
 21
49.668592093342589
 31
0.0
  0
LINE
  5
3457
  8
3
 10
42.308313512714193
 20
48.630367093342592
 30
0.0
 11
42.308313512714193
 21
48.477967093342578
 31
0.0
  0
LINE
  5
3458
  8
3
 10
23.258313512714238
 20
55.774117093342603
 30
0.0
 11
23.258313512714238
 21
55.621717093342589
 31
0.0
  0
LINE
  5
3459
  8
3
 10
22.078109025534761
 20
54.583492093342578
 30
0.0
 11
22.078109025534761
 21
56.8123420933426
 31
0.0
  0
LINE
  5
345A
  8
3
 10
28.02081351271417
 20
51.011617093342579
 30
0.0
 11
28.02081351271417
 21
50.859217093342608
 31
0.0
  0
LINE
  5
345B
  8
3
 10
23.258313512714238
 20
51.011617093342579
 30
0.0
 11
23.258313512714238
 21
50.859217093342608
 31
0.0
  0
LINE
  5
345C
  8
3
 10
28.183634025534701
 20
55.621717093342589
 30
0.0
 11
28.183634025534701
 21
55.774117093342603
 31
0.0
  0
LINE
  5
345D
  8
3
 10
28.02081351271417
 20
55.774117093342603
 30
0.0
 11
28.02081351271417
 21
55.621717093342589
 31
0.0
  0
LINE
  5
345E
  8
3
 10
30.402063512714189
 20
60.536617093342578
 30
0.0
 11
30.402063512714189
 21
60.384217093342578
 31
0.0
  0
LINE
  5
345F
  8
3
 10
23.258313512714238
 20
46.249117093342583
 30
0.0
 11
23.258313512714238
 21
46.096717093342619
 31
0.0
  0
LINE
  5
3460
  8
3
 10
30.402063512714189
 20
58.155367093342562
 30
0.0
 11
30.402063512714189
 21
58.002967093342612
 31
0.0
  0
LINE
  5
3461
  8
3
 10
30.402063512714189
 20
46.249117093342583
 30
0.0
 11
30.402063512714189
 21
46.096717093342619
 31
0.0
  0
LINE
  5
3462
  8
3
 10
38.74685902553469
 20
54.583492093342578
 30
0.0
 11
38.74685902553469
 21
56.8123420933426
 31
0.0
  0
LINE
  5
3463
  8
3
 10
22.078109025534761
 20
41.344531680712521
 30
0.0
 11
22.078109025534761
 21
42.524842093342578
 31
0.0
  0
LINE
  5
3464
  8
3
 10
19.696859025534732
 20
52.202242093342591
 30
0.0
 11
19.696859025534732
 21
54.164205056338943
 31
0.0
  0
LINE
  5
3465
  8
3
 10
38.74685902553469
 20
49.820992093342589
 30
0.0
 11
38.74685902553469
 21
52.049842093342619
 31
0.0
  0
LINE
  5
3466
  8
3
 10
19.696859025534732
 20
49.820992093342589
 30
0.0
 11
19.696859025534732
 21
52.049842093342619
 31
0.0
  0
LINE
  5
3467
  8
3
 10
38.74685902553469
 20
47.439742093342574
 30
0.0
 11
38.74685902553469
 21
49.668592093342589
 31
0.0
  0
LINE
  5
3468
  8
3
 10
19.696859025534732
 20
47.439742093342574
 30
0.0
 11
19.696859025534732
 21
49.668592093342589
 31
0.0
  0
LINE
  5
3469
  8
3
 10
38.74685902553469
 20
45.058492093342601
 30
0.0
 11
38.74685902553469
 21
47.287342093342602
 31
0.0
  0
LINE
  5
346A
  8
3
 10
38.74685902553469
 20
42.677242093342578
 30
0.0
 11
38.74685902553469
 21
44.906092093342608
 31
0.0
  0
LINE
  5
346B
  8
3
 10
39.92706351271417
 20
43.867867093342589
 30
0.0
 11
39.92706351271417
 21
43.715467093342603
 31
0.0
  0
LINE
  5
346C
  8
3
 10
20.877063512714219
 20
46.249117093342583
 30
0.0
 11
20.877063512714219
 21
46.096717093342619
 31
0.0
  0
LINE
  5
346D
  8
3
 10
19.696859025534732
 20
45.325379130346249
 30
0.0
 11
19.696859025534732
 21
47.287342093342602
 31
0.0
  0
LINE
  5
346E
  8
3
 10
38.74685902553469
 20
40.295992093342591
 30
0.0
 11
38.74685902553469
 21
42.524842093342578
 31
0.0
  0
LINE
  5
346F
  8
3
 10
28.183634025534701
 20
50.859217093342608
 30
0.0
 11
28.183634025534701
 21
51.011617093342579
 31
0.0
  0
LINE
  5
3470
  8
3
 10
29.221859025534709
 20
49.820992093342589
 30
0.0
 11
29.221859025534709
 21
52.049842093342619
 31
0.0
  0
LINE
  5
3471
  8
3
 10
26.84060902553469
 20
40.14359209334259
 30
0.0
 11
28.02081351271417
 21
39.105367093342579
 31
0.0
  0
LINE
  5
3472
  8
3
 10
28.183634025534701
 20
39.105367093342579
 30
0.0
 11
28.02081351271417
 21
39.105367093342579
 31
0.0
  0
LINE
  5
3473
  8
3
 10
30.564884025534731
 20
39.105367093342579
 30
0.0
 11
30.402063512714189
 21
39.105367093342579
 31
0.0
  0
LINE
  5
3474
  8
3
 10
31.603109025534739
 20
40.14359209334259
 30
0.0
 11
32.783313512714223
 21
39.105367093342579
 31
0.0
  0
LINE
  5
3475
  8
3
 10
32.946134025534747
 20
39.105367093342579
 30
0.0
 11
33.984359025534758
 21
40.14359209334259
 31
0.0
  0
LINE
  5
3476
  8
3
 10
33.984359025534758
 20
40.14359209334259
 30
0.0
 11
35.164563512714238
 21
39.105367093342579
 31
0.0
  0
LINE
  5
3477
  8
3
 10
35.327384025534769
 20
39.105367093342579
 30
0.0
 11
36.365609025534781
 21
40.14359209334259
 31
0.0
  0
LINE
  5
3478
  8
3
 10
40.621384323935068
 20
40.802716794942249
 30
0.0
 11
40.089884025534701
 21
41.33421709334263
 31
0.0
  0
LINE
  5
3479
  8
3
 10
39.92706351271417
 20
41.33421709334263
 30
0.0
 11
38.74685902553469
 21
40.295992093342591
 31
0.0
  0
LINE
  5
347A
  8
3
 10
38.74685902553469
 20
40.295992093342591
 30
0.0
 11
37.708634025534678
 21
41.33421709334263
 31
0.0
  0
LINE
  5
347B
  8
3
 10
37.545813512714261
 20
41.33421709334263
 30
0.0
 11
36.365609025534781
 21
40.295992093342591
 31
0.0
  0
LINE
  5
347C
  8
3
 10
36.365609025534781
 20
40.295992093342591
 30
0.0
 11
35.327384025534769
 21
41.33421709334263
 31
0.0
  0
LINE
  5
347D
  8
3
 10
35.164563512714238
 20
41.33421709334263
 30
0.0
 11
33.984359025534758
 21
40.295992093342591
 31
0.0
  0
LINE
  5
347E
  8
3
 10
33.984359025534758
 20
40.295992093342591
 30
0.0
 11
32.946134025534747
 21
41.33421709334263
 31
0.0
  0
LINE
  5
347F
  8
3
 10
32.783313512714223
 20
41.33421709334263
 30
0.0
 11
31.603109025534739
 21
40.295992093342591
 31
0.0
  0
LINE
  5
3480
  8
3
 10
30.564884025534731
 20
41.33421709334263
 30
0.0
 11
30.402063512714189
 21
41.33421709334263
 31
0.0
  0
LINE
  5
3481
  8
3
 10
30.402063512714189
 20
41.33421709334263
 30
0.0
 11
29.221859025534709
 21
40.295992093342591
 31
0.0
  0
LINE
  5
3482
  8
3
 10
28.183634025534701
 20
41.33421709334263
 30
0.0
 11
28.02081351271417
 21
41.33421709334263
 31
0.0
  0
LINE
  5
3483
  8
3
 10
28.02081351271417
 20
41.33421709334263
 30
0.0
 11
26.84060902553469
 21
40.295992093342591
 31
0.0
  0
LINE
  5
3484
  8
3
 10
25.639563512714151
 20
41.33421709334263
 30
0.0
 11
24.459359025534781
 21
40.295992093342591
 31
0.0
  0
LINE
  5
3485
  8
3
 10
23.258313512714238
 20
41.33421709334263
 30
0.0
 11
22.617180020395921
 21
40.770212442205462
 31
0.0
  0
LINE
  5
3486
  8
3
 10
40.003369438164754
 20
40.219792093342591
 30
0.0
 11
23.202848612904599
 21
40.219792093342591
 31
0.0
  0
LINE
  5
3487
  8
3
 10
23.421134025534769
 20
41.33421709334263
 30
0.0
 11
23.258313512714238
 21
41.33421709334263
 31
0.0
  0
LINE
  5
3488
  8
3
 10
23.258313512714238
 20
41.486617093342574
 30
0.0
 11
23.258313512714238
 21
41.33421709334263
 31
0.0
  0
LINE
  5
3489
  8
3
 10
40.089884025534701
 20
41.486617093342574
 30
0.0
 11
41.128109025534712
 21
42.524842093342578
 31
0.0
  0
LINE
  5
348A
  8
3
 10
22.078109025534761
 20
42.524842093342578
 30
0.0
 11
23.258313512714238
 21
41.486617093342574
 31
0.0
  0
LINE
  5
348B
  8
3
 10
23.421134025534769
 20
41.486617093342574
 30
0.0
 11
23.258313512714238
 21
41.486617093342574
 31
0.0
  0
LINE
  5
348C
  8
3
 10
24.459359025534781
 20
42.524842093342578
 30
0.0
 11
25.639563512714151
 21
41.486617093342574
 31
0.0
  0
LINE
  5
348D
  8
3
 10
26.84060902553469
 20
42.524842093342578
 30
0.0
 11
28.02081351271417
 21
41.486617093342574
 31
0.0
  0
LINE
  5
348E
  8
3
 10
28.183634025534701
 20
41.486617093342574
 30
0.0
 11
28.02081351271417
 21
41.486617093342574
 31
0.0
  0
LINE
  5
348F
  8
3
 10
29.221859025534709
 20
42.524842093342578
 30
0.0
 11
30.402063512714189
 21
41.486617093342574
 31
0.0
  0
LINE
  5
3490
  8
3
 10
30.564884025534731
 20
41.486617093342574
 30
0.0
 11
30.402063512714189
 21
41.486617093342574
 31
0.0
  0
LINE
  5
3491
  8
3
 10
31.603109025534739
 20
42.524842093342578
 30
0.0
 11
32.783313512714223
 21
41.486617093342574
 31
0.0
  0
LINE
  5
3492
  8
3
 10
32.946134025534747
 20
41.486617093342574
 30
0.0
 11
33.984359025534758
 21
42.524842093342578
 31
0.0
  0
LINE
  5
3493
  8
3
 10
33.984359025534758
 20
42.524842093342578
 30
0.0
 11
35.164563512714238
 21
41.486617093342574
 31
0.0
  0
LINE
  5
3494
  8
3
 10
35.327384025534769
 20
41.486617093342574
 30
0.0
 11
36.365609025534781
 21
42.524842093342578
 31
0.0
  0
LINE
  5
3495
  8
3
 10
36.365609025534781
 20
42.524842093342578
 30
0.0
 11
37.545813512714261
 21
41.486617093342574
 31
0.0
  0
LINE
  5
3496
  8
3
 10
37.708634025534678
 20
41.486617093342574
 30
0.0
 11
38.74685902553469
 21
42.524842093342578
 31
0.0
  0
LINE
  5
3497
  8
3
 10
38.74685902553469
 20
42.524842093342578
 30
0.0
 11
39.92706351271417
 21
41.486617093342574
 31
0.0
  0
LINE
  5
3498
  8
3
 10
41.128109025534712
 20
42.677242093342578
 30
0.0
 11
40.089884025534701
 21
43.715467093342603
 31
0.0
  0
LINE
  5
3499
  8
3
 10
40.089884025534701
 20
43.715467093342603
 30
0.0
 11
39.92706351271417
 21
43.715467093342603
 31
0.0
  0
LINE
  5
349A
  8
3
 10
39.92706351271417
 20
43.715467093342603
 30
0.0
 11
38.74685902553469
 21
42.677242093342578
 31
0.0
  0
LINE
  5
349B
  8
3
 10
38.74685902553469
 20
42.677242093342578
 30
0.0
 11
37.708634025534678
 21
43.715467093342603
 31
0.0
  0
LINE
  5
349C
  8
3
 10
37.708634025534678
 20
43.715467093342603
 30
0.0
 11
37.545813512714261
 21
43.715467093342603
 31
0.0
  0
LINE
  5
349D
  8
3
 10
37.545813512714261
 20
43.715467093342603
 30
0.0
 11
36.365609025534781
 21
42.677242093342578
 31
0.0
  0
LINE
  5
349E
  8
3
 10
36.365609025534781
 20
42.677242093342578
 30
0.0
 11
35.327384025534769
 21
43.715467093342603
 31
0.0
  0
LINE
  5
349F
  8
3
 10
35.327384025534769
 20
43.715467093342603
 30
0.0
 11
35.164563512714238
 21
43.715467093342603
 31
0.0
  0
LINE
  5
34A0
  8
3
 10
35.164563512714238
 20
43.715467093342603
 30
0.0
 11
33.984359025534758
 21
42.677242093342578
 31
0.0
  0
LINE
  5
34A1
  8
3
 10
33.984359025534758
 20
42.677242093342578
 30
0.0
 11
32.946134025534747
 21
43.715467093342603
 31
0.0
  0
LINE
  5
34A2
  8
3
 10
32.946134025534747
 20
43.715467093342603
 30
0.0
 11
32.783313512714223
 21
43.715467093342603
 31
0.0
  0
LINE
  5
34A3
  8
3
 10
32.783313512714223
 20
43.715467093342603
 30
0.0
 11
31.603109025534739
 21
42.677242093342578
 31
0.0
  0
LINE
  5
34A4
  8
3
 10
30.564884025534731
 20
43.715467093342603
 30
0.0
 11
30.402063512714189
 21
43.715467093342603
 31
0.0
  0
LINE
  5
34A5
  8
3
 10
30.402063512714189
 20
43.715467093342603
 30
0.0
 11
29.221859025534709
 21
42.677242093342578
 31
0.0
  0
LINE
  5
34A6
  8
3
 10
28.183634025534701
 20
43.715467093342603
 30
0.0
 11
28.02081351271417
 21
43.715467093342603
 31
0.0
  0
LINE
  5
34A7
  8
3
 10
28.02081351271417
 20
43.715467093342603
 30
0.0
 11
26.84060902553469
 21
42.677242093342578
 31
0.0
  0
LINE
  5
34A8
  8
3
 10
25.639563512714151
 20
43.715467093342603
 30
0.0
 11
24.459359025534781
 21
42.677242093342578
 31
0.0
  0
LINE
  5
34A9
  8
3
 10
23.258313512714238
 20
43.715467093342603
 30
0.0
 11
22.078109025534761
 21
42.677242093342578
 31
0.0
  0
LINE
  5
34AA
  8
3
 10
41.128109025534599
 20
42.601042093342578
 30
0.0
 11
22.078109025534818
 21
42.601042093342578
 31
0.0
  0
LINE
  5
34AB
  8
3
 10
22.078109025534761
 20
44.906092093342608
 30
0.0
 11
23.258313512714238
 21
43.867867093342589
 31
0.0
  0
LINE
  5
34AC
  8
3
 10
24.459359025534781
 20
44.906092093342608
 30
0.0
 11
25.639563512714151
 21
43.867867093342589
 31
0.0
  0
LINE
  5
34AD
  8
3
 10
26.84060902553469
 20
44.906092093342608
 30
0.0
 11
28.02081351271417
 21
43.867867093342589
 31
0.0
  0
LINE
  5
34AE
  8
3
 10
28.183634025534701
 20
43.867867093342589
 30
0.0
 11
28.02081351271417
 21
43.867867093342589
 31
0.0
  0
LINE
  5
34AF
  8
3
 10
29.221859025534709
 20
44.906092093342608
 30
0.0
 11
30.402063512714189
 21
43.867867093342589
 31
0.0
  0
LINE
  5
34B0
  8
3
 10
30.564884025534731
 20
43.867867093342589
 30
0.0
 11
30.402063512714189
 21
43.867867093342589
 31
0.0
  0
LINE
  5
34B1
  8
3
 10
31.603109025534739
 20
44.906092093342608
 30
0.0
 11
32.783313512714223
 21
43.867867093342589
 31
0.0
  0
LINE
  5
34B2
  8
3
 10
32.946134025534747
 20
43.867867093342589
 30
0.0
 11
32.783313512714223
 21
43.867867093342589
 31
0.0
  0
LINE
  5
34B3
  8
3
 10
32.946134025534747
 20
43.867867093342589
 30
0.0
 11
33.984359025534758
 21
44.906092093342608
 31
0.0
  0
LINE
  5
34B4
  8
3
 10
33.984359025534758
 20
44.906092093342608
 30
0.0
 11
35.164563512714238
 21
43.867867093342589
 31
0.0
  0
LINE
  5
34B5
  8
3
 10
35.327384025534769
 20
43.867867093342589
 30
0.0
 11
35.164563512714238
 21
43.867867093342589
 31
0.0
  0
LINE
  5
34B6
  8
3
 10
35.327384025534769
 20
43.867867093342589
 30
0.0
 11
36.365609025534781
 21
44.906092093342608
 31
0.0
  0
LINE
  5
34B7
  8
3
 10
36.365609025534781
 20
44.906092093342608
 30
0.0
 11
37.545813512714261
 21
43.867867093342589
 31
0.0
  0
LINE
  5
34B8
  8
3
 10
37.708634025534678
 20
43.867867093342589
 30
0.0
 11
37.545813512714261
 21
43.867867093342589
 31
0.0
  0
LINE
  5
34B9
  8
3
 10
37.708634025534678
 20
43.867867093342589
 30
0.0
 11
38.74685902553469
 21
44.906092093342608
 31
0.0
  0
LINE
  5
34BA
  8
3
 10
38.74685902553469
 20
44.906092093342608
 30
0.0
 11
39.92706351271417
 21
43.867867093342589
 31
0.0
  0
LINE
  5
34BB
  8
3
 10
40.089884025534701
 20
43.867867093342589
 30
0.0
 11
39.92706351271417
 21
43.867867093342589
 31
0.0
  0
LINE
  5
34BC
  8
3
 10
40.089884025534701
 20
43.867867093342589
 30
0.0
 11
41.128109025534712
 21
44.906092093342608
 31
0.0
  0
LINE
  5
34BD
  8
3
 10
43.435801368321933
 20
45.132049750555289
 30
0.0
 11
42.471134025534717
 21
46.096717093342619
 31
0.0
  0
LINE
  5
34BE
  8
3
 10
42.308313512714193
 20
46.096717093342619
 30
0.0
 11
41.128109025534712
 21
45.058492093342601
 31
0.0
  0
LINE
  5
34BF
  8
3
 10
41.128109025534712
 20
45.058492093342601
 30
0.0
 11
40.089884025534701
 21
46.096717093342619
 31
0.0
  0
LINE
  5
34C0
  8
3
 10
39.92706351271417
 20
46.096717093342619
 30
0.0
 11
38.74685902553469
 21
45.058492093342601
 31
0.0
  0
LINE
  5
34C1
  8
3
 10
38.74685902553469
 20
45.058492093342601
 30
0.0
 11
37.708634025534678
 21
46.096717093342619
 31
0.0
  0
LINE
  5
34C2
  8
3
 10
37.545813512714261
 20
46.096717093342619
 30
0.0
 11
36.365609025534781
 21
45.058492093342601
 31
0.0
  0
LINE
  5
34C3
  8
3
 10
36.365609025534781
 20
45.058492093342601
 30
0.0
 11
35.327384025534769
 21
46.096717093342619
 31
0.0
  0
LINE
  5
34C4
  8
3
 10
35.164563512714238
 20
46.096717093342619
 30
0.0
 11
33.984359025534758
 21
45.058492093342601
 31
0.0
  0
LINE
  5
34C5
  8
3
 10
33.984359025534758
 20
45.058492093342601
 30
0.0
 11
32.946134025534747
 21
46.096717093342619
 31
0.0
  0
LINE
  5
34C6
  8
3
 10
32.783313512714223
 20
46.096717093342619
 30
0.0
 11
31.603109025534739
 21
45.058492093342601
 31
0.0
  0
LINE
  5
34C7
  8
3
 10
30.564884025534731
 20
46.096717093342619
 30
0.0
 11
30.402063512714189
 21
46.096717093342619
 31
0.0
  0
LINE
  5
34C8
  8
3
 10
30.402063512714189
 20
46.096717093342619
 30
0.0
 11
29.221859025534709
 21
45.058492093342601
 31
0.0
  0
LINE
  5
34C9
  8
3
 10
28.02081351271417
 20
46.096717093342619
 30
0.0
 11
26.84060902553469
 21
45.058492093342601
 31
0.0
  0
LINE
  5
34CA
  8
3
 10
25.802384025534678
 20
46.096717093342619
 30
0.0
 11
25.639563512714151
 21
46.096717093342619
 31
0.0
  0
LINE
  5
34CB
  8
3
 10
25.639563512714151
 20
46.096717093342619
 30
0.0
 11
24.459359025534781
 21
45.058492093342601
 31
0.0
  0
LINE
  5
34CC
  8
3
 10
23.421134025534769
 20
46.096717093342619
 30
0.0
 11
23.258313512714238
 21
46.096717093342619
 31
0.0
  0
LINE
  5
34CD
  8
3
 10
23.258313512714238
 20
46.096717093342619
 30
0.0
 11
22.078109025534761
 21
45.058492093342601
 31
0.0
  0
LINE
  5
34CE
  8
3
 10
21.03988402553475
 20
46.096717093342619
 30
0.0
 11
20.877063512714219
 21
46.096717093342619
 31
0.0
  0
LINE
  5
34CF
  8
3
 10
20.877063512714219
 20
46.096717093342619
 30
0.0
 11
19.77298697977923
 21
45.125461797452402
 31
0.0
  0
LINE
  5
34D0
  8
3
 10
43.37632412379903
 20
44.982292093342572
 30
0.0
 11
19.829893927270369
 21
44.982292093342572
 31
0.0
  0
LINE
  5
34D1
  8
3
 10
35.164563512714238
 20
53.392867093342574
 30
0.0
 11
35.164563512714238
 21
53.240467093342602
 31
0.0
  0
LINE
  5
34D2
  8
3
 10
42.471134025534717
 20
46.249117093342583
 30
0.0
 11
43.509359025534792
 21
47.287342093342602
 31
0.0
  0
LINE
  5
34D3
  8
3
 10
19.696859025534732
 20
47.287342093342602
 30
0.0
 11
20.877063512714219
 21
46.249117093342583
 31
0.0
  0
LINE
  5
34D4
  8
3
 10
21.03988402553475
 20
46.249117093342583
 30
0.0
 11
20.877063512714219
 21
46.249117093342583
 31
0.0
  0
LINE
  5
34D5
  8
3
 10
22.078109025534761
 20
47.287342093342602
 30
0.0
 11
23.258313512714238
 21
46.249117093342583
 31
0.0
  0
LINE
  5
34D6
  8
3
 10
23.421134025534769
 20
46.249117093342583
 30
0.0
 11
23.258313512714238
 21
46.249117093342583
 31
0.0
  0
LINE
  5
34D7
  8
3
 10
24.459359025534781
 20
47.287342093342602
 30
0.0
 11
25.639563512714151
 21
46.249117093342583
 31
0.0
  0
LINE
  5
34D8
  8
3
 10
25.802384025534678
 20
46.249117093342583
 30
0.0
 11
25.639563512714151
 21
46.249117093342583
 31
0.0
  0
LINE
  5
34D9
  8
3
 10
26.84060902553469
 20
47.287342093342602
 30
0.0
 11
28.02081351271417
 21
46.249117093342583
 31
0.0
  0
LINE
  5
34DA
  8
3
 10
29.221859025534709
 20
47.287342093342602
 30
0.0
 11
30.402063512714189
 21
46.249117093342583
 31
0.0
  0
LINE
  5
34DB
  8
3
 10
30.564884025534731
 20
46.249117093342583
 30
0.0
 11
30.402063512714189
 21
46.249117093342583
 31
0.0
  0
LINE
  5
34DC
  8
3
 10
31.603109025534739
 20
47.287342093342602
 30
0.0
 11
32.783313512714223
 21
46.249117093342583
 31
0.0
  0
LINE
  5
34DD
  8
3
 10
32.946134025534747
 20
46.249117093342583
 30
0.0
 11
33.984359025534758
 21
47.287342093342602
 31
0.0
  0
LINE
  5
34DE
  8
3
 10
33.984359025534758
 20
47.287342093342602
 30
0.0
 11
35.164563512714238
 21
46.249117093342583
 31
0.0
  0
LINE
  5
34DF
  8
3
 10
35.327384025534769
 20
46.249117093342583
 30
0.0
 11
36.365609025534781
 21
47.287342093342602
 31
0.0
  0
LINE
  5
34E0
  8
3
 10
36.365609025534781
 20
47.287342093342602
 30
0.0
 11
37.545813512714261
 21
46.249117093342583
 31
0.0
  0
LINE
  5
34E1
  8
3
 10
37.708634025534678
 20
46.249117093342583
 30
0.0
 11
38.74685902553469
 21
47.287342093342602
 31
0.0
  0
LINE
  5
34E2
  8
3
 10
38.74685902553469
 20
47.287342093342602
 30
0.0
 11
39.92706351271417
 21
46.249117093342583
 31
0.0
  0
LINE
  5
34E3
  8
3
 10
40.089884025534701
 20
46.249117093342583
 30
0.0
 11
41.128109025534712
 21
47.287342093342602
 31
0.0
  0
LINE
  5
34E4
  8
3
 10
41.128109025534712
 20
47.287342093342602
 30
0.0
 11
42.308313512714193
 21
46.249117093342583
 31
0.0
  0
LINE
  5
34E5
  8
3
 10
43.509359025534792
 20
47.439742093342574
 30
0.0
 11
42.471134025534717
 21
48.477967093342578
 31
0.0
  0
LINE
  5
34E6
  8
3
 10
42.471134025534717
 20
48.477967093342578
 30
0.0
 11
42.308313512714193
 21
48.477967093342578
 31
0.0
  0
LINE
  5
34E7
  8
3
 10
42.308313512714193
 20
48.477967093342578
 30
0.0
 11
41.128109025534712
 21
47.439742093342574
 31
0.0
  0
LINE
  5
34E8
  8
3
 10
41.128109025534712
 20
47.439742093342574
 30
0.0
 11
40.089884025534701
 21
48.477967093342578
 31
0.0
  0
LINE
  5
34E9
  8
3
 10
40.089884025534701
 20
48.477967093342578
 30
0.0
 11
39.92706351271417
 21
48.477967093342578
 31
0.0
  0
LINE
  5
34EA
  8
3
 10
39.92706351271417
 20
48.477967093342578
 30
0.0
 11
38.74685902553469
 21
47.439742093342574
 31
0.0
  0
LINE
  5
34EB
  8
3
 10
38.74685902553469
 20
47.439742093342574
 30
0.0
 11
37.708634025534678
 21
48.477967093342578
 31
0.0
  0
LINE
  5
34EC
  8
3
 10
37.545813512714261
 20
48.477967093342578
 30
0.0
 11
36.365609025534781
 21
47.439742093342574
 31
0.0
  0
LINE
  5
34ED
  8
3
 10
36.365609025534781
 20
47.439742093342574
 30
0.0
 11
35.327384025534769
 21
48.477967093342578
 31
0.0
  0
LINE
  5
34EE
  8
3
 10
35.327384025534769
 20
48.477967093342578
 30
0.0
 11
35.164563512714238
 21
48.477967093342578
 31
0.0
  0
LINE
  5
34EF
  8
3
 10
33.984359025534758
 20
47.439742093342574
 30
0.0
 11
32.946134025534747
 21
48.477967093342578
 31
0.0
  0
LINE
  5
34F0
  8
3
 10
32.783313512714223
 20
48.477967093342578
 30
0.0
 11
31.603109025534739
 21
47.439742093342574
 31
0.0
  0
LINE
  5
34F1
  8
3
 10
30.564884025534731
 20
48.477967093342613
 30
0.0
 11
30.402063512714189
 21
48.477967093342578
 31
0.0
  0
LINE
  5
34F2
  8
3
 10
30.402063512714189
 20
48.477967093342578
 30
0.0
 11
29.221859025534709
 21
47.439742093342574
 31
0.0
  0
LINE
  5
34F3
  8
3
 10
29.221859025534709
 20
47.439742093342574
 30
0.0
 11
28.183634025534701
 21
48.477967093342613
 31
0.0
  0
LINE
  5
34F4
  8
3
 10
28.183634025534701
 20
48.477967093342613
 30
0.0
 11
28.02081351271417
 21
48.477967093342578
 31
0.0
  0
LINE
  5
34F5
  8
3
 10
28.02081351271417
 20
48.477967093342578
 30
0.0
 11
26.84060902553469
 21
47.439742093342574
 31
0.0
  0
LINE
  5
34F6
  8
3
 10
25.639563512714151
 20
48.477967093342578
 30
0.0
 11
24.459359025534781
 21
47.439742093342574
 31
0.0
  0
LINE
  5
34F7
  8
3
 10
23.258313512714238
 20
48.477967093342578
 30
0.0
 11
22.078109025534761
 21
47.439742093342574
 31
0.0
  0
LINE
  5
34F8
  8
3
 10
20.877063512714219
 20
48.477967093342578
 30
0.0
 11
19.696859025534732
 21
47.439742093342574
 31
0.0
  0
LINE
  5
34F9
  8
3
 10
43.509359025534792
 20
47.363542093342602
 30
0.0
 11
19.696859025534732
 21
47.363542093342602
 31
0.0
  0
LINE
  5
34FA
  8
3
 10
21.03988402553475
 20
48.477967093342613
 30
0.0
 11
20.877063512714219
 21
48.477967093342578
 31
0.0
  0
LINE
  5
34FB
  8
3
 10
20.877063512714219
 20
48.630367093342592
 30
0.0
 11
20.877063512714219
 21
48.477967093342578
 31
0.0
  0
LINE
  5
34FC
  8
3
 10
42.471134025534717
 20
48.630367093342592
 30
0.0
 11
43.509359025534792
 21
49.668592093342589
 31
0.0
  0
LINE
  5
34FD
  8
3
 10
19.696859025534732
 20
49.668592093342589
 30
0.0
 11
20.877063512714219
 21
48.630367093342592
 31
0.0
  0
LINE
  5
34FE
  8
3
 10
21.03988402553475
 20
48.630367093342592
 30
0.0
 11
20.877063512714219
 21
48.630367093342592
 31
0.0
  0
LINE
  5
34FF
  8
3
 10
22.078109025534761
 20
49.668592093342589
 30
0.0
 11
23.258313512714238
 21
48.630367093342592
 31
0.0
  0
LINE
  5
3500
  8
3
 10
24.459359025534781
 20
49.668592093342589
 30
0.0
 11
25.639563512714151
 21
48.630367093342592
 31
0.0
  0
LINE
  5
3501
  8
3
 10
26.84060902553469
 20
49.668592093342589
 30
0.0
 11
28.02081351271417
 21
48.630367093342592
 31
0.0
  0
LINE
  5
3502
  8
3
 10
28.183634025534701
 20
48.630367093342592
 30
0.0
 11
28.02081351271417
 21
48.630367093342592
 31
0.0
  0
LINE
  5
3503
  8
3
 10
28.183634025534701
 20
48.630367093342592
 30
0.0
 11
29.221859025534709
 21
49.668592093342589
 31
0.0
  0
LINE
  5
3504
  8
3
 10
29.221859025534709
 20
49.668592093342589
 30
0.0
 11
30.402063512714189
 21
48.630367093342592
 31
0.0
  0
LINE
  5
3505
  8
3
 10
30.564884025534731
 20
48.630367093342592
 30
0.0
 11
30.402063512714189
 21
48.630367093342592
 31
0.0
  0
LINE
  5
3506
  8
3
 10
31.603109025534739
 20
49.668592093342589
 30
0.0
 11
32.783313512714223
 21
48.630367093342592
 31
0.0
  0
LINE
  5
3507
  8
3
 10
32.946134025534747
 20
48.630367093342592
 30
0.0
 11
33.984359025534758
 21
49.668592093342589
 31
0.0
  0
LINE
  5
3508
  8
3
 10
35.327384025534769
 20
48.630367093342592
 30
0.0
 11
35.164563512714238
 21
48.630367093342592
 31
0.0
  0
LINE
  5
3509
  8
3
 10
35.327384025534769
 20
48.630367093342592
 30
0.0
 11
36.365609025534781
 21
49.668592093342589
 31
0.0
  0
LINE
  5
350A
  8
3
 10
36.365609025534781
 20
49.668592093342589
 30
0.0
 11
37.545813512714261
 21
48.630367093342592
 31
0.0
  0
LINE
  5
350B
  8
3
 10
37.708634025534678
 20
48.630367093342592
 30
0.0
 11
38.74685902553469
 21
49.668592093342589
 31
0.0
  0
LINE
  5
350C
  8
3
 10
38.74685902553469
 20
49.668592093342589
 30
0.0
 11
39.92706351271417
 21
48.630367093342592
 31
0.0
  0
LINE
  5
350D
  8
3
 10
40.089884025534701
 20
48.630367093342592
 30
0.0
 11
39.92706351271417
 21
48.630367093342592
 31
0.0
  0
LINE
  5
350E
  8
3
 10
40.089884025534701
 20
48.630367093342592
 30
0.0
 11
41.128109025534712
 21
49.668592093342589
 31
0.0
  0
LINE
  5
350F
  8
3
 10
41.128109025534712
 20
49.668592093342589
 30
0.0
 11
42.308313512714193
 21
48.630367093342592
 31
0.0
  0
LINE
  5
3510
  8
3
 10
42.471134025534717
 20
48.630367093342592
 30
0.0
 11
42.308313512714193
 21
48.630367093342592
 31
0.0
  0
LINE
  5
3511
  8
3
 10
43.509359025534792
 20
49.820992093342589
 30
0.0
 11
42.471134025534717
 21
50.859217093342608
 31
0.0
  0
LINE
  5
3512
  8
3
 10
42.308313512714193
 20
50.859217093342608
 30
0.0
 11
41.128109025534712
 21
49.820992093342589
 31
0.0
  0
LINE
  5
3513
  8
3
 10
41.128109025534712
 20
49.820992093342589
 30
0.0
 11
40.089884025534701
 21
50.859217093342608
 31
0.0
  0
LINE
  5
3514
  8
3
 10
39.92706351271417
 20
50.859217093342608
 30
0.0
 11
38.74685902553469
 21
49.820992093342589
 31
0.0
  0
LINE
  5
3515
  8
3
 10
38.74685902553469
 20
49.820992093342589
 30
0.0
 11
37.708634025534678
 21
50.859217093342608
 31
0.0
  0
LINE
  5
3516
  8
3
 10
37.545813512714261
 20
50.859217093342608
 30
0.0
 11
36.365609025534781
 21
49.820992093342589
 31
0.0
  0
LINE
  5
3517
  8
3
 10
36.365609025534781
 20
49.820992093342589
 30
0.0
 11
35.327384025534769
 21
50.859217093342608
 31
0.0
  0
LINE
  5
3518
  8
3
 10
32.783313512714223
 20
50.859217093342608
 30
0.0
 11
31.603109025534739
 21
49.820992093342589
 31
0.0
  0
LINE
  5
3519
  8
3
 10
30.402063512714189
 20
50.859217093342608
 30
0.0
 11
29.221859025534709
 21
49.820992093342589
 31
0.0
  0
LINE
  5
351A
  8
3
 10
29.221859025534709
 20
49.820992093342589
 30
0.0
 11
28.183634025534701
 21
50.859217093342608
 31
0.0
  0
LINE
  5
351B
  8
3
 10
28.183634025534701
 20
50.859217093342608
 30
0.0
 11
28.02081351271417
 21
50.859217093342608
 31
0.0
  0
LINE
  5
351C
  8
3
 10
28.02081351271417
 20
50.859217093342608
 30
0.0
 11
26.84060902553469
 21
49.820992093342589
 31
0.0
  0
LINE
  5
351D
  8
3
 10
26.84060902553469
 20
49.820992093342589
 30
0.0
 11
25.802384025534678
 21
50.859217093342608
 31
0.0
  0
LINE
  5
351E
  8
3
 10
25.802384025534678
 20
50.859217093342608
 30
0.0
 11
25.639563512714151
 21
50.859217093342608
 31
0.0
  0
LINE
  5
351F
  8
3
 10
25.639563512714151
 20
50.859217093342608
 30
0.0
 11
24.459359025534781
 21
49.820992093342589
 31
0.0
  0
LINE
  5
3520
  8
3
 10
23.421134025534769
 20
50.859217093342608
 30
0.0
 11
23.258313512714238
 21
50.859217093342608
 31
0.0
  0
LINE
  5
3521
  8
3
 10
23.258313512714238
 20
50.859217093342608
 30
0.0
 11
22.078109025534761
 21
49.820992093342589
 31
0.0
  0
LINE
  5
3522
  8
3
 10
20.877063512714219
 20
50.859217093342608
 30
0.0
 11
19.696859025534732
 21
49.820992093342589
 31
0.0
  0
LINE
  5
3523
  8
3
 10
44.30310902553483
 20
49.744792093342589
 30
0.0
 11
18.90310902553469
 21
49.744792093342589
 31
0.0
  0
LINE
  5
3524
  8
3
 10
21.03988402553475
 20
50.859217093342608
 30
0.0
 11
20.877063512714219
 21
50.859217093342608
 31
0.0
  0
LINE
  5
3525
  8
3
 10
20.877063512714219
 20
51.011617093342579
 30
0.0
 11
20.877063512714219
 21
50.859217093342608
 31
0.0
  0
LINE
  5
3526
  8
3
 10
42.471134025534717
 20
51.011617093342579
 30
0.0
 11
43.509359025534792
 21
52.049842093342619
 31
0.0
  0
LINE
  5
3527
  8
3
 10
19.696859025534732
 20
52.049842093342619
 30
0.0
 11
20.877063512714219
 21
51.011617093342579
 31
0.0
  0
LINE
  5
3528
  8
3
 10
21.03988402553475
 20
51.011617093342579
 30
0.0
 11
20.877063512714219
 21
51.011617093342579
 31
0.0
  0
LINE
  5
3529
  8
3
 10
22.078109025534761
 20
52.049842093342619
 30
0.0
 11
23.258313512714238
 21
51.011617093342579
 31
0.0
  0
LINE
  5
352A
  8
3
 10
23.421134025534769
 20
51.011617093342579
 30
0.0
 11
23.258313512714238
 21
51.011617093342579
 31
0.0
  0
LINE
  5
352B
  8
3
 10
24.459359025534781
 20
52.049842093342619
 30
0.0
 11
25.639563512714151
 21
51.011617093342579
 31
0.0
  0
LINE
  5
352C
  8
3
 10
25.802384025534678
 20
51.011617093342579
 30
0.0
 11
25.639563512714151
 21
51.011617093342579
 31
0.0
  0
LINE
  5
352D
  8
3
 10
25.802384025534678
 20
51.011617093342579
 30
0.0
 11
26.84060902553469
 21
52.049842093342619
 31
0.0
  0
LINE
  5
352E
  8
3
 10
26.84060902553469
 20
52.049842093342619
 30
0.0
 11
28.02081351271417
 21
51.011617093342579
 31
0.0
  0
LINE
  5
352F
  8
3
 10
28.183634025534701
 20
51.011617093342579
 30
0.0
 11
28.02081351271417
 21
51.011617093342579
 31
0.0
  0
LINE
  5
3530
  8
3
 10
28.183634025534701
 20
51.011617093342579
 30
0.0
 11
29.221859025534709
 21
52.049842093342619
 31
0.0
  0
LINE
  5
3531
  8
3
 10
29.221859025534709
 20
52.049842093342619
 30
0.0
 11
30.402063512714189
 21
51.011617093342579
 31
0.0
  0
LINE
  5
3532
  8
3
 10
31.603109025534739
 20
52.049842093342619
 30
0.0
 11
32.783313512714223
 21
51.011617093342579
 31
0.0
  0
LINE
  5
3533
  8
3
 10
35.327384025534769
 20
51.011617093342579
 30
0.0
 11
36.365609025534781
 21
52.049842093342619
 31
0.0
  0
LINE
  5
3534
  8
3
 10
36.365609025534781
 20
52.049842093342619
 30
0.0
 11
37.545813512714261
 21
51.011617093342579
 31
0.0
  0
LINE
  5
3535
  8
3
 10
37.708634025534678
 20
51.011617093342579
 30
0.0
 11
38.74685902553469
 21
52.049842093342619
 31
0.0
  0
LINE
  5
3536
  8
3
 10
38.74685902553469
 20
52.049842093342619
 30
0.0
 11
39.92706351271417
 21
51.011617093342579
 31
0.0
  0
LINE
  5
3537
  8
3
 10
40.089884025534701
 20
51.011617093342579
 30
0.0
 11
41.128109025534712
 21
52.049842093342619
 31
0.0
  0
LINE
  5
3538
  8
3
 10
41.128109025534712
 20
52.049842093342619
 30
0.0
 11
42.308313512714193
 21
51.011617093342579
 31
0.0
  0
LINE
  5
3539
  8
3
 10
43.509359025534792
 20
52.202242093342612
 30
0.0
 11
42.471134025534717
 21
53.240467093342602
 31
0.0
  0
LINE
  5
353A
  8
3
 10
42.308313512714193
 20
53.240467093342602
 30
0.0
 11
41.128109025534712
 21
52.202242093342591
 31
0.0
  0
LINE
  5
353B
  8
3
 10
41.128109025534712
 20
52.202242093342591
 30
0.0
 11
40.089884025534701
 21
53.240467093342602
 31
0.0
  0
LINE
  5
353C
  8
3
 10
40.089884025534701
 20
53.240467093342602
 30
0.0
 11
39.92706351271417
 21
53.240467093342602
 31
0.0
  0
LINE
  5
353D
  8
3
 10
39.92706351271417
 20
53.240467093342602
 30
0.0
 11
38.74685902553469
 21
52.202242093342612
 31
0.0
  0
LINE
  5
353E
  8
3
 10
38.74685902553469
 20
52.202242093342612
 30
0.0
 11
37.708634025534678
 21
53.240467093342602
 31
0.0
  0
LINE
  5
353F
  8
3
 10
37.708634025534678
 20
53.240467093342602
 30
0.0
 11
37.545813512714261
 21
53.240467093342602
 31
0.0
  0
LINE
  5
3540
  8
3
 10
37.545813512714261
 20
53.240467093342602
 30
0.0
 11
36.365609025534781
 21
52.202242093342591
 31
0.0
  0
LINE
  5
3541
  8
3
 10
36.365609025534781
 20
52.202242093342591
 30
0.0
 11
35.327384025534769
 21
53.240467093342602
 31
0.0
  0
LINE
  5
3542
  8
3
 10
35.327384025534769
 20
53.240467093342602
 30
0.0
 11
35.164563512714238
 21
53.240467093342602
 31
0.0
  0
LINE
  5
3543
  8
3
 10
35.164563512714238
 20
53.240467093342602
 30
0.0
 11
33.984359025534758
 21
52.202242093342612
 31
0.0
  0
LINE
  5
3544
  8
3
 10
32.946134025534747
 20
53.240467093342602
 30
0.0
 11
32.783313512714223
 21
53.240467093342602
 31
0.0
  0
LINE
  5
3545
  8
3
 10
32.783313512714223
 20
53.240467093342602
 30
0.0
 11
31.603109025534739
 21
52.202242093342591
 31
0.0
  0
LINE
  5
3546
  8
3
 10
30.402063512714189
 20
53.240467093342602
 30
0.0
 11
29.221859025534709
 21
52.202242093342591
 31
0.0
  0
LINE
  5
3547
  8
3
 10
28.183634025534701
 20
53.240467093342602
 30
0.0
 11
28.02081351271417
 21
53.240467093342602
 31
0.0
  0
LINE
  5
3548
  8
3
 10
28.02081351271417
 20
53.240467093342602
 30
0.0
 11
26.84060902553469
 21
52.202242093342591
 31
0.0
  0
LINE
  5
3549
  8
3
 10
25.639563512714151
 20
53.240467093342602
 30
0.0
 11
24.459359025534781
 21
52.202242093342591
 31
0.0
  0
LINE
  5
354A
  8
3
 10
23.258313512714238
 20
53.240467093342602
 30
0.0
 11
22.078109025534761
 21
52.202242093342591
 31
0.0
  0
LINE
  5
354B
  8
3
 10
20.877063512714219
 20
53.240467093342602
 30
0.0
 11
19.696859025534732
 21
52.202242093342591
 31
0.0
  0
LINE
  5
354C
  8
3
 10
43.509359025534792
 20
52.126042093342619
 30
0.0
 11
19.696859025534732
 21
52.126042093342591
 31
0.0
  0
LINE
  5
354D
  8
3
 10
21.03988402553475
 20
53.240467093342602
 30
0.0
 11
20.877063512714219
 21
53.240467093342602
 31
0.0
  0
LINE
  5
354E
  8
3
 10
20.877063512714219
 20
53.392867093342574
 30
0.0
 11
20.877063512714219
 21
53.240467093342602
 31
0.0
  0
LINE
  5
354F
  8
3
 10
42.471134025534717
 20
53.392867093342574
 30
0.0
 11
43.435801368321933
 21
54.357534436129889
 31
0.0
  0
LINE
  5
3550
  8
3
 10
19.77298697977923
 20
54.36412238923279
 30
0.0
 11
20.877063512714219
 21
53.392867093342574
 31
0.0
  0
LINE
  5
3551
  8
3
 10
21.03988402553475
 20
53.392867093342574
 30
0.0
 11
20.877063512714219
 21
53.392867093342574
 31
0.0
  0
LINE
  5
3552
  8
3
 10
22.078109025534761
 20
54.431092093342592
 30
0.0
 11
23.258313512714238
 21
53.392867093342574
 31
0.0
  0
LINE
  5
3553
  8
3
 10
24.459359025534781
 20
54.431092093342592
 30
0.0
 11
25.639563512714151
 21
53.392867093342574
 31
0.0
  0
LINE
  5
3554
  8
3
 10
26.84060902553469
 20
54.431092093342592
 30
0.0
 11
28.02081351271417
 21
53.392867093342574
 31
0.0
  0
LINE
  5
3555
  8
3
 10
28.183634025534701
 20
53.392867093342574
 30
0.0
 11
28.02081351271417
 21
53.392867093342574
 31
0.0
  0
LINE
  5
3556
  8
3
 10
29.221859025534709
 20
54.431092093342592
 30
0.0
 11
30.402063512714189
 21
53.392867093342574
 31
0.0
  0
LINE
  5
3557
  8
3
 10
31.603109025534739
 20
54.431092093342592
 30
0.0
 11
32.783313512714223
 21
53.392867093342574
 31
0.0
  0
LINE
  5
3558
  8
3
 10
32.946134025534747
 20
53.392867093342574
 30
0.0
 11
32.783313512714223
 21
53.392867093342574
 31
0.0
  0
LINE
  5
3559
  8
3
 10
33.984359025534758
 20
54.431092093342592
 30
0.0
 11
35.164563512714238
 21
53.392867093342574
 31
0.0
  0
LINE
  5
355A
  8
3
 10
35.327384025534769
 20
53.392867093342574
 30
0.0
 11
35.164563512714238
 21
53.392867093342574
 31
0.0
  0
LINE
  5
355B
  8
3
 10
35.327384025534769
 20
53.392867093342574
 30
0.0
 11
36.365609025534781
 21
54.431092093342592
 31
0.0
  0
LINE
  5
355C
  8
3
 10
36.365609025534781
 20
54.431092093342592
 30
0.0
 11
37.545813512714261
 21
53.392867093342574
 31
0.0
  0
LINE
  5
355D
  8
3
 10
37.708634025534678
 20
53.392867093342574
 30
0.0
 11
37.545813512714261
 21
53.392867093342574
 31
0.0
  0
LINE
  5
355E
  8
3
 10
37.708634025534678
 20
53.392867093342574
 30
0.0
 11
38.74685902553469
 21
54.431092093342592
 31
0.0
  0
LINE
  5
355F
  8
3
 10
38.74685902553469
 20
54.431092093342592
 30
0.0
 11
39.92706351271417
 21
53.392867093342574
 31
0.0
  0
LINE
  5
3560
  8
3
 10
40.089884025534701
 20
53.392867093342574
 30
0.0
 11
39.92706351271417
 21
53.392867093342574
 31
0.0
  0
LINE
  5
3561
  8
3
 10
40.089884025534701
 20
53.392867093342574
 30
0.0
 11
41.128109025534712
 21
54.431092093342592
 31
0.0
  0
LINE
  5
3562
  8
3
 10
41.128109025534712
 20
54.431092093342592
 30
0.0
 11
42.308313512714193
 21
53.392867093342574
 31
0.0
  0
LINE
  5
3563
  8
3
 10
41.128109025534712
 20
54.583492093342578
 30
0.0
 11
40.089884025534701
 21
55.621717093342589
 31
0.0
  0
LINE
  5
3564
  8
3
 10
39.92706351271417
 20
55.621717093342589
 30
0.0
 11
38.74685902553469
 21
54.583492093342578
 31
0.0
  0
LINE
  5
3565
  8
3
 10
38.74685902553469
 20
54.583492093342578
 30
0.0
 11
37.708634025534678
 21
55.621717093342589
 31
0.0
  0
LINE
  5
3566
  8
3
 10
37.545813512714261
 20
55.621717093342589
 30
0.0
 11
36.365609025534781
 21
54.58349209334262
 31
0.0
  0
LINE
  5
3567
  8
3
 10
36.365609025534781
 20
54.58349209334262
 30
0.0
 11
35.327384025534769
 21
55.621717093342589
 31
0.0
  0
LINE
  5
3568
  8
3
 10
35.327384025534769
 20
55.621717093342589
 30
0.0
 11
35.164563512714238
 21
55.621717093342589
 31
0.0
  0
LINE
  5
3569
  8
3
 10
35.164563512714238
 20
55.621717093342589
 30
0.0
 11
33.984359025534758
 21
54.583492093342578
 31
0.0
  0
LINE
  5
356A
  8
3
 10
33.984359025534758
 20
54.583492093342578
 30
0.0
 11
32.946134025534747
 21
55.621717093342589
 31
0.0
  0
LINE
  5
356B
  8
3
 10
32.783313512714223
 20
55.621717093342589
 30
0.0
 11
31.603109025534739
 21
54.583492093342578
 31
0.0
  0
LINE
  5
356C
  8
3
 10
30.402063512714189
 20
55.621717093342589
 30
0.0
 11
29.221859025534709
 21
54.583492093342578
 31
0.0
  0
LINE
  5
356D
  8
3
 10
29.221859025534709
 20
54.583492093342578
 30
0.0
 11
28.183634025534701
 21
55.621717093342589
 31
0.0
  0
LINE
  5
356E
  8
3
 10
28.183634025534701
 20
55.621717093342589
 30
0.0
 11
28.02081351271417
 21
55.621717093342589
 31
0.0
  0
LINE
  5
356F
  8
3
 10
28.02081351271417
 20
55.621717093342589
 30
0.0
 11
26.84060902553469
 21
54.583492093342578
 31
0.0
  0
LINE
  5
3570
  8
3
 10
26.84060902553469
 20
54.583492093342578
 30
0.0
 11
25.802384025534678
 21
55.621717093342589
 31
0.0
  0
LINE
  5
3571
  8
3
 10
25.802384025534678
 20
55.621717093342589
 30
0.0
 11
25.639563512714151
 21
55.621717093342589
 31
0.0
  0
LINE
  5
3572
  8
3
 10
25.639563512714151
 20
55.621717093342589
 30
0.0
 11
24.459359025534781
 21
54.583492093342578
 31
0.0
  0
LINE
  5
3573
  8
3
 10
23.421134025534769
 20
55.621717093342589
 30
0.0
 11
23.258313512714238
 21
55.621717093342589
 31
0.0
  0
LINE
  5
3574
  8
3
 10
23.258313512714238
 20
55.621717093342589
 30
0.0
 11
22.078109025534761
 21
54.583492093342578
 31
0.0
  0
LINE
  5
3575
  8
3
 10
43.37632412379903
 20
54.507292093342613
 30
0.0
 11
19.829893927270369
 21
54.507292093342613
 31
0.0
  0
LINE
  5
3576
  8
3
 10
22.078109025534761
 20
56.8123420933426
 30
0.0
 11
23.258313512714238
 21
55.774117093342603
 31
0.0
  0
LINE
  5
3577
  8
3
 10
23.421134025534769
 20
55.774117093342603
 30
0.0
 11
23.258313512714238
 21
55.774117093342603
 31
0.0
  0
LINE
  5
3578
  8
3
 10
24.459359025534781
 20
56.8123420933426
 30
0.0
 11
25.639563512714151
 21
55.774117093342603
 31
0.0
  0
LINE
  5
3579
  8
3
 10
25.802384025534678
 20
55.774117093342603
 30
0.0
 11
25.639563512714151
 21
55.774117093342603
 31
0.0
  0
LINE
  5
357A
  8
3
 10
25.802384025534678
 20
55.774117093342603
 30
0.0
 11
26.84060902553469
 21
56.8123420933426
 31
0.0
  0
LINE
  5
357B
  8
3
 10
26.84060902553469
 20
56.8123420933426
 30
0.0
 11
28.02081351271417
 21
55.774117093342603
 31
0.0
  0
LINE
  5
357C
  8
3
 10
28.183634025534701
 20
55.774117093342603
 30
0.0
 11
28.02081351271417
 21
55.774117093342603
 31
0.0
  0
LINE
  5
357D
  8
3
 10
28.183634025534701
 20
55.774117093342603
 30
0.0
 11
29.221859025534709
 21
56.8123420933426
 31
0.0
  0
LINE
  5
357E
  8
3
 10
29.221859025534709
 20
56.8123420933426
 30
0.0
 11
30.402063512714189
 21
55.774117093342603
 31
0.0
  0
LINE
  5
357F
  8
3
 10
31.603109025534739
 20
56.8123420933426
 30
0.0
 11
32.783313512714223
 21
55.774117093342603
 31
0.0
  0
LINE
  5
3580
  8
3
 10
32.946134025534747
 20
55.774117093342603
 30
0.0
 11
33.984359025534758
 21
56.8123420933426
 31
0.0
  0
LINE
  5
3581
  8
3
 10
33.984359025534758
 20
56.8123420933426
 30
0.0
 11
35.164563512714238
 21
55.774117093342603
 31
0.0
  0
LINE
  5
3582
  8
3
 10
35.327384025534769
 20
55.774117093342603
 30
0.0
 11
35.164563512714238
 21
55.774117093342603
 31
0.0
  0
LINE
  5
3583
  8
3
 10
35.327384025534769
 20
55.774117093342603
 30
0.0
 11
36.365609025534781
 21
56.8123420933426
 31
0.0
  0
LINE
  5
3584
  8
3
 10
36.365609025534781
 20
56.8123420933426
 30
0.0
 11
37.545813512714261
 21
55.774117093342603
 31
0.0
  0
LINE
  5
3585
  8
3
 10
37.708634025534678
 20
55.774117093342603
 30
0.0
 11
38.74685902553469
 21
56.8123420933426
 31
0.0
  0
LINE
  5
3586
  8
3
 10
38.74685902553469
 20
56.8123420933426
 30
0.0
 11
39.92706351271417
 21
55.774117093342603
 31
0.0
  0
LINE
  5
3587
  8
3
 10
40.089884025534701
 20
55.774117093342603
 30
0.0
 11
41.128109025534712
 21
56.8123420933426
 31
0.0
  0
LINE
  5
3588
  8
3
 10
41.128109025534712
 20
56.964742093342608
 30
0.0
 11
40.089884025534701
 21
58.002967093342612
 31
0.0
  0
LINE
  5
3589
  8
3
 10
39.92706351271417
 20
58.002967093342612
 30
0.0
 11
38.74685902553469
 21
56.964742093342608
 31
0.0
  0
LINE
  5
358A
  8
3
 10
38.74685902553469
 20
56.964742093342608
 30
0.0
 11
37.708634025534678
 21
58.002967093342612
 31
0.0
  0
LINE
  5
358B
  8
3
 10
37.545813512714261
 20
58.002967093342612
 30
0.0
 11
36.365609025534781
 21
56.964742093342608
 31
0.0
  0
LINE
  5
358C
  8
3
 10
36.365609025534781
 20
56.964742093342608
 30
0.0
 11
35.327384025534769
 21
58.002967093342612
 31
0.0
  0
LINE
  5
358D
  8
3
 10
35.164563512714238
 20
58.002967093342612
 30
0.0
 11
33.984359025534758
 21
56.964742093342608
 31
0.0
  0
LINE
  5
358E
  8
3
 10
33.984359025534758
 20
56.964742093342608
 30
0.0
 11
32.946134025534747
 21
58.002967093342612
 31
0.0
  0
LINE
  5
358F
  8
3
 10
30.564884025534731
 20
58.002967093342612
 30
0.0
 11
30.402063512714189
 21
58.002967093342612
 31
0.0
  0
LINE
  5
3590
  8
3
 10
30.402063512714189
 20
58.002967093342612
 30
0.0
 11
29.221859025534709
 21
56.964742093342608
 31
0.0
  0
LINE
  5
3591
  8
3
 10
28.02081351271417
 20
58.002967093342612
 30
0.0
 11
26.84060902553469
 21
56.964742093342608
 31
0.0
  0
LINE
  5
3592
  8
3
 10
25.802384025534678
 20
58.002967093342612
 30
0.0
 11
25.639563512714151
 21
58.002967093342612
 31
0.0
  0
LINE
  5
3593
  8
3
 10
23.258313512714238
 20
58.002967093342612
 30
0.0
 11
22.078109025534761
 21
56.964742093342608
 31
0.0
  0
LINE
  5
3594
  8
3
 10
41.128109025534833
 20
56.888542093342629
 30
0.0
 11
22.078109025534761
 21
56.888542093342629
 31
0.0
  0
LINE
  5
3595
  8
3
 10
23.421134025534769
 20
58.002967093342612
 30
0.0
 11
23.258313512714238
 21
58.002967093342612
 31
0.0
  0
LINE
  5
3596
  8
3
 10
23.258313512714238
 20
58.155367093342562
 30
0.0
 11
23.258313512714238
 21
58.002967093342612
 31
0.0
  0
LINE
  5
3597
  8
3
 10
40.089884025534701
 20
58.155367093342562
 30
0.0
 11
40.621384323935068
 21
58.686867391742929
 31
0.0
  0
LINE
  5
3598
  8
3
 10
22.617180020395921
 20
58.71937174447973
 30
0.0
 11
23.258313512714238
 21
58.155367093342562
 31
0.0
  0
LINE
  5
3599
  8
3
 10
23.421134025534769
 20
58.155367093342562
 30
0.0
 11
23.258313512714238
 21
58.155367093342562
 31
0.0
  0
LINE
  5
359A
  8
3
 10
25.802384025534678
 20
58.155367093342562
 30
0.0
 11
25.639563512714151
 21
58.155367093342562
 31
0.0
  0
LINE
  5
359B
  8
3
 10
26.84060902553469
 20
59.193592093342602
 30
0.0
 11
28.02081351271417
 21
58.155367093342562
 31
0.0
  0
LINE
  5
359C
  8
3
 10
29.221859025534709
 20
59.193592093342602
 30
0.0
 11
30.402063512714189
 21
58.155367093342562
 31
0.0
  0
LINE
  5
359D
  8
3
 10
30.564884025534731
 20
58.155367093342562
 30
0.0
 11
30.402063512714189
 21
58.155367093342562
 31
0.0
  0
LINE
  5
359E
  8
3
 10
32.946134025534747
 20
58.155367093342562
 30
0.0
 11
33.984359025534758
 21
59.193592093342602
 31
0.0
  0
LINE
  5
359F
  8
3
 10
33.984359025534758
 20
59.193592093342602
 30
0.0
 11
35.164563512714238
 21
58.155367093342562
 31
0.0
  0
LINE
  5
35A0
  8
3
 10
35.327384025534769
 20
58.155367093342562
 30
0.0
 11
36.365609025534781
 21
59.193592093342602
 31
0.0
  0
LINE
  5
35A1
  8
3
 10
36.365609025534781
 20
59.193592093342602
 30
0.0
 11
37.545813512714261
 21
58.155367093342562
 31
0.0
  0
LINE
  5
35A2
  8
3
 10
37.708634025534678
 20
58.155367093342562
 30
0.0
 11
38.74685902553469
 21
59.193592093342602
 31
0.0
  0
LINE
  5
35A3
  8
3
 10
38.74685902553469
 20
59.193592093342602
 30
0.0
 11
39.92706351271417
 21
58.155367093342562
 31
0.0
  0
LINE
  5
35A4
  8
3
 10
36.365609025534781
 20
59.345992093342602
 30
0.0
 11
35.327384025534769
 21
60.384217093342578
 31
0.0
  0
LINE
  5
35A5
  8
3
 10
35.164563512714238
 20
60.384217093342578
 30
0.0
 11
33.984359025534758
 21
59.345992093342602
 31
0.0
  0
LINE
  5
35A6
  8
3
 10
33.984359025534758
 20
59.345992093342602
 30
0.0
 11
32.946134025534747
 21
60.384217093342578
 31
0.0
  0
LINE
  5
35A7
  8
3
 10
32.783313512714223
 20
60.384217093342578
 30
0.0
 11
31.603109025534739
 21
59.345992093342602
 31
0.0
  0
LINE
  5
35A8
  8
3
 10
30.564884025534731
 20
60.384217093342578
 30
0.0
 11
30.402063512714189
 21
60.384217093342578
 31
0.0
  0
LINE
  5
35A9
  8
3
 10
30.402063512714189
 20
60.384217093342578
 30
0.0
 11
29.221859025534709
 21
59.345992093342602
 31
0.0
  0
LINE
  5
35AA
  8
3
 10
29.221859025534709
 20
59.345992093342602
 30
0.0
 11
28.183634025534701
 21
60.384217093342578
 31
0.0
  0
LINE
  5
35AB
  8
3
 10
28.183634025534701
 20
60.384217093342578
 30
0.0
 11
28.02081351271417
 21
60.384217093342578
 31
0.0
  0
LINE
  5
35AC
  8
3
 10
28.02081351271417
 20
60.384217093342578
 30
0.0
 11
26.84060902553469
 21
59.345992093342602
 31
0.0
  0
LINE
  5
35AD
  8
3
 10
40.003369438164754
 20
59.269792093342602
 30
0.0
 11
23.202848612904599
 21
59.269792093342602
 31
0.0
  0
LINE
  5
35AE
  8
3
 10
30.564884025534731
 20
55.621717093342589
 30
0.0
 11
30.402063512714189
 21
55.621717093342589
 31
0.0
  0
LINE
  5
35AF
  8
3
 10
30.564884025534731
 20
55.774117093342603
 30
0.0
 11
30.402063512714189
 21
55.774117093342603
 31
0.0
  0
LINE
  5
35B0
  8
3
 10
30.402063512714189
 20
55.774117093342603
 30
0.0
 11
30.402063512714189
 21
55.621717093342589
 31
0.0
  0
LINE
  5
35B1
  8
3
 10
32.946134025534747
 20
53.240467093342602
 30
0.0
 11
32.946134025534747
 21
53.392867093342574
 31
0.0
  0
LINE
  5
35B2
  8
3
 10
33.984359025534758
 20
52.202242093342612
 30
0.0
 11
32.946134025534747
 21
53.240467093342602
 31
0.0
  0
LINE
  5
35B3
  8
3
 10
33.984359025534758
 20
52.202242093342612
 30
0.0
 11
33.984359025534758
 21
54.431092093342592
 31
0.0
  0
LINE
  5
35B4
  8
3
 10
32.946134025534747
 20
53.392867093342574
 30
0.0
 11
33.984359025534758
 21
54.431092093342592
 31
0.0
  0
LINE
  5
35B5
  8
3
 10
35.164563512714238
 20
50.859217093342608
 30
0.0
 11
33.984359025534758
 21
49.820992093342589
 31
0.0
  0
LINE
  5
35B6
  8
3
 10
33.984359025534758
 20
52.049842093342619
 30
0.0
 11
35.164563512714238
 21
51.011617093342579
 31
0.0
  0
LINE
  5
35B7
  8
3
 10
33.984359025534758
 20
49.820992093342589
 30
0.0
 11
32.946134025534747
 21
50.859217093342608
 31
0.0
  0
LINE
  5
35B8
  8
3
 10
33.984359025534758
 20
49.820992093342589
 30
0.0
 11
33.984359025534758
 21
52.049842093342619
 31
0.0
  0
LINE
  5
35B9
  8
3
 10
32.946134025534747
 20
51.011617093342579
 30
0.0
 11
33.984359025534758
 21
52.049842093342619
 31
0.0
  0
LINE
  5
35BA
  8
3
 10
33.984359025534758
 20
47.439742093342574
 30
0.0
 11
33.984359025534758
 21
49.668592093342589
 31
0.0
  0
LINE
  5
35BB
  8
3
 10
35.164563512714238
 20
48.477967093342578
 30
0.0
 11
33.984359025534758
 21
47.439742093342574
 31
0.0
  0
LINE
  5
35BC
  8
3
 10
35.164563512714238
 20
48.630367093342592
 30
0.0
 11
35.164563512714238
 21
48.477967093342578
 31
0.0
  0
LINE
  5
35BD
  8
3
 10
33.984359025534758
 20
49.668592093342589
 30
0.0
 11
35.164563512714238
 21
48.630367093342592
 31
0.0
  0
LINE
  5
35BE
  8
3
 10
23.421134025534769
 20
43.715467093342603
 30
0.0
 11
23.258313512714238
 21
43.715467093342603
 31
0.0
  0
LINE
  5
35BF
  8
3
 10
23.421134025534769
 20
43.867867093342589
 30
0.0
 11
23.258313512714238
 21
43.867867093342589
 31
0.0
  0
LINE
  5
35C0
  8
3
 10
23.258313512714238
 20
43.867867093342589
 30
0.0
 11
23.258313512714238
 21
43.715467093342603
 31
0.0
  0
LINE
  5
35C1
  8
3
 10
32.946134025534747
 20
46.096717093342619
 30
0.0
 11
32.783313512714223
 21
46.096717093342619
 31
0.0
  0
LINE
  5
35C2
  8
3
 10
32.946134025534747
 20
46.096717093342619
 30
0.0
 11
32.946134025534747
 21
46.249117093342583
 31
0.0
  0
LINE
  5
35C3
  8
3
 10
32.946134025534747
 20
46.249117093342583
 30
0.0
 11
32.783313512714223
 21
46.249117093342583
 31
0.0
  0
LINE
  5
35C4
  8
3
 10
32.783313512714223
 20
46.249117093342583
 30
0.0
 11
32.783313512714223
 21
46.096717093342619
 31
0.0
  0
LINE
  5
35C5
  8
3
 10
23.421134025534769
 20
48.477967093342578
 30
0.0
 11
23.258313512714238
 21
48.477967093342578
 31
0.0
  0
LINE
  5
35C6
  8
3
 10
23.421134025534769
 20
48.630367093342592
 30
0.0
 11
23.258313512714238
 21
48.630367093342592
 31
0.0
  0
LINE
  5
35C7
  8
3
 10
23.258313512714238
 20
48.630367093342592
 30
0.0
 11
23.258313512714238
 21
48.477967093342578
 31
0.0
  0
LINE
  5
35C8
  8
3
 10
32.946134025534747
 20
50.859217093342608
 30
0.0
 11
32.783313512714223
 21
50.859217093342608
 31
0.0
  0
LINE
  5
35C9
  8
3
 10
32.946134025534747
 20
50.859217093342608
 30
0.0
 11
32.946134025534747
 21
51.011617093342579
 31
0.0
  0
LINE
  5
35CA
  8
3
 10
32.946134025534747
 20
51.011617093342579
 30
0.0
 11
32.783313512714223
 21
51.011617093342579
 31
0.0
  0
LINE
  5
35CB
  8
3
 10
32.783313512714223
 20
51.011617093342579
 30
0.0
 11
32.783313512714223
 21
50.859217093342608
 31
0.0
  0
LINE
  5
35CC
  8
3
 10
23.421134025534769
 20
53.240467093342602
 30
0.0
 11
23.258313512714238
 21
53.240467093342602
 31
0.0
  0
LINE
  5
35CD
  8
3
 10
23.421134025534769
 20
53.392867093342574
 30
0.0
 11
23.258313512714238
 21
53.392867093342574
 31
0.0
  0
LINE
  5
35CE
  8
3
 10
23.258313512714238
 20
53.392867093342574
 30
0.0
 11
23.258313512714238
 21
53.240467093342602
 31
0.0
  0
LINE
  5
35CF
  8
3
 10
32.946134025534747
 20
55.621717093342589
 30
0.0
 11
32.783313512714223
 21
55.621717093342589
 31
0.0
  0
LINE
  5
35D0
  8
3
 10
32.946134025534747
 20
55.621717093342589
 30
0.0
 11
32.946134025534747
 21
55.774117093342603
 31
0.0
  0
LINE
  5
35D1
  8
3
 10
32.946134025534747
 20
55.774117093342603
 30
0.0
 11
32.783313512714223
 21
55.774117093342603
 31
0.0
  0
LINE
  5
35D2
  8
3
 10
32.783313512714223
 20
55.774117093342603
 30
0.0
 11
32.783313512714223
 21
55.621717093342589
 31
0.0
  0
LINE
  5
35D3
  8
3
 10
25.802384025534678
 20
41.33421709334263
 30
0.0
 11
25.639563512714151
 21
41.33421709334263
 31
0.0
  0
LINE
  5
35D4
  8
3
 10
25.802384025534678
 20
41.486617093342574
 30
0.0
 11
25.639563512714151
 21
41.486617093342574
 31
0.0
  0
LINE
  5
35D5
  8
3
 10
25.639563512714151
 20
41.486617093342574
 30
0.0
 11
25.639563512714151
 21
41.33421709334263
 31
0.0
  0
LINE
  5
35D6
  8
3
 10
35.327384025534769
 20
60.384217093342578
 30
0.0
 11
35.164563512714238
 21
60.384217093342578
 31
0.0
  0
LINE
  5
35D7
  8
3
 10
35.327384025534769
 20
60.384217093342578
 30
0.0
 11
35.327384025534769
 21
60.536617093342578
 31
0.0
  0
LINE
  5
35D8
  8
3
 10
35.164563512714238
 20
60.536617093342578
 30
0.0
 11
35.164563512714238
 21
60.384217093342578
 31
0.0
  0
LINE
  5
35D9
  8
3
 10
25.802384025534678
 20
43.715467093342603
 30
0.0
 11
25.639563512714151
 21
43.715467093342603
 31
0.0
  0
LINE
  5
35DA
  8
3
 10
25.802384025534678
 20
43.867867093342589
 30
0.0
 11
25.639563512714151
 21
43.867867093342589
 31
0.0
  0
LINE
  5
35DB
  8
3
 10
25.639563512714151
 20
43.867867093342589
 30
0.0
 11
25.639563512714151
 21
43.715467093342603
 31
0.0
  0
LINE
  5
35DC
  8
3
 10
35.327384025534769
 20
58.002967093342612
 30
0.0
 11
35.164563512714238
 21
58.002967093342612
 31
0.0
  0
LINE
  5
35DD
  8
3
 10
35.327384025534769
 20
58.002967093342612
 30
0.0
 11
35.327384025534769
 21
58.155367093342562
 31
0.0
  0
LINE
  5
35DE
  8
3
 10
35.327384025534769
 20
58.155367093342562
 30
0.0
 11
35.164563512714238
 21
58.155367093342562
 31
0.0
  0
LINE
  5
35DF
  8
3
 10
35.164563512714238
 20
58.155367093342562
 30
0.0
 11
35.164563512714238
 21
58.002967093342612
 31
0.0
  0
LINE
  5
35E0
  8
3
 10
25.802384025534678
 20
48.477967093342578
 30
0.0
 11
25.639563512714151
 21
48.477967093342578
 31
0.0
  0
LINE
  5
35E1
  8
3
 10
25.802384025534678
 20
48.630367093342592
 30
0.0
 11
25.639563512714151
 21
48.630367093342592
 31
0.0
  0
LINE
  5
35E2
  8
3
 10
25.639563512714151
 20
48.630367093342592
 30
0.0
 11
25.639563512714151
 21
48.477967093342578
 31
0.0
  0
LINE
  5
35E3
  8
3
 10
35.327384025534769
 20
46.096717093342619
 30
0.0
 11
35.164563512714238
 21
46.096717093342619
 31
0.0
  0
LINE
  5
35E4
  8
3
 10
35.327384025534769
 20
46.096717093342619
 30
0.0
 11
35.327384025534769
 21
46.249117093342583
 31
0.0
  0
LINE
  5
35E5
  8
3
 10
35.327384025534769
 20
46.249117093342583
 30
0.0
 11
35.164563512714238
 21
46.249117093342583
 31
0.0
  0
LINE
  5
35E6
  8
3
 10
35.164563512714238
 20
46.249117093342583
 30
0.0
 11
35.164563512714238
 21
46.096717093342619
 31
0.0
  0
LINE
  5
35E7
  8
3
 10
25.802384025534678
 20
53.240467093342602
 30
0.0
 11
25.639563512714151
 21
53.240467093342602
 31
0.0
  0
LINE
  5
35E8
  8
3
 10
25.802384025534678
 20
53.392867093342574
 30
0.0
 11
25.639563512714151
 21
53.392867093342574
 31
0.0
  0
LINE
  5
35E9
  8
3
 10
25.639563512714151
 20
53.392867093342574
 30
0.0
 11
25.639563512714151
 21
53.240467093342602
 31
0.0
  0
LINE
  5
35EA
  8
3
 10
35.327384025534769
 20
50.859217093342608
 30
0.0
 11
35.164563512714238
 21
50.859217093342608
 31
0.0
  0
LINE
  5
35EB
  8
3
 10
35.327384025534769
 20
50.859217093342608
 30
0.0
 11
35.327384025534769
 21
51.011617093342579
 31
0.0
  0
LINE
  5
35EC
  8
3
 10
35.327384025534769
 20
51.011617093342579
 30
0.0
 11
35.164563512714238
 21
51.011617093342579
 31
0.0
  0
LINE
  5
35ED
  8
3
 10
35.164563512714238
 20
51.011617093342579
 30
0.0
 11
35.164563512714238
 21
50.859217093342608
 31
0.0
  0
LINE
  5
35EE
  8
3
 10
30.564884025534731
 20
53.240467093342602
 30
0.0
 11
30.402063512714189
 21
53.240467093342602
 31
0.0
  0
LINE
  5
35EF
  8
3
 10
30.564884025534731
 20
53.392867093342574
 30
0.0
 11
30.402063512714189
 21
53.392867093342574
 31
0.0
  0
LINE
  5
35F0
  8
3
 10
30.402063512714189
 20
53.392867093342574
 30
0.0
 11
30.402063512714189
 21
53.240467093342602
 31
0.0
  0
LINE
  5
35F1
  8
3
 10
40.089884025534701
 20
55.621717093342589
 30
0.0
 11
39.92706351271417
 21
55.621717093342589
 31
0.0
  0
LINE
  5
35F2
  8
3
 10
40.089884025534701
 20
55.621717093342589
 30
0.0
 11
40.089884025534701
 21
55.774117093342603
 31
0.0
  0
LINE
  5
35F3
  8
3
 10
40.089884025534701
 20
55.774117093342603
 30
0.0
 11
39.92706351271417
 21
55.774117093342603
 31
0.0
  0
LINE
  5
35F4
  8
3
 10
39.92706351271417
 20
55.774117093342603
 30
0.0
 11
39.92706351271417
 21
55.621717093342589
 31
0.0
  0
LINE
  5
35F5
  8
3
 10
32.946134025534747
 20
38.952967093342608
 30
0.0
 11
32.783313512714223
 21
38.952967093342608
 31
0.0
  0
LINE
  5
35F6
  8
3
 10
32.946134025534747
 20
38.952967093342608
 30
0.0
 11
32.946134025534747
 21
39.105367093342579
 31
0.0
  0
LINE
  5
35F7
  8
3
 10
32.946134025534747
 20
39.105367093342579
 30
0.0
 11
32.783313512714223
 21
39.105367093342579
 31
0.0
  0
LINE
  5
35F8
  8
3
 10
32.783313512714223
 20
39.105367093342579
 30
0.0
 11
32.783313512714223
 21
38.952967093342608
 31
0.0
  0
LINE
  5
35F9
  8
3
 10
28.183634025534701
 20
58.002967093342612
 30
0.0
 11
28.02081351271417
 21
58.002967093342612
 31
0.0
  0
LINE
  5
35FA
  8
3
 10
28.183634025534701
 20
58.155367093342562
 30
0.0
 11
28.02081351271417
 21
58.155367093342562
 31
0.0
  0
LINE
  5
35FB
  8
3
 10
28.02081351271417
 20
58.155367093342562
 30
0.0
 11
28.02081351271417
 21
58.002967093342612
 31
0.0
  0
LINE
  5
35FC
  8
3
 10
37.708634025534678
 20
41.33421709334263
 30
0.0
 11
37.545813512714261
 21
41.33421709334263
 31
0.0
  0
LINE
  5
35FD
  8
3
 10
37.708634025534678
 20
41.33421709334263
 30
0.0
 11
37.708634025534678
 21
41.486617093342574
 31
0.0
  0
LINE
  5
35FE
  8
3
 10
37.708634025534678
 20
41.486617093342574
 30
0.0
 11
37.545813512714261
 21
41.486617093342574
 31
0.0
  0
LINE
  5
35FF
  8
3
 10
37.545813512714261
 20
41.486617093342574
 30
0.0
 11
37.545813512714261
 21
41.33421709334263
 31
0.0
  0
LINE
  5
3600
  8
3
 10
28.183634025534701
 20
46.096717093342619
 30
0.0
 11
28.02081351271417
 21
46.096717093342619
 31
0.0
  0
LINE
  5
3601
  8
3
 10
28.183634025534701
 20
46.249117093342583
 30
0.0
 11
28.02081351271417
 21
46.249117093342583
 31
0.0
  0
LINE
  5
3602
  8
3
 10
28.02081351271417
 20
46.249117093342583
 30
0.0
 11
28.02081351271417
 21
46.096717093342619
 31
0.0
  0
LINE
  5
3603
  8
3
 10
32.946134025534747
 20
48.477967093342578
 30
0.0
 11
32.783313512714223
 21
48.477967093342578
 31
0.0
  0
LINE
  5
3604
  8
3
 10
32.946134025534747
 20
48.477967093342578
 30
0.0
 11
32.946134025534747
 21
48.630367093342592
 31
0.0
  0
LINE
  5
3605
  8
3
 10
32.946134025534747
 20
48.630367093342592
 30
0.0
 11
32.783313512714223
 21
48.630367093342592
 31
0.0
  0
LINE
  5
3606
  8
3
 10
32.783313512714223
 20
48.630367093342592
 30
0.0
 11
32.783313512714223
 21
48.477967093342578
 31
0.0
  0
LINE
  5
3607
  8
3
 10
37.708634025534678
 20
46.096717093342619
 30
0.0
 11
37.545813512714261
 21
46.096717093342619
 31
0.0
  0
LINE
  5
3608
  8
3
 10
37.708634025534678
 20
46.096717093342619
 30
0.0
 11
37.708634025534678
 21
46.249117093342583
 31
0.0
  0
LINE
  5
3609
  8
3
 10
37.708634025534678
 20
46.249117093342583
 30
0.0
 11
37.545813512714261
 21
46.249117093342583
 31
0.0
  0
LINE
  5
360A
  8
3
 10
37.545813512714261
 20
46.249117093342583
 30
0.0
 11
37.545813512714261
 21
46.096717093342619
 31
0.0
  0
LINE
  5
360B
  8
3
 10
37.708634025534678
 20
48.477967093342578
 30
0.0
 11
37.545813512714261
 21
48.477967093342578
 31
0.0
  0
LINE
  5
360C
  8
3
 10
37.708634025534678
 20
48.477967093342578
 30
0.0
 11
37.708634025534678
 21
48.630367093342592
 31
0.0
  0
LINE
  5
360D
  8
3
 10
37.708634025534678
 20
48.630367093342592
 30
0.0
 11
37.545813512714261
 21
48.630367093342592
 31
0.0
  0
LINE
  5
360E
  8
3
 10
37.545813512714261
 20
48.630367093342592
 30
0.0
 11
37.545813512714261
 21
48.477967093342578
 31
0.0
  0
LINE
  5
360F
  8
3
 10
37.708634025534678
 20
50.859217093342608
 30
0.0
 11
37.545813512714261
 21
50.859217093342608
 31
0.0
  0
LINE
  5
3610
  8
3
 10
37.708634025534678
 20
50.859217093342608
 30
0.0
 11
37.708634025534678
 21
51.011617093342579
 31
0.0
  0
LINE
  5
3611
  8
3
 10
37.708634025534678
 20
51.011617093342579
 30
0.0
 11
37.545813512714261
 21
51.011617093342579
 31
0.0
  0
LINE
  5
3612
  8
3
 10
37.545813512714261
 20
51.011617093342579
 30
0.0
 11
37.545813512714261
 21
50.859217093342608
 31
0.0
  0
LINE
  5
3613
  8
3
 10
35.327384025534769
 20
38.952967093342608
 30
0.0
 11
35.164563512714238
 21
38.952967093342608
 31
0.0
  0
LINE
  5
3614
  8
3
 10
35.327384025534769
 20
38.952967093342608
 30
0.0
 11
35.327384025534769
 21
39.105367093342579
 31
0.0
  0
LINE
  5
3615
  8
3
 10
35.327384025534769
 20
39.105367093342579
 30
0.0
 11
35.164563512714238
 21
39.105367093342579
 31
0.0
  0
LINE
  5
3616
  8
3
 10
35.164563512714238
 20
39.105367093342579
 30
0.0
 11
35.164563512714238
 21
38.952967093342608
 31
0.0
  0
LINE
  5
3617
  8
3
 10
37.708634025534678
 20
55.621717093342589
 30
0.0
 11
37.545813512714261
 21
55.621717093342589
 31
0.0
  0
LINE
  5
3618
  8
3
 10
37.708634025534678
 20
55.621717093342589
 30
0.0
 11
37.708634025534678
 21
55.774117093342603
 31
0.0
  0
LINE
  5
3619
  8
3
 10
37.708634025534678
 20
55.774117093342603
 30
0.0
 11
37.545813512714261
 21
55.774117093342603
 31
0.0
  0
LINE
  5
361A
  8
3
 10
37.545813512714261
 20
55.774117093342603
 30
0.0
 11
37.545813512714261
 21
55.621717093342589
 31
0.0
  0
LINE
  5
361B
  8
3
 10
40.089884025534701
 20
41.33421709334263
 30
0.0
 11
39.92706351271417
 21
41.33421709334263
 31
0.0
  0
LINE
  5
361C
  8
3
 10
40.089884025534701
 20
41.33421709334263
 30
0.0
 11
40.089884025534701
 21
41.486617093342574
 31
0.0
  0
LINE
  5
361D
  8
3
 10
40.089884025534701
 20
41.486617093342574
 30
0.0
 11
39.92706351271417
 21
41.486617093342574
 31
0.0
  0
LINE
  5
361E
  8
3
 10
39.92706351271417
 20
41.486617093342574
 30
0.0
 11
39.92706351271417
 21
41.33421709334263
 31
0.0
  0
LINE
  5
361F
  8
3
 10
40.089884025534701
 20
58.002967093342612
 30
0.0
 11
39.92706351271417
 21
58.002967093342612
 31
0.0
  0
LINE
  5
3620
  8
3
 10
40.089884025534701
 20
58.002967093342612
 30
0.0
 11
40.089884025534701
 21
58.155367093342562
 31
0.0
  0
LINE
  5
3621
  8
3
 10
40.089884025534701
 20
58.155367093342562
 30
0.0
 11
39.92706351271417
 21
58.155367093342562
 31
0.0
  0
LINE
  5
3622
  8
3
 10
39.92706351271417
 20
58.155367093342562
 30
0.0
 11
39.92706351271417
 21
58.002967093342612
 31
0.0
  0
LINE
  5
3623
  8
3
 10
42.471134025534717
 20
53.240467093342602
 30
0.0
 11
42.308313512714193
 21
53.240467093342602
 31
0.0
  0
LINE
  5
3624
  8
3
 10
42.471134025534717
 20
53.240467093342602
 30
0.0
 11
42.471134025534717
 21
53.392867093342574
 31
0.0
  0
LINE
  5
3625
  8
3
 10
42.471134025534717
 20
53.392867093342574
 30
0.0
 11
42.308313512714193
 21
53.392867093342574
 31
0.0
  0
LINE
  5
3626
  8
3
 10
42.308313512714193
 20
53.392867093342574
 30
0.0
 11
42.308313512714193
 21
53.240467093342602
 31
0.0
  0
LINE
  5
3627
  8
3
 10
40.089884025534701
 20
46.096717093342619
 30
0.0
 11
39.92706351271417
 21
46.096717093342619
 31
0.0
  0
LINE
  5
3628
  8
3
 10
40.089884025534701
 20
46.096717093342619
 30
0.0
 11
40.089884025534701
 21
46.249117093342583
 31
0.0
  0
LINE
  5
3629
  8
3
 10
40.089884025534701
 20
46.249117093342583
 30
0.0
 11
39.92706351271417
 21
46.249117093342583
 31
0.0
  0
LINE
  5
362A
  8
3
 10
39.92706351271417
 20
46.249117093342583
 30
0.0
 11
39.92706351271417
 21
46.096717093342619
 31
0.0
  0
LINE
  5
362B
  8
3
 10
32.946134025534747
 20
60.384217093342578
 30
0.0
 11
32.783313512714223
 21
60.384217093342578
 31
0.0
  0
LINE
  5
362C
  8
3
 10
32.946134025534747
 20
60.384217093342578
 30
0.0
 11
32.946134025534747
 21
60.536617093342578
 31
0.0
  0
LINE
  5
362D
  8
3
 10
32.783313512714223
 20
60.536617093342578
 30
0.0
 11
32.783313512714223
 21
60.384217093342578
 31
0.0
  0
LINE
  5
362E
  8
3
 10
30.564884025534731
 20
50.859217093342608
 30
0.0
 11
30.402063512714189
 21
50.859217093342608
 31
0.0
  0
LINE
  5
362F
  8
3
 10
30.564884025534731
 20
51.011617093342579
 30
0.0
 11
30.402063512714189
 21
51.011617093342579
 31
0.0
  0
LINE
  5
3630
  8
3
 10
30.402063512714189
 20
51.011617093342579
 30
0.0
 11
30.402063512714189
 21
50.859217093342608
 31
0.0
  0
LINE
  5
3631
  8
3
 10
32.946134025534747
 20
58.002967093342612
 30
0.0
 11
32.783313512714223
 21
58.002967093342612
 31
0.0
  0
LINE
  5
3632
  8
3
 10
32.946134025534747
 20
58.002967093342612
 30
0.0
 11
32.946134025534747
 21
58.155367093342562
 31
0.0
  0
LINE
  5
3633
  8
3
 10
32.946134025534747
 20
58.155367093342562
 30
0.0
 11
32.783313512714223
 21
58.155367093342562
 31
0.0
  0
LINE
  5
3634
  8
3
 10
42.471134025534717
 20
46.096717093342619
 30
0.0
 11
42.308313512714193
 21
46.096717093342619
 31
0.0
  0
LINE
  5
3635
  8
3
 10
42.471134025534717
 20
46.096717093342619
 30
0.0
 11
42.471134025534717
 21
46.249117093342583
 31
0.0
  0
LINE
  5
3636
  8
3
 10
42.471134025534717
 20
46.249117093342583
 30
0.0
 11
42.308313512714193
 21
46.249117093342583
 31
0.0
  0
LINE
  5
3637
  8
3
 10
42.308313512714193
 20
46.249117093342583
 30
0.0
 11
42.308313512714193
 21
46.096717093342619
 31
0.0
  0
LINE
  5
3638
  8
3
 10
37.708634025534678
 20
58.002967093342612
 30
0.0
 11
37.545813512714261
 21
58.002967093342612
 31
0.0
  0
LINE
  5
3639
  8
3
 10
37.708634025534678
 20
58.002967093342612
 30
0.0
 11
37.708634025534678
 21
58.155367093342562
 31
0.0
  0
LINE
  5
363A
  8
3
 10
37.708634025534678
 20
58.155367093342562
 30
0.0
 11
37.545813512714261
 21
58.155367093342562
 31
0.0
  0
LINE
  5
363B
  8
3
 10
37.545813512714261
 20
58.155367093342562
 30
0.0
 11
37.545813512714261
 21
58.002967093342612
 31
0.0
  0
LINE
  5
363C
  8
3
 10
32.946134025534747
 20
41.33421709334263
 30
0.0
 11
32.783313512714223
 21
41.33421709334263
 31
0.0
  0
LINE
  5
363D
  8
3
 10
32.946134025534747
 20
41.33421709334263
 30
0.0
 11
32.946134025534747
 21
41.486617093342574
 31
0.0
  0
LINE
  5
363E
  8
3
 10
32.946134025534747
 20
41.486617093342574
 30
0.0
 11
32.783313512714223
 21
41.486617093342574
 31
0.0
  0
LINE
  5
363F
  8
3
 10
32.783313512714223
 20
41.486617093342574
 30
0.0
 11
32.783313512714223
 21
41.33421709334263
 31
0.0
  0
LINE
  5
3640
  8
3
 10
40.089884025534701
 20
50.859217093342608
 30
0.0
 11
39.92706351271417
 21
50.859217093342608
 31
0.0
  0
LINE
  5
3641
  8
3
 10
40.089884025534701
 20
50.859217093342608
 30
0.0
 11
40.089884025534701
 21
51.011617093342579
 31
0.0
  0
LINE
  5
3642
  8
3
 10
40.089884025534701
 20
51.011617093342579
 30
0.0
 11
39.92706351271417
 21
51.011617093342579
 31
0.0
  0
LINE
  5
3643
  8
3
 10
39.92706351271417
 20
51.011617093342579
 30
0.0
 11
39.92706351271417
 21
50.859217093342608
 31
0.0
  0
LINE
  5
3644
  8
3
 10
42.471134025534717
 20
50.859217093342608
 30
0.0
 11
42.308313512714193
 21
50.859217093342608
 31
0.0
  0
LINE
  5
3645
  8
3
 10
42.471134025534717
 20
50.859217093342608
 30
0.0
 11
42.471134025534717
 21
51.011617093342579
 31
0.0
  0
LINE
  5
3646
  8
3
 10
42.471134025534717
 20
51.011617093342579
 30
0.0
 11
42.308313512714193
 21
51.011617093342579
 31
0.0
  0
LINE
  5
3647
  8
3
 10
42.308313512714193
 20
51.011617093342579
 30
0.0
 11
42.308313512714193
 21
50.859217093342608
 31
0.0
  0
LINE
  5
3648
  8
3
 10
35.327384025534769
 20
41.33421709334263
 30
0.0
 11
35.164563512714238
 21
41.33421709334263
 31
0.0
  0
LINE
  5
3649
  8
3
 10
35.327384025534769
 20
41.33421709334263
 30
0.0
 11
35.327384025534769
 21
41.486617093342574
 31
0.0
  0
LINE
  5
364A
  8
3
 10
35.327384025534769
 20
41.486617093342574
 30
0.0
 11
35.164563512714238
 21
41.486617093342574
 31
0.0
  0
LINE
  5
364B
  8
3
 10
35.164563512714238
 20
41.486617093342574
 30
0.0
 11
35.164563512714238
 21
41.33421709334263
 31
0.0
  0
LINE
  5
364C
  8
3
 10
23.421134025534769
 20
41.33421709334263
 30
0.0
 11
23.421134025534769
 21
41.486617093342574
 31
0.0
  0
LINE
  5
364D
  8
3
 10
24.459359025534781
 20
40.295992093342591
 30
0.0
 11
23.421134025534769
 21
41.33421709334263
 31
0.0
  0
LINE
  5
364E
  8
3
 10
24.459359025534781
 20
40.295992093342591
 30
0.0
 11
24.459359025534781
 21
42.524842093342578
 31
0.0
  0
LINE
  5
364F
  8
3
 10
23.421134025534769
 20
41.486617093342574
 30
0.0
 11
24.459359025534781
 21
42.524842093342578
 31
0.0
  0
LINE
  5
3650
  8
3
 10
30.564884025534731
 20
58.002967093342612
 30
0.0
 11
30.564884025534731
 21
58.155367093342562
 31
0.0
  0
LINE
  5
3651
  8
3
 10
31.603109025534739
 20
56.964742093342608
 30
0.0
 11
30.564884025534731
 21
58.002967093342612
 31
0.0
  0
LINE
  5
3652
  8
3
 10
30.564884025534731
 20
58.155367093342562
 30
0.0
 11
31.603109025534739
 21
59.193592093342602
 31
0.0
  0
LINE
  5
3653
  8
3
 10
30.564884025534731
 20
41.33421709334263
 30
0.0
 11
30.564884025534731
 21
41.486617093342574
 31
0.0
  0
LINE
  5
3654
  8
3
 10
31.603109025534739
 20
40.295992093342591
 30
0.0
 11
30.564884025534731
 21
41.33421709334263
 31
0.0
  0
LINE
  5
3655
  8
3
 10
31.603109025534739
 20
40.295992093342591
 30
0.0
 11
31.603109025534739
 21
42.524842093342578
 31
0.0
  0
LINE
  5
3656
  8
3
 10
30.564884025534731
 20
41.486617093342574
 30
0.0
 11
31.603109025534739
 21
42.524842093342578
 31
0.0
  0
LINE
  5
3657
  8
3
 10
23.421134025534769
 20
53.240467093342602
 30
0.0
 11
23.421134025534769
 21
53.392867093342574
 31
0.0
  0
LINE
  5
3658
  8
3
 10
24.459359025534781
 20
52.202242093342591
 30
0.0
 11
23.421134025534769
 21
53.240467093342602
 31
0.0
  0
LINE
  5
3659
  8
3
 10
24.459359025534781
 20
52.202242093342591
 30
0.0
 11
24.459359025534781
 21
54.431092093342592
 31
0.0
  0
LINE
  5
365A
  8
3
 10
23.421134025534769
 20
53.392867093342574
 30
0.0
 11
24.459359025534781
 21
54.431092093342592
 31
0.0
  0
LINE
  5
365B
  8
3
 10
31.603109025534739
 20
37.914742093342603
 30
0.0
 11
31.603109025534739
 21
40.14359209334259
 31
0.0
  0
LINE
  5
365C
  8
3
 10
30.564884025534731
 20
39.105367093342579
 30
0.0
 11
31.603109025534739
 21
40.14359209334259
 31
0.0
  0
LINE
  5
365D
  8
3
 10
30.564884025534731
 20
38.952967093342608
 30
0.0
 11
30.564884025534731
 21
39.105367093342579
 31
0.0
  0
LINE
  5
365E
  8
3
 10
31.603109025534739
 20
37.914742093342603
 30
0.0
 11
30.564884025534731
 21
38.952967093342608
 31
0.0
  0
LINE
  5
365F
  8
3
 10
30.564884025534731
 20
50.859217093342608
 30
0.0
 11
30.564884025534731
 21
51.011617093342579
 31
0.0
  0
LINE
  5
3660
  8
3
 10
31.603109025534739
 20
49.820992093342589
 30
0.0
 11
30.564884025534731
 21
50.859217093342608
 31
0.0
  0
LINE
  5
3661
  8
3
 10
31.603109025534739
 20
49.820992093342589
 30
0.0
 11
31.603109025534739
 21
52.049842093342619
 31
0.0
  0
LINE
  5
3662
  8
3
 10
30.564884025534731
 20
51.011617093342579
 30
0.0
 11
31.603109025534739
 21
52.049842093342619
 31
0.0
  0
LINE
  5
3663
  8
3
 10
30.564884025534731
 20
46.096717093342619
 30
0.0
 11
30.564884025534731
 21
46.249117093342583
 31
0.0
  0
LINE
  5
3664
  8
3
 10
31.603109025534739
 20
45.058492093342601
 30
0.0
 11
30.564884025534731
 21
46.096717093342619
 31
0.0
  0
LINE
  5
3665
  8
3
 10
31.603109025534739
 20
45.058492093342601
 30
0.0
 11
31.603109025534739
 21
47.287342093342602
 31
0.0
  0
LINE
  5
3666
  8
3
 10
30.564884025534731
 20
46.249117093342583
 30
0.0
 11
31.603109025534739
 21
47.287342093342602
 31
0.0
  0
LINE
  5
3667
  8
3
 10
30.564884025534731
 20
60.384217093342578
 30
0.0
 11
30.564884025534731
 21
60.536617093342578
 31
0.0
  0
LINE
  5
3668
  8
3
 10
31.603109025534739
 20
59.345992093342602
 30
0.0
 11
30.564884025534731
 21
60.384217093342578
 31
0.0
  0
LINE
  5
3669
  8
3
 10
31.603109025534739
 20
59.345992093342602
 30
0.0
 11
31.603109025534739
 21
61.574842093342603
 31
0.0
  0
LINE
  5
366A
  8
3
 10
28.183634025534701
 20
46.096717093342619
 30
0.0
 11
28.183634025534701
 21
46.249117093342583
 31
0.0
  0
LINE
  5
366B
  8
3
 10
29.221859025534709
 20
45.058492093342601
 30
0.0
 11
28.183634025534701
 21
46.096717093342619
 31
0.0
  0
LINE
  5
366C
  8
3
 10
29.221859025534709
 20
45.058492093342601
 30
0.0
 11
29.221859025534709
 21
47.287342093342602
 31
0.0
  0
LINE
  5
366D
  8
3
 10
28.183634025534701
 20
46.249117093342583
 30
0.0
 11
29.221859025534709
 21
47.287342093342602
 31
0.0
  0
LINE
  5
366E
  8
3
 10
23.421134025534769
 20
46.096717093342619
 30
0.0
 11
23.421134025534769
 21
46.249117093342583
 31
0.0
  0
LINE
  5
366F
  8
3
 10
24.459359025534781
 20
45.058492093342601
 30
0.0
 11
23.421134025534769
 21
46.096717093342619
 31
0.0
  0
LINE
  5
3670
  8
3
 10
24.459359025534781
 20
45.058492093342601
 30
0.0
 11
24.459359025534781
 21
47.287342093342602
 31
0.0
  0
LINE
  5
3671
  8
3
 10
23.421134025534769
 20
46.249117093342583
 30
0.0
 11
24.459359025534781
 21
47.287342093342602
 31
0.0
  0
LINE
  5
3672
  8
3
 10
28.183634025534701
 20
43.715467093342603
 30
0.0
 11
28.183634025534701
 21
43.867867093342589
 31
0.0
  0
LINE
  5
3673
  8
3
 10
29.221859025534709
 20
42.677242093342578
 30
0.0
 11
28.183634025534701
 21
43.715467093342603
 31
0.0
  0
LINE
  5
3674
  8
3
 10
29.221859025534709
 20
42.677242093342578
 30
0.0
 11
29.221859025534709
 21
44.906092093342608
 31
0.0
  0
LINE
  5
3675
  8
3
 10
28.183634025534701
 20
43.867867093342589
 30
0.0
 11
29.221859025534709
 21
44.906092093342608
 31
0.0
  0
LINE
  5
3676
  8
3
 10
23.421134025534769
 20
55.621717093342589
 30
0.0
 11
23.421134025534769
 21
55.774117093342603
 31
0.0
  0
LINE
  5
3677
  8
3
 10
24.459359025534781
 20
54.583492093342578
 30
0.0
 11
23.421134025534769
 21
55.621717093342589
 31
0.0
  0
LINE
  5
3678
  8
3
 10
24.459359025534781
 20
54.583492093342578
 30
0.0
 11
24.459359025534781
 21
56.8123420933426
 31
0.0
  0
LINE
  5
3679
  8
3
 10
23.421134025534769
 20
55.774117093342603
 30
0.0
 11
24.459359025534781
 21
56.8123420933426
 31
0.0
  0
LINE
  5
367A
  8
3
 10
28.183634025534701
 20
53.240467093342602
 30
0.0
 11
28.183634025534701
 21
53.392867093342574
 31
0.0
  0
LINE
  5
367B
  8
3
 10
29.221859025534709
 20
52.202242093342591
 30
0.0
 11
28.183634025534701
 21
53.240467093342602
 31
0.0
  0
LINE
  5
367C
  8
3
 10
29.221859025534709
 20
52.202242093342591
 30
0.0
 11
29.221859025534709
 21
54.431092093342592
 31
0.0
  0
LINE
  5
367D
  8
3
 10
28.183634025534701
 20
53.392867093342574
 30
0.0
 11
29.221859025534709
 21
54.431092093342592
 31
0.0
  0
LINE
  5
367E
  8
3
 10
31.603109025534739
 20
56.964742093342608
 30
0.0
 11
31.603109025534739
 21
59.193592093342602
 31
0.0
  0
LINE
  5
367F
  8
3
 10
32.783313512714223
 20
58.002967093342612
 30
0.0
 11
31.603109025534739
 21
56.964742093342608
 31
0.0
  0
LINE
  5
3680
  8
3
 10
32.783313512714223
 20
58.155367093342562
 30
0.0
 11
32.783313512714223
 21
58.002967093342612
 31
0.0
  0
LINE
  5
3681
  8
3
 10
31.603109025534739
 20
59.193592093342602
 30
0.0
 11
32.783313512714223
 21
58.155367093342562
 31
0.0
  0
LINE
  5
3682
  8
3
 10
28.183634025534701
 20
39.105367093342579
 30
0.0
 11
29.221859025534709
 21
40.14359209334259
 31
0.0
  0
LINE
  5
3683
  8
3
 10
28.183634025534701
 20
38.952967093342608
 30
0.0
 11
28.183634025534701
 21
39.105367093342579
 31
0.0
  0
LINE
  5
3684
  8
3
 10
29.221859025534709
 20
37.914742093342603
 30
0.0
 11
28.183634025534701
 21
38.952967093342608
 31
0.0
  0
LINE
  5
3685
  8
3
 10
23.421134025534769
 20
50.859217093342608
 30
0.0
 11
23.421134025534769
 21
51.011617093342579
 31
0.0
  0
LINE
  5
3686
  8
3
 10
24.459359025534781
 20
49.820992093342589
 30
0.0
 11
23.421134025534769
 21
50.859217093342608
 31
0.0
  0
LINE
  5
3687
  8
3
 10
24.459359025534781
 20
49.820992093342589
 30
0.0
 11
24.459359025534781
 21
52.049842093342619
 31
0.0
  0
LINE
  5
3688
  8
3
 10
23.421134025534769
 20
51.011617093342579
 30
0.0
 11
24.459359025534781
 21
52.049842093342619
 31
0.0
  0
LINE
  5
3689
  8
3
 10
30.564884025534731
 20
55.621717093342589
 30
0.0
 11
30.564884025534731
 21
55.774117093342603
 31
0.0
  0
LINE
  5
368A
  8
3
 10
31.603109025534739
 20
54.583492093342578
 30
0.0
 11
30.564884025534731
 21
55.621717093342589
 31
0.0
  0
LINE
  5
368B
  8
3
 10
31.603109025534739
 20
54.583492093342578
 30
0.0
 11
31.603109025534739
 21
56.8123420933426
 31
0.0
  0
LINE
  5
368C
  8
3
 10
30.564884025534731
 20
55.774117093342603
 30
0.0
 11
31.603109025534739
 21
56.8123420933426
 31
0.0
  0
LINE
  5
368D
  8
3
 10
28.183634025534701
 20
41.33421709334263
 30
0.0
 11
28.183634025534701
 21
41.486617093342574
 31
0.0
  0
LINE
  5
368E
  8
3
 10
29.221859025534709
 20
40.295992093342591
 30
0.0
 11
28.183634025534701
 21
41.33421709334263
 31
0.0
  0
LINE
  5
368F
  8
3
 10
29.221859025534709
 20
40.295992093342591
 30
0.0
 11
29.221859025534709
 21
42.524842093342578
 31
0.0
  0
LINE
  5
3690
  8
3
 10
28.183634025534701
 20
41.486617093342574
 30
0.0
 11
29.221859025534709
 21
42.524842093342578
 31
0.0
  0
LINE
  5
3691
  8
3
 10
30.564884025534731
 20
53.240467093342602
 30
0.0
 11
30.564884025534731
 21
53.392867093342574
 31
0.0
  0
LINE
  5
3692
  8
3
 10
31.603109025534739
 20
52.202242093342591
 30
0.0
 11
30.564884025534731
 21
53.240467093342602
 31
0.0
  0
LINE
  5
3693
  8
3
 10
31.603109025534739
 20
52.202242093342591
 30
0.0
 11
31.603109025534739
 21
54.431092093342592
 31
0.0
  0
LINE
  5
3694
  8
3
 10
30.564884025534731
 20
53.392867093342574
 30
0.0
 11
31.603109025534739
 21
54.431092093342592
 31
0.0
  0
LINE
  5
3695
  8
3
 10
23.421134025534769
 20
58.002967093342612
 30
0.0
 11
23.421134025534769
 21
58.155367093342562
 31
0.0
  0
LINE
  5
3696
  8
3
 10
24.459359025534781
 20
56.964742093342608
 30
0.0
 11
23.421134025534769
 21
58.002967093342612
 31
0.0
  0
LINE
  5
3697
  8
3
 10
23.421134025534769
 20
58.155367093342562
 30
0.0
 11
24.459359025534781
 21
59.193592093342602
 31
0.0
  0
LINE
  5
3698
  8
3
 10
25.802384025534678
 20
58.002967093342612
 30
0.0
 11
25.802384025534678
 21
58.155367093342562
 31
0.0
  0
LINE
  5
3699
  8
3
 10
26.84060902553469
 20
56.964742093342608
 30
0.0
 11
25.802384025534678
 21
58.002967093342612
 31
0.0
  0
LINE
  5
369A
  8
3
 10
26.84060902553469
 20
56.964742093342608
 30
0.0
 11
26.84060902553469
 21
59.193592093342602
 31
0.0
  0
LINE
  5
369B
  8
3
 10
25.802384025534678
 20
58.155367093342562
 30
0.0
 11
26.84060902553469
 21
59.193592093342602
 31
0.0
  0
LINE
  5
369C
  8
3
 10
21.03988402553475
 20
53.240467093342602
 30
0.0
 11
21.03988402553475
 21
53.392867093342574
 31
0.0
  0
LINE
  5
369D
  8
3
 10
22.078109025534761
 20
52.202242093342591
 30
0.0
 11
21.03988402553475
 21
53.240467093342602
 31
0.0
  0
LINE
  5
369E
  8
3
 10
22.078109025534761
 20
52.202242093342591
 30
0.0
 11
22.078109025534761
 21
54.431092093342592
 31
0.0
  0
LINE
  5
369F
  8
3
 10
21.03988402553475
 20
53.392867093342574
 30
0.0
 11
22.078109025534761
 21
54.431092093342592
 31
0.0
  0
LINE
  5
36A0
  8
3
 10
30.564884025534731
 20
48.477967093342613
 30
0.0
 11
30.564884025534731
 21
48.630367093342592
 31
0.0
  0
LINE
  5
36A1
  8
3
 10
31.603109025534739
 20
47.439742093342574
 30
0.0
 11
30.564884025534731
 21
48.477967093342613
 31
0.0
  0
LINE
  5
36A2
  8
3
 10
31.603109025534739
 20
47.439742093342574
 30
0.0
 11
31.603109025534739
 21
49.668592093342589
 31
0.0
  0
LINE
  5
36A3
  8
3
 10
30.564884025534731
 20
48.630367093342592
 30
0.0
 11
31.603109025534739
 21
49.668592093342589
 31
0.0
  0
LINE
  5
36A4
  8
3
 10
21.03988402553475
 20
50.859217093342608
 30
0.0
 11
21.03988402553475
 21
51.011617093342579
 31
0.0
  0
LINE
  5
36A5
  8
3
 10
22.078109025534761
 20
49.820992093342589
 30
0.0
 11
21.03988402553475
 21
50.859217093342608
 31
0.0
  0
LINE
  5
36A6
  8
3
 10
22.078109025534761
 20
49.820992093342589
 30
0.0
 11
22.078109025534761
 21
52.049842093342619
 31
0.0
  0
LINE
  5
36A7
  8
3
 10
21.03988402553475
 20
51.011617093342579
 30
0.0
 11
22.078109025534761
 21
52.049842093342619
 31
0.0
  0
LINE
  5
36A8
  8
3
 10
25.802384025534678
 20
53.240467093342602
 30
0.0
 11
25.802384025534678
 21
53.392867093342574
 31
0.0
  0
LINE
  5
36A9
  8
3
 10
26.84060902553469
 20
52.202242093342591
 30
0.0
 11
25.802384025534678
 21
53.240467093342602
 31
0.0
  0
LINE
  5
36AA
  8
3
 10
26.84060902553469
 20
52.202242093342591
 30
0.0
 11
26.84060902553469
 21
54.431092093342592
 31
0.0
  0
LINE
  5
36AB
  8
3
 10
25.802384025534678
 20
53.392867093342574
 30
0.0
 11
26.84060902553469
 21
54.431092093342592
 31
0.0
  0
LINE
  5
36AC
  8
3
 10
21.03988402553475
 20
48.477967093342613
 30
0.0
 11
21.03988402553475
 21
48.630367093342592
 31
0.0
  0
LINE
  5
36AD
  8
3
 10
22.078109025534761
 20
47.439742093342574
 30
0.0
 11
21.03988402553475
 21
48.477967093342613
 31
0.0
  0
LINE
  5
36AE
  8
3
 10
22.078109025534761
 20
47.439742093342574
 30
0.0
 11
22.078109025534761
 21
49.668592093342589
 31
0.0
  0
LINE
  5
36AF
  8
3
 10
21.03988402553475
 20
48.630367093342592
 30
0.0
 11
22.078109025534761
 21
49.668592093342589
 31
0.0
  0
LINE
  5
36B0
  8
3
 10
30.564884025534731
 20
43.715467093342603
 30
0.0
 11
30.564884025534731
 21
43.867867093342589
 31
0.0
  0
LINE
  5
36B1
  8
3
 10
31.603109025534739
 20
42.677242093342578
 30
0.0
 11
30.564884025534731
 21
43.715467093342603
 31
0.0
  0
LINE
  5
36B2
  8
3
 10
31.603109025534739
 20
42.677242093342578
 30
0.0
 11
31.603109025534739
 21
44.906092093342608
 31
0.0
  0
LINE
  5
36B3
  8
3
 10
30.564884025534731
 20
43.867867093342589
 30
0.0
 11
31.603109025534739
 21
44.906092093342608
 31
0.0
  0
LINE
  5
36B4
  8
3
 10
23.421134025534769
 20
48.477967093342578
 30
0.0
 11
23.421134025534769
 21
48.630367093342592
 31
0.0
  0
LINE
  5
36B5
  8
3
 10
24.459359025534781
 20
47.439742093342574
 30
0.0
 11
23.421134025534769
 21
48.477967093342578
 31
0.0
  0
LINE
  5
36B6
  8
3
 10
24.459359025534781
 20
47.439742093342574
 30
0.0
 11
24.459359025534781
 21
49.668592093342589
 31
0.0
  0
LINE
  5
36B7
  8
3
 10
23.421134025534769
 20
48.630367093342592
 30
0.0
 11
24.459359025534781
 21
49.668592093342589
 31
0.0
  0
LINE
  5
36B8
  8
3
 10
25.802384025534678
 20
48.477967093342578
 30
0.0
 11
25.802384025534678
 21
48.630367093342592
 31
0.0
  0
LINE
  5
36B9
  8
3
 10
26.84060902553469
 20
47.439742093342574
 30
0.0
 11
25.802384025534678
 21
48.477967093342578
 31
0.0
  0
LINE
  5
36BA
  8
3
 10
26.84060902553469
 20
47.439742093342574
 30
0.0
 11
26.84060902553469
 21
49.668592093342589
 31
0.0
  0
LINE
  5
36BB
  8
3
 10
25.802384025534678
 20
48.630367093342592
 30
0.0
 11
26.84060902553469
 21
49.668592093342589
 31
0.0
  0
LINE
  5
36BC
  8
3
 10
22.078109025534761
 20
42.677242093342578
 30
0.0
 11
22.078109025534761
 21
44.906092093342608
 31
0.0
  0
LINE
  5
36BD
  8
3
 10
25.802384025534678
 20
46.096717093342619
 30
0.0
 11
25.802384025534678
 21
46.249117093342583
 31
0.0
  0
LINE
  5
36BE
  8
3
 10
26.84060902553469
 20
45.058492093342601
 30
0.0
 11
25.802384025534678
 21
46.096717093342619
 31
0.0
  0
LINE
  5
36BF
  8
3
 10
26.84060902553469
 20
45.058492093342601
 30
0.0
 11
26.84060902553469
 21
47.287342093342602
 31
0.0
  0
LINE
  5
36C0
  8
3
 10
25.802384025534678
 20
46.249117093342583
 30
0.0
 11
26.84060902553469
 21
47.287342093342602
 31
0.0
  0
LINE
  5
36C1
  8
3
 10
23.421134025534769
 20
43.715467093342603
 30
0.0
 11
23.421134025534769
 21
43.867867093342589
 31
0.0
  0
LINE
  5
36C2
  8
3
 10
24.459359025534781
 20
42.677242093342578
 30
0.0
 11
23.421134025534769
 21
43.715467093342603
 31
0.0
  0
LINE
  5
36C3
  8
3
 10
24.459359025534781
 20
42.677242093342578
 30
0.0
 11
24.459359025534781
 21
44.906092093342608
 31
0.0
  0
LINE
  5
36C4
  8
3
 10
23.421134025534769
 20
43.867867093342589
 30
0.0
 11
24.459359025534781
 21
44.906092093342608
 31
0.0
  0
LINE
  5
36C5
  8
3
 10
25.802384025534678
 20
43.715467093342603
 30
0.0
 11
25.802384025534678
 21
43.867867093342589
 31
0.0
  0
LINE
  5
36C6
  8
3
 10
26.84060902553469
 20
42.677242093342578
 30
0.0
 11
25.802384025534678
 21
43.715467093342603
 31
0.0
  0
LINE
  5
36C7
  8
3
 10
26.84060902553469
 20
42.677242093342578
 30
0.0
 11
26.84060902553469
 21
44.906092093342608
 31
0.0
  0
LINE
  5
36C8
  8
3
 10
25.802384025534678
 20
43.867867093342589
 30
0.0
 11
26.84060902553469
 21
44.906092093342608
 31
0.0
  0
LINE
  5
36C9
  8
3
 10
30.402063512714189
 20
39.105367093342579
 30
0.0
 11
30.402063512714189
 21
38.952967093342608
 31
0.0
  0
LINE
  5
36CA
  8
3
 10
29.221859025534709
 20
40.14359209334259
 30
0.0
 11
30.402063512714189
 21
39.105367093342579
 31
0.0
  0
LINE
  5
36CB
  8
3
 10
29.221859025534709
 20
37.914742093342603
 30
0.0
 11
29.221859025534709
 21
40.14359209334259
 31
0.0
  0
LINE
  5
36CC
  8
3
 10
30.402063512714189
 20
38.952967093342608
 30
0.0
 11
29.221859025534709
 21
37.914742093342603
 31
0.0
  0
LINE
  5
36CD
  8
3
 10
25.802384025534678
 20
41.33421709334263
 30
0.0
 11
25.802384025534678
 21
41.486617093342574
 31
0.0
  0
LINE
  5
36CE
  8
3
 10
26.84060902553469
 20
40.295992093342591
 30
0.0
 11
25.802384025534678
 21
41.33421709334263
 31
0.0
  0
LINE
  5
36CF
  8
3
 10
26.84060902553469
 20
40.295992093342591
 30
0.0
 11
26.84060902553469
 21
42.524842093342578
 31
0.0
  0
LINE
  5
36D0
  8
3
 10
25.802384025534678
 20
41.486617093342574
 30
0.0
 11
26.84060902553469
 21
42.524842093342578
 31
0.0
  0
LINE
  5
36D1
  8
3
 10
35.327384025534769
 20
60.536617093342578
 30
0.0
 11
35.164563512714238
 21
60.536617093342578
 31
0.0
  0
LINE
  5
36D2
  8
3
 10
35.327384025534769
 20
60.536617093342578
 30
0.0
 11
36.325085611512549
 21
61.534318679320393
 31
0.0
  0
LINE
  5
36D3
  8
3
 10
36.022521988531111
 20
61.651042093342589
 30
0.0
 11
27.18369606253836
 21
61.651042093342589
 31
0.0
  0
LINE
  5
36D4
  8
3
 10
26.884940927426069
 20
61.535843352581061
 30
0.0
 11
28.02081351271417
 21
60.536617093342578
 31
0.0
  0
LINE
  5
36D5
  8
3
 10
28.183634025534701
 20
60.536617093342578
 30
0.0
 11
28.02081351271417
 21
60.536617093342578
 31
0.0
  0
LINE
  5
36D6
  8
3
 10
28.183634025534701
 20
60.536617093342578
 30
0.0
 11
29.221859025534709
 21
61.574842093342603
 31
0.0
  0
LINE
  5
36D7
  8
3
 10
29.221859025534709
 20
61.574842093342603
 30
0.0
 11
30.402063512714189
 21
60.536617093342578
 31
0.0
  0
LINE
  5
36D8
  8
3
 10
30.564884025534731
 20
60.536617093342578
 30
0.0
 11
30.402063512714189
 21
60.536617093342578
 31
0.0
  0
LINE
  5
36D9
  8
3
 10
30.564884025534731
 20
60.536617093342578
 30
0.0
 11
31.603109025534739
 21
61.574842093342603
 31
0.0
  0
LINE
  5
36DA
  8
3
 10
31.603109025534739
 20
61.574842093342603
 30
0.0
 11
32.783313512714223
 21
60.536617093342578
 31
0.0
  0
LINE
  5
36DB
  8
3
 10
32.946134025534747
 20
60.536617093342578
 30
0.0
 11
32.783313512714223
 21
60.536617093342578
 31
0.0
  0
LINE
  5
36DC
  8
3
 10
32.946134025534747
 20
60.536617093342578
 30
0.0
 11
33.984359025534758
 21
61.574842093342603
 31
0.0
  0
LINE
  5
36DD
  8
3
 10
33.984359025534758
 20
61.574842093342603
 30
0.0
 11
35.164563512714238
 21
60.536617093342578
 31
0.0
  0
LINE
  5
36DE
  8
3
 10
26.84060902553469
 20
37.971576995078209
 30
0.0
 11
26.84060902553469
 21
40.14359209334259
 31
0.0
  0
LINE
  5
36DF
  8
3
 10
21.03988402553475
 20
46.096717093342619
 30
0.0
 11
21.03988402553475
 21
46.249117093342583
 31
0.0
  0
LINE
  5
36E0
  8
3
 10
22.078109025534761
 20
45.058492093342601
 30
0.0
 11
21.03988402553475
 21
46.096717093342619
 31
0.0
  0
LINE
  5
36E1
  8
3
 10
22.078109025534761
 20
45.058492093342601
 30
0.0
 11
22.078109025534761
 21
47.287342093342602
 31
0.0
  0
LINE
  5
36E2
  8
3
 10
21.03988402553475
 20
46.249117093342583
 30
0.0
 11
22.078109025534761
 21
47.287342093342602
 31
0.0
  0
LINE
  5
36E3
  8
3
 10
28.183634025534701
 20
58.002967093342612
 30
0.0
 11
28.183634025534701
 21
58.155367093342562
 31
0.0
  0
LINE
  5
36E4
  8
3
 10
29.221859025534709
 20
56.964742093342608
 30
0.0
 11
28.183634025534701
 21
58.002967093342612
 31
0.0
  0
LINE
  5
36E5
  8
3
 10
29.221859025534709
 20
56.964742093342608
 30
0.0
 11
29.221859025534709
 21
59.193592093342602
 31
0.0
  0
LINE
  5
36E6
  8
3
 10
28.183634025534701
 20
58.155367093342562
 30
0.0
 11
29.221859025534709
 21
59.193592093342602
 31
0.0
  0
LINE
  5
36E7
  8
3
 10
24.459359025534781
 20
56.964742093342608
 30
0.0
 11
24.459359025534781
 21
59.193592093342602
 31
0.0
  0
LINE
  5
36E8
  8
3
 10
25.639563512714151
 20
58.002967093342612
 30
0.0
 11
24.459359025534781
 21
56.964742093342608
 31
0.0
  0
LINE
  5
36E9
  8
3
 10
25.639563512714151
 20
58.155367093342562
 30
0.0
 11
25.639563512714151
 21
58.002967093342612
 31
0.0
  0
LINE
  5
36EA
  8
3
 10
24.459359025534781
 20
59.193592093342602
 30
0.0
 11
25.639563512714151
 21
58.155367093342562
 31
0.0
  0
TEXT
  5
37AD
  8
0
 62
     3
 10
0.0
 20
0.0
 30
0.0
 40
5.0
  1
CC-8EF
  7
STANDARD1
  0
ENDSEC
  0
EOF
