  0
SECTION
  2
HEADER
  9
$ACADVER
  1
AC1009
  9
$INSBASE
 10
0.0
 20
0.0
 30
0.0
  9
$EXTMIN
 10
0.0
 20
-1.4802182810368341
 30
0.0
  9
$EXTMAX
 10
49.103109025534792
 20
37.007292093342592
 30
0.0
  9
$LIMMIN
 10
0.0
 20
0.0
  9
$LIMMAX
 10
12.0
 20
9.0
  9
$ORTHOMODE
 70
     0
  9
$REGENMODE
 70
     1
  9
$FILLMODE
 70
     1
  9
$QTEXTMODE
 70
     0
  9
$MIRRTEXT
 70
     0
  9
$DRAGMODE
 70
     2
  9
$LTSCALE
 40
5.0
  9
$OSMODE
 70
  3071
  9
$ATTMODE
 70
     1
  9
$TEXTSIZE
 40
0.2
  9
$TRACEWID
 40
0.05
  9
$TEXTSTYLE
  7
STANDARD
  9
$CLAYER
  8
0
  9
$CELTYPE
  6
BYLAYER
  9
$CECOLOR
 62
   256
  9
$DIMSCALE
 40
1.0
  9
$DIMASZ
 40
0.18
  9
$DIMEXO
 40
0.0625
  9
$DIMDLI
 40
0.38
  9
$DIMRND
 40
0.0
  9
$DIMDLE
 40
0.0
  9
$DIMEXE
 40
0.18
  9
$DIMTP
 40
0.0
  9
$DIMTM
 40
0.0
  9
$DIMTXT
 40
0.18
  9
$DIMCEN
 40
0.09
  9
$DIMTSZ
 40
0.0
  9
$DIMTOL
 70
     0
  9
$DIMLIM
 70
     0
  9
$DIMTIH
 70
     1
  9
$DIMTOH
 70
     1
  9
$DIMSE1
 70
     0
  9
$DIMSE2
 70
     0
  9
$DIMTAD
 70
     0
  9
$DIMZIN
 70
     0
  9
$DIMBLK
  1

  9
$DIMASO
 70
     1
  9
$DIMSHO
 70
     1
  9
$DIMPOST
  1

  9
$DIMAPOST
  1

  9
$DIMALT
 70
     0
  9
$DIMALTD
 70
     2
  9
$DIMALTF
 40
25.399999999999999
  9
$DIMLFAC
 40
1.0
  9
$DIMTOFL
 70
     0
  9
$DIMTVP
 40
0.0
  9
$DIMTIX
 70
     0
  9
$DIMSOXD
 70
     0
  9
$DIMSAH
 70
     0
  9
$DIMBLK1
  1

  9
$DIMBLK2
  1

  9
$DIMSTYLE
  2
STANDARD
  9
$DIMCLRD
 70
     0
  9
$DIMCLRE
 70
     0
  9
$DIMCLRT
 70
     0
  9
$DIMTFAC
 40
1.0
  9
$DIMGAP
 40
0.09
  9
$LUNITS
 70
     2
  9
$LUPREC
 70
     4
  9
$SKETCHINC
 40
0.1
  9
$FILLETRAD
 40
2.5
  9
$AUNITS
 70
     0
  9
$AUPREC
 70
     0
  9
$MENU
  1
.
  9
$ELEVATION
 40
0.0
  9
$PELEVATION
 40
0.0
  9
$THICKNESS
 40
0.0
  9
$LIMCHECK
 70
     0
  9
$BLIPMODE
 70
     0
  9
$CHAMFERA
 40
0.25
  9
$CHAMFERB
 40
0.25
  9
$SKPOLY
 70
     0
  9
$TDCREATE
 40
2453083.4120647679
  9
$TDUPDATE
 40
2456598.5866713999
  9
$TDINDWG
 40
0.416001331
  9
$TDUSRTIMER
 40
0.4160012153
  9
$USRTIMER
 70
     1
  9
$ANGBASE
 50
0.0
  9
$ANGDIR
 70
     0
  9
$PDMODE
 70
     0
  9
$PDSIZE
 40
0.0
  9
$PLINEWID
 40
0.0
  9
$COORDS
 70
     1
  9
$SPLFRAME
 70
     0
  9
$SPLINETYPE
 70
     6
  9
$SPLINESEGS
 70
     8
  9
$ATTDIA
 70
     0
  9
$ATTREQ
 70
     1
  9
$HANDLING
 70
     1
  9
$HANDSEED
  5
28E5
  9
$SURFTAB1
 70
     6
  9
$SURFTAB2
 70
     6
  9
$SURFTYPE
 70
     6
  9
$SURFU
 70
     6
  9
$SURFV
 70
     6
  9
$UCSNAME
  2

  9
$UCSORG
 10
0.0
 20
0.0
 30
0.0
  9
$UCSXDIR
 10
1.0
 20
0.0
 30
0.0
  9
$UCSYDIR
 10
0.0
 20
1.0
 30
0.0
  9
$PUCSNAME
  2

  9
$PUCSORG
 10
0.0
 20
0.0
 30
0.0
  9
$PUCSXDIR
 10
1.0
 20
0.0
 30
0.0
  9
$PUCSYDIR
 10
0.0
 20
1.0
 30
0.0
  9
$USERI1
 70
     0
  9
$USERI2
 70
     1
  9
$USERI3
 70
     0
  9
$USERI4
 70
     0
  9
$USERI5
 70
     0
  9
$USERR1
 40
0.0
  9
$USERR2
 40
0.0
  9
$USERR3
 40
0.0
  9
$USERR4
 40
0.0
  9
$USERR5
 40
0.0
  9
$WORLDVIEW
 70
     1
  9
$SHADEDGE
 70
     3
  9
$SHADEDIF
 70
    70
  9
$TILEMODE
 70
     1
  9
$MAXACTVP
 70
    64
  9
$PLIMCHECK
 70
     0
  9
$PEXTMIN
 10
0.0
 20
0.0
 30
0.0
  9
$PEXTMAX
 10
0.0
 20
0.0
 30
0.0
  9
$PLIMMIN
 10
0.0
 20
0.0
  9
$PLIMMAX
 10
12.0
 20
9.0
  9
$UNITMODE
 70
     0
  9
$VISRETAIN
 70
     1
  9
$PLINEGEN
 70
     0
  9
$PSLTSCALE
 70
     1
  0
ENDSEC
  0
SECTION
  2
TABLES
  0
TABLE
  2
VPORT
 70
     1
  0
VPORT
  2
*ACTIVE
 70
     0
 10
0.0
 20
0.0
 11
1.0
 21
1.0
 12
25.618044068140819
 22
17.763906864361541
 13
0.0
 23
0.0
 14
0.5
 24
0.5
 15
0.5
 25
0.5
 16
0.0
 26
0.0
 36
1.0
 17
0.0
 27
0.0
 37
0.0
 40
38.834222464723979
 41
1.831871345029239
 42
50.0
 43
0.0
 44
0.0
 50
0.0
 51
0.0
 71
     0
 72
  1000
 73
     1
 74
     2
 75
     0
 76
     0
 77
     0
 78
     0
  0
ENDTAB
  0
TABLE
  2
LTYPE
 70
     3
  0
LTYPE
  2
CONTINUOUS
 70
     0
  3
Solid Line
 72
    65
 73
     0
 40
0.0
  0
LTYPE
  2
CENTER
 70
     0
  3
____ _ ____ _ ____ _ ____ _ ____ _ ____ _ ____
 72
    65
 73
     4
 40
2.0
 49
1.25
 49
-0.25
 49
0.25
 49
-0.25
  0
LTYPE
  2
PHANTOM2
 70
     0
  3
___ _ _ ___ _ _ ___ _ _ ___ _ _
 72
    65
 73
     6
 40
1.25
 49
0.625
 49
-0.125
 49
0.125
 49
-0.125
 49
0.125
 49
-0.125
  0
ENDTAB
  0
TABLE
  2
LAYER
 70
     3
  0
LAYER
  2
0
 70
     0
 62
     7
  6
CONTINUOUS
  0
LAYER
  2
1
 70
     0
 62
     1
  6
CENTER
  0
LAYER
  2
3
 70
     0
 62
     3
  6
CONTINUOUS
  0
ENDTAB
  0
TABLE
  2
STYLE
 70
     2
  0
STYLE
  2
STANDARD
 70
     0
 40
0.0
 41
1.0
 50
0.0
 71
     0
 42
0.2
  3
simplex.shx
  4
bigfont.shx
  0
STYLE
  2
STANDARD1
 70
     0
 40
0.0
 41
1.0
 50
0.0
 71
     0
 42
3.0
  3
txt
  4

  0
ENDTAB
  0
TABLE
  2
VIEW
 70
     0
  0
ENDTAB
  0
TABLE
  2
UCS
 70
     0
  0
ENDTAB
  0
TABLE
  2
APPID
 70
     4
  0
APPID
  2
ACAD
 70
     0
  0
APPID
  2
DCO15
 70
     0
  0
APPID
  2
ACAD_MLEADERVER
 70
     0
  0
APPID
  2
ACAD_NAV_VCDISPLAY
 70
     0
  0
ENDTAB
  0
TABLE
  2
DIMSTYLE
 70
     1
  0
DIMSTYLE
  2
STANDARD
 70
     0
  3

  4

  5

  6

  7

 40
1.0
 41
0.18
 42
0.0625
 43
0.38
 44
0.18
 45
0.0
 46
0.0
 47
0.0
 48
0.0
140
0.18
141
0.09
142
0.0
143
25.399999999999999
144
1.0
145
0.0
146
1.0
147
0.09
 71
     0
 72
     0
 73
     1
 74
     1
 75
     0
 76
     0
 77
     0
 78
     0
170
     0
171
     2
172
     0
173
     0
174
     0
175
     0
176
     0
177
     0
178
     0
  0
ENDTAB
  0
ENDSEC
  0
SECTION
  2
BLOCKS
  0
BLOCK
  8
0
  2
$MODEL_SPACE
 70
     0
 10
0.0
 20
0.0
 30
0.0
  3
$MODEL_SPACE
  1

  0
ENDBLK
  5
21
  8
0
  0
BLOCK
 67
     1
  8
0
  2
$PAPER_SPACE
 70
     0
 10
0.0
 20
0.0
 30
0.0
  3
$PAPER_SPACE
  1

  0
ENDBLK
  5
5B
 67
     1
  8
0
  0
BLOCK
  8
0
  2
STDGX5
 70
     0
 10
0.0
 20
0.0
 30
0.0
  3
STDGX5
  1

  0
ENDBLK
  5
16DA
  8
0
  0
ENDSEC
  0
SECTION
  2
ENTITIES
  0
INSERT
  5
1747
  8
0
  2
STDGX5
 10
142.93956481232809
 20
0.1619180124085346
 30
0.0
  0
LINE
  5
2705
  8
1
 10
49.103109025534792
 20
29.7447920933426
 30
0.0
 11
40.928109025534717
 21
29.7447920933426
 31
0.0
  0
CIRCLE
  5
2706
  8
0
 10
23.665609025534732
 20
29.7447920933426
 30
0.0
 40
4.7625000000000002
  0
LINE
  5
2707
  8
1
 10
23.665609025534732
 20
22.482292093342611
 30
0.0
 11
23.665609025534732
 21
37.007292093342592
 31
0.0
  0
LINE
  5
2708
  8
1
 10
16.40310902553475
 20
29.7447920933426
 30
0.0
 11
30.92810902553472
 21
29.7447920933426
 31
0.0
  0
LINE
  5
2709
  8
3
 10
25.925566812322788
 20
25.552656950967389
 30
0.0
 11
26.046859025534761
 21
25.620346107819099
 31
0.0
  0
LINE
  5
270A
  8
0
 10
43.428109025534781
 20
33.240467093342659
 30
0.0
 11
43.428109025534781
 21
33.392867093342602
 31
0.0
  0
LINE
  5
270B
  8
0
 10
43.428109025534781
 20
26.096717093342651
 30
0.0
 11
43.428109025534781
 21
26.249117093342651
 31
0.0
  0
LINE
  5
270C
  8
0
 10
46.603109025534728
 20
33.745292093342591
 30
0.0
 11
46.603109025534792
 21
25.744292093342612
 31
0.0
  0
LINE
  5
270D
  8
0
 10
43.428109025534781
 20
28.63036709334267
 30
0.0
 11
44.54253402553482
 21
29.74479209334271
 31
0.0
  0
LINE
  5
270E
  8
0
 10
43.428109025534781
 20
28.47796709334261
 30
0.0
 11
43.428109025534781
 21
28.63036709334267
 31
0.0
  0
LINE
  5
270F
  8
0
 10
44.542534025534763
 20
27.36354209334263
 30
0.0
 11
43.428109025534781
 21
28.47796709334261
 31
0.0
  0
LINE
  5
2710
  8
0
 10
44.54253402553482
 20
29.74479209334271
 30
0.0
 11
43.428109025534781
 21
30.85921709334264
 31
0.0
  0
LINE
  5
2711
  8
0
 10
43.428109025534781
 20
30.85921709334264
 30
0.0
 11
43.428109025534781
 21
31.01161709334264
 31
0.0
  0
LINE
  5
2712
  8
0
 10
43.428109025534781
 20
31.01161709334264
 30
0.0
 11
44.542534025534707
 21
32.126042093342683
 31
0.0
  0
LINE
  5
2713
  8
0
 10
46.095109025534811
 20
34.507292093342592
 30
0.0
 11
46.095109025534811
 21
24.982292093342611
 31
0.0
  0
LINE
  5
2714
  8
0
 10
44.542534025534763
 20
27.36354209334263
 30
0.0
 11
43.42810902553483
 21
26.249117093342701
 31
0.0
  0
LINE
  5
2715
  8
0
 10
44.542534025534763
 20
24.982292093342611
 30
0.0
 11
43.428109025534781
 21
26.096717093342701
 31
0.0
  0
LINE
  5
2716
  8
0
 10
43.428109025534781
 20
33.392867093342602
 30
0.0
 11
44.542534025534763
 21
34.507292093342642
 31
0.0
  0
LINE
  5
2717
  8
0
 10
43.428109025534717
 20
33.240467093342659
 30
0.0
 11
44.542534025534763
 21
32.126042093342619
 31
0.0
  0
LINE
  5
2718
  8
0
 10
46.603109025534792
 20
33.745292093342591
 30
0.0
 11
46.095109025534811
 21
34.253292093342573
 31
0.0
  0
LINE
  5
2719
  8
0
 10
46.095109025534811
 20
25.23629209334257
 30
0.0
 11
46.603109025534792
 21
25.744292093342612
 31
0.0
  0
LINE
  5
271A
  8
0
 10
46.095109025534811
 20
34.507292093342592
 30
0.0
 11
44.542534025534643
 21
34.507292093342528
 31
0.0
  0
LINE
  5
271B
  8
0
 10
44.54253402553482
 20
24.982292093342551
 30
0.0
 11
46.095109025534811
 21
24.982292093342611
 31
0.0
  0
LINE
  5
271C
  8
3
 10
26.046859025534761
 20
25.620346107819099
 30
0.0
 11
26.046859025534761
 21
27.287342093342492
 31
0.0
  0
LINE
  5
271D
  8
3
 10
23.665609025534732
 20
29.820992093342461
 30
0.0
 11
23.665609025534732
 21
32.049842093342477
 31
0.0
  0
LINE
  5
271E
  8
3
 10
26.046859025534761
 20
29.820992093342461
 30
0.0
 11
26.046859025534761
 21
32.049842093342477
 31
0.0
  0
LINE
  5
271F
  8
3
 10
27.389884025534769
 20
28.477967093342439
 30
0.0
 11
27.389884025534769
 21
28.6303670933425
 31
0.0
  0
LINE
  5
2720
  8
3
 10
26.046859025534761
 20
27.439742093342488
 30
0.0
 11
26.046859025534761
 21
29.668592093342451
 31
0.0
  0
LINE
  5
2721
  8
3
 10
27.227063512714238
 20
28.6303670933425
 30
0.0
 11
27.227063512714238
 21
28.477967093342439
 31
0.0
  0
LINE
  5
2722
  8
3
 10
27.389884025534769
 20
28.6303670933425
 30
0.0
 11
27.227063512714238
 21
28.6303670933425
 31
0.0
  0
LINE
  5
2723
  8
3
 10
27.389884025534769
 20
28.6303670933425
 30
0.0
 11
28.427489431420639
 21
29.66797249922837
 31
0.0
  0
LINE
  5
2724
  8
3
 10
22.62738402553472
 20
28.6303670933425
 30
0.0
 11
23.665609025534732
 21
29.668592093342451
 31
0.0
  0
LINE
  5
2725
  8
3
 10
25.00863402553475
 20
28.6303670933425
 30
0.0
 11
26.046859025534761
 21
29.668592093342451
 31
0.0
  0
LINE
  5
2726
  8
3
 10
26.046859025534761
 20
29.668592093342451
 30
0.0
 11
27.227063512714238
 21
28.6303670933425
 31
0.0
  0
LINE
  5
2727
  8
3
 10
20.246134025534701
 20
28.6303670933425
 30
0.0
 11
21.284359025534709
 21
29.668592093342451
 31
0.0
  0
LINE
  5
2728
  8
3
 10
25.00863402553475
 20
26.24911709334248
 30
0.0
 11
26.046859025534761
 21
27.287342093342492
 31
0.0
  0
LINE
  5
2729
  8
3
 10
26.046859025534761
 20
27.287342093342492
 30
0.0
 11
27.055712251066812
 21
26.399854669378161
 31
0.0
  0
LINE
  5
272A
  8
3
 10
20.336328513178021
 20
26.339311580985679
 30
0.0
 11
21.284359025534709
 21
27.287342093342492
 31
0.0
  0
LINE
  5
272B
  8
3
 10
22.62738402553472
 20
26.24911709334248
 30
0.0
 11
23.665609025534732
 21
27.287342093342492
 31
0.0
  0
LINE
  5
272C
  8
3
 10
22.62738402553472
 20
33.392867093342431
 30
0.0
 11
23.665609025534732
 21
34.431092093342443
 31
0.0
  0
LINE
  5
272D
  8
3
 10
23.665609025534732
 20
27.439742093342488
 30
0.0
 11
23.665609025534732
 21
29.668592093342451
 31
0.0
  0
LINE
  5
272E
  8
3
 10
23.665609025534732
 20
29.668592093342451
 30
0.0
 11
24.845813512714219
 21
28.6303670933425
 31
0.0
  0
LINE
  5
272F
  8
3
 10
23.665609025534732
 20
25.058492093342469
 30
0.0
 11
23.665609025534732
 21
27.287342093342492
 31
0.0
  0
LINE
  5
2730
  8
3
 10
23.665609025534732
 20
27.287342093342492
 30
0.0
 11
24.845813512714219
 21
26.24911709334248
 31
0.0
  0
LINE
  5
2731
  8
3
 10
27.389884025534769
 20
31.011617093342469
 30
0.0
 11
28.02976669095349
 21
31.65149975876119
 31
0.0
  0
LINE
  5
2732
  8
3
 10
20.246134025534701
 20
31.011617093342469
 30
0.0
 11
21.284359025534709
 21
32.049842093342477
 31
0.0
  0
LINE
  5
2733
  8
3
 10
22.62738402553472
 20
31.011617093342469
 30
0.0
 11
23.665609025534732
 21
32.049842093342477
 31
0.0
  0
LINE
  5
2734
  8
3
 10
23.665609025534732
 20
32.049842093342477
 30
0.0
 11
24.845813512714219
 21
31.011617093342469
 31
0.0
  0
LINE
  5
2735
  8
3
 10
25.00863402553475
 20
31.011617093342469
 30
0.0
 11
26.046859025534761
 21
32.049842093342477
 31
0.0
  0
LINE
  5
2736
  8
3
 10
26.046859025534761
 20
32.049842093342477
 30
0.0
 11
27.227063512714238
 21
31.011617093342469
 31
0.0
  0
LINE
  5
2737
  8
3
 10
21.284359025534709
 20
27.439742093342488
 30
0.0
 11
21.284359025534709
 21
29.668592093342451
 31
0.0
  0
LINE
  5
2738
  8
3
 10
21.284359025534709
 20
29.668592093342451
 30
0.0
 11
22.464563512714189
 21
28.6303670933425
 31
0.0
  0
LINE
  5
2739
  8
3
 10
25.00863402553475
 20
33.392867093342431
 30
0.0
 11
25.677319991668561
 21
34.061553059476303
 31
0.0
  0
LINE
  5
273A
  8
3
 10
26.046859025534761
 20
32.202242093342477
 30
0.0
 11
26.046859025534761
 21
33.869238078865862
 31
0.0
  0
LINE
  5
273B
  8
3
 10
21.284359025534709
 20
27.287342093342492
 30
0.0
 11
22.464563512714189
 21
26.24911709334248
 31
0.0
  0
LINE
  5
273C
  8
3
 10
21.284359025534709
 20
25.620346107819099
 30
0.0
 11
21.284359025534709
 21
27.287342093342492
 31
0.0
  0
LINE
  5
273D
  8
3
 10
20.246134025534701
 20
28.477967093342439
 30
0.0
 11
20.246134025534701
 21
28.6303670933425
 31
0.0
  0
LINE
  5
273E
  8
3
 10
20.246134025534701
 20
28.6303670933425
 30
0.0
 11
20.083313512714231
 21
28.6303670933425
 31
0.0
  0
LINE
  5
273F
  8
3
 10
21.284359025534709
 20
29.820992093342461
 30
0.0
 11
21.284359025534709
 21
32.049842093342477
 31
0.0
  0
LINE
  5
2740
  8
3
 10
21.284359025534709
 20
32.049842093342477
 30
0.0
 11
22.464563512714189
 21
31.011617093342469
 31
0.0
  0
LINE
  5
2741
  8
3
 10
28.427489431420639
 20
29.821611687456599
 30
0.0
 11
27.389884025534769
 21
30.859217093342469
 31
0.0
  0
LINE
  5
2742
  8
3
 10
27.227063512714238
 20
30.859217093342469
 30
0.0
 11
26.046859025534761
 21
29.820992093342461
 31
0.0
  0
LINE
  5
2743
  8
3
 10
26.046859025534761
 20
29.820992093342461
 30
0.0
 11
25.00863402553475
 21
30.859217093342469
 31
0.0
  0
LINE
  5
2744
  8
3
 10
24.845813512714219
 20
30.859217093342469
 30
0.0
 11
23.665609025534732
 21
29.820992093342461
 31
0.0
  0
LINE
  5
2745
  8
3
 10
23.665609025534732
 20
29.820992093342461
 30
0.0
 11
22.62738402553472
 21
30.859217093342469
 31
0.0
  0
LINE
  5
2746
  8
3
 10
22.464563512714189
 20
30.859217093342469
 30
0.0
 11
21.284359025534709
 21
29.820992093342461
 31
0.0
  0
LINE
  5
2747
  8
3
 10
21.284359025534709
 20
29.820992093342461
 30
0.0
 11
20.246134025534701
 21
30.859217093342469
 31
0.0
  0
LINE
  5
2748
  8
3
 10
28.428109025534781
 20
29.744792093342479
 30
0.0
 11
18.90310902553475
 21
29.744792093342479
 31
0.0
  0
LINE
  5
2749
  8
3
 10
20.246134025534701
 20
30.859217093342469
 30
0.0
 11
20.083313512714231
 21
30.859217093342469
 31
0.0
  0
LINE
  5
274A
  8
3
 10
20.246134025534701
 20
30.859217093342469
 30
0.0
 11
20.246134025534701
 21
31.011617093342469
 31
0.0
  0
LINE
  5
274B
  8
3
 10
20.246134025534701
 20
31.011617093342469
 30
0.0
 11
20.083313512714231
 21
31.011617093342469
 31
0.0
  0
LINE
  5
274C
  8
3
 10
21.284359025534709
 20
32.202242093342477
 30
0.0
 11
21.284359025534709
 21
33.869238078865862
 31
0.0
  0
LINE
  5
274D
  8
3
 10
21.68704768696497
 20
34.076847180655761
 30
0.0
 11
22.464563512714189
 21
33.392867093342431
 31
0.0
  0
LINE
  5
274E
  8
3
 10
28.02976669095349
 20
27.838084427923722
 30
0.0
 11
27.389884025534769
 21
28.477967093342439
 31
0.0
  0
LINE
  5
274F
  8
3
 10
27.389884025534769
 20
28.477967093342439
 30
0.0
 11
27.227063512714238
 21
28.477967093342439
 31
0.0
  0
LINE
  5
2750
  8
3
 10
27.227063512714238
 20
28.477967093342439
 30
0.0
 11
26.046859025534761
 21
27.439742093342488
 31
0.0
  0
LINE
  5
2751
  8
3
 10
26.046859025534761
 20
27.439742093342488
 30
0.0
 11
25.00863402553475
 21
28.477967093342439
 31
0.0
  0
LINE
  5
2752
  8
3
 10
24.845813512714219
 20
28.477967093342439
 30
0.0
 11
23.665609025534732
 21
27.439742093342488
 31
0.0
  0
LINE
  5
2753
  8
3
 10
23.665609025534732
 20
27.439742093342488
 30
0.0
 11
22.62738402553472
 21
28.477967093342439
 31
0.0
  0
LINE
  5
2754
  8
3
 10
22.464563512714189
 20
28.477967093342439
 30
0.0
 11
21.284359025534709
 21
27.439742093342488
 31
0.0
  0
LINE
  5
2755
  8
3
 10
21.284359025534709
 20
27.439742093342488
 30
0.0
 11
20.246134025534701
 21
28.477967093342439
 31
0.0
  0
LINE
  5
2756
  8
3
 10
20.246134025534701
 20
28.477967093342439
 30
0.0
 11
20.083313512714231
 21
28.477967093342439
 31
0.0
  0
LINE
  5
2757
  8
3
 10
27.790055011058119
 20
27.36354209334246
 30
0.0
 11
19.541163040011352
 21
27.36354209334246
 31
0.0
  0
LINE
  5
2758
  8
3
 10
22.62738402553472
 20
33.240467093342488
 30
0.0
 11
22.62738402553472
 21
33.392867093342431
 31
0.0
  0
LINE
  5
2759
  8
3
 10
22.62738402553472
 20
33.392867093342431
 30
0.0
 11
22.464563512714189
 21
33.392867093342431
 31
0.0
  0
LINE
  5
275A
  8
3
 10
22.464563512714189
 20
33.392867093342431
 30
0.0
 11
22.464563512714189
 21
33.240467093342488
 31
0.0
  0
LINE
  5
275B
  8
3
 10
20.083313512714231
 20
30.859217093342469
 30
0.0
 11
18.903727400491761
 21
29.82153607732721
 31
0.0
  0
LINE
  5
275C
  8
3
 10
20.083313512714231
 20
31.011617093342469
 30
0.0
 11
20.083313512714231
 21
30.859217093342469
 31
0.0
  0
LINE
  5
275D
  8
3
 10
19.316693110014029
 20
31.686012485191501
 30
0.0
 11
20.083313512714231
 21
31.011617093342469
 31
0.0
  0
LINE
  5
275E
  8
3
 10
20.083313512714231
 20
28.477967093342439
 30
0.0
 11
19.316693110014029
 21
27.803571701493411
 31
0.0
  0
LINE
  5
275F
  8
3
 10
20.083313512714231
 20
28.6303670933425
 30
0.0
 11
20.083313512714231
 21
28.477967093342439
 31
0.0
  0
LINE
  5
2760
  8
3
 10
18.903727400491761
 20
29.668048109357759
 30
0.0
 11
20.083313512714231
 21
28.6303670933425
 31
0.0
  0
LINE
  5
2761
  8
3
 10
25.677319991668561
 20
25.428031127208609
 30
0.0
 11
25.00863402553475
 21
26.09671709334248
 31
0.0
  0
LINE
  5
2762
  8
3
 10
24.845813512714219
 20
26.09671709334248
 30
0.0
 11
23.665609025534732
 21
25.058492093342469
 31
0.0
  0
LINE
  5
2763
  8
3
 10
23.665609025534732
 20
25.058492093342469
 30
0.0
 11
22.62738402553472
 21
26.09671709334248
 31
0.0
  0
LINE
  5
2764
  8
3
 10
22.464563512714189
 20
26.09671709334248
 30
0.0
 11
21.68704768696497
 21
25.4127370060292
 31
0.0
  0
LINE
  5
2765
  8
3
 10
22.62738402553472
 20
26.09671709334248
 30
0.0
 11
22.464563512714189
 21
26.09671709334248
 31
0.0
  0
LINE
  5
2766
  8
3
 10
22.62738402553472
 20
26.09671709334248
 30
0.0
 11
22.62738402553472
 21
26.24911709334248
 31
0.0
  0
LINE
  5
2767
  8
3
 10
22.62738402553472
 20
26.24911709334248
 30
0.0
 11
22.464563512714189
 21
26.24911709334248
 31
0.0
  0
LINE
  5
2768
  8
3
 10
22.464563512714189
 20
26.24911709334248
 30
0.0
 11
22.464563512714189
 21
26.09671709334248
 31
0.0
  0
LINE
  5
2769
  8
3
 10
23.665609025534732
 20
32.202242093342477
 30
0.0
 11
23.665609025534732
 21
34.431092093342443
 31
0.0
  0
LINE
  5
276A
  8
3
 10
23.665609025534732
 20
34.431092093342443
 30
0.0
 11
24.845813512714219
 21
33.392867093342431
 31
0.0
  0
LINE
  5
276B
  8
3
 10
22.62738402553472
 20
28.477967093342439
 30
0.0
 11
22.464563512714189
 21
28.477967093342439
 31
0.0
  0
LINE
  5
276C
  8
3
 10
22.62738402553472
 20
28.477967093342439
 30
0.0
 11
22.62738402553472
 21
28.6303670933425
 31
0.0
  0
LINE
  5
276D
  8
3
 10
22.62738402553472
 20
28.6303670933425
 30
0.0
 11
22.464563512714189
 21
28.6303670933425
 31
0.0
  0
LINE
  5
276E
  8
3
 10
22.464563512714189
 20
28.6303670933425
 30
0.0
 11
22.464563512714189
 21
28.477967093342439
 31
0.0
  0
LINE
  5
276F
  8
3
 10
22.62738402553472
 20
30.859217093342469
 30
0.0
 11
22.464563512714189
 21
30.859217093342469
 31
0.0
  0
LINE
  5
2770
  8
3
 10
22.62738402553472
 20
30.859217093342469
 30
0.0
 11
22.62738402553472
 21
31.011617093342469
 31
0.0
  0
LINE
  5
2771
  8
3
 10
22.62738402553472
 20
31.011617093342469
 30
0.0
 11
22.464563512714189
 21
31.011617093342469
 31
0.0
  0
LINE
  5
2772
  8
3
 10
22.464563512714189
 20
31.011617093342469
 30
0.0
 11
22.464563512714189
 21
30.859217093342469
 31
0.0
  0
LINE
  5
2773
  8
3
 10
25.00863402553475
 20
26.09671709334248
 30
0.0
 11
24.845813512714219
 21
26.09671709334248
 31
0.0
  0
LINE
  5
2774
  8
3
 10
25.00863402553475
 20
26.09671709334248
 30
0.0
 11
25.00863402553475
 21
26.24911709334248
 31
0.0
  0
LINE
  5
2775
  8
3
 10
25.00863402553475
 20
26.24911709334248
 30
0.0
 11
24.845813512714219
 21
26.24911709334248
 31
0.0
  0
LINE
  5
2776
  8
3
 10
24.845813512714219
 20
26.24911709334248
 30
0.0
 11
24.845813512714219
 21
26.09671709334248
 31
0.0
  0
LINE
  5
2777
  8
3
 10
25.00863402553475
 20
33.240467093342488
 30
0.0
 11
25.00863402553475
 21
33.392867093342431
 31
0.0
  0
LINE
  5
2778
  8
3
 10
25.00863402553475
 20
33.392867093342431
 30
0.0
 11
24.845813512714219
 21
33.392867093342431
 31
0.0
  0
LINE
  5
2779
  8
3
 10
24.845813512714219
 20
33.392867093342431
 30
0.0
 11
24.845813512714219
 21
33.240467093342488
 31
0.0
  0
LINE
  5
277A
  8
3
 10
25.00863402553475
 20
28.477967093342439
 30
0.0
 11
24.845813512714219
 21
28.477967093342439
 31
0.0
  0
LINE
  5
277B
  8
3
 10
25.00863402553475
 20
28.477967093342439
 30
0.0
 11
25.00863402553475
 21
28.6303670933425
 31
0.0
  0
LINE
  5
277C
  8
3
 10
25.00863402553475
 20
28.6303670933425
 30
0.0
 11
24.845813512714219
 21
28.6303670933425
 31
0.0
  0
LINE
  5
277D
  8
3
 10
24.845813512714219
 20
28.6303670933425
 30
0.0
 11
24.845813512714219
 21
28.477967093342439
 31
0.0
  0
LINE
  5
277E
  8
3
 10
25.00863402553475
 20
30.859217093342469
 30
0.0
 11
24.845813512714219
 21
30.859217093342469
 31
0.0
  0
LINE
  5
277F
  8
3
 10
25.00863402553475
 20
30.859217093342469
 30
0.0
 11
25.00863402553475
 21
31.011617093342469
 31
0.0
  0
LINE
  5
2780
  8
3
 10
25.00863402553475
 20
31.011617093342469
 30
0.0
 11
24.845813512714219
 21
31.011617093342469
 31
0.0
  0
LINE
  5
2781
  8
3
 10
24.845813512714219
 20
31.011617093342469
 30
0.0
 11
24.845813512714219
 21
30.859217093342469
 31
0.0
  0
LINE
  5
2782
  8
3
 10
27.055712251066812
 20
33.089729517306807
 30
0.0
 11
26.046859025534761
 21
32.202242093342477
 31
0.0
  0
LINE
  5
2783
  8
3
 10
26.046859025534761
 20
32.202242093342477
 30
0.0
 11
25.00863402553475
 21
33.240467093342488
 31
0.0
  0
LINE
  5
2784
  8
3
 10
25.00863402553475
 20
33.240467093342488
 30
0.0
 11
24.845813512714219
 21
33.240467093342488
 31
0.0
  0
LINE
  5
2785
  8
3
 10
24.845813512714219
 20
33.240467093342488
 30
0.0
 11
23.665609025534732
 21
32.202242093342477
 31
0.0
  0
LINE
  5
2786
  8
3
 10
23.665609025534732
 20
32.202242093342477
 30
0.0
 11
22.62738402553472
 21
33.240467093342488
 31
0.0
  0
LINE
  5
2787
  8
3
 10
22.62738402553472
 20
33.240467093342488
 30
0.0
 11
22.464563512714189
 21
33.240467093342488
 31
0.0
  0
LINE
  5
2788
  8
3
 10
22.464563512714189
 20
33.240467093342488
 30
0.0
 11
21.284359025534709
 21
32.202242093342477
 31
0.0
  0
LINE
  5
2789
  8
3
 10
21.284359025534709
 20
32.202242093342477
 30
0.0
 11
20.336328513178021
 21
33.150272605699229
 31
0.0
  0
LINE
  5
278A
  8
3
 10
27.790055011058119
 20
32.126042093342448
 30
0.0
 11
19.541163040011352
 21
32.126042093342448
 31
0.0
  0
LINE
  5
278B
  8
3
 10
27.389884025534769
 20
30.859217093342469
 30
0.0
 11
27.227063512714238
 21
30.859217093342469
 31
0.0
  0
LINE
  5
278C
  8
3
 10
27.389884025534769
 20
30.859217093342469
 30
0.0
 11
27.389884025534769
 21
31.011617093342469
 31
0.0
  0
LINE
  5
278D
  8
3
 10
27.389884025534769
 20
31.011617093342469
 30
0.0
 11
27.227063512714238
 21
31.011617093342469
 31
0.0
  0
LINE
  5
278E
  8
3
 10
27.227063512714238
 20
31.011617093342469
 30
0.0
 11
27.227063512714238
 21
30.859217093342469
 31
0.0
  0
TEXT
  5
2851
  8
0
 62
     3
 10
0.0
 20
0.0
 30
0.0
 40
5.0
  1
CC-3EF
  7
STANDARD1
  0
ENDSEC
  0
EOF
