  0
SECTION
  2
HEADER
  9
$ACADVER
  1
AC1009
  9
$INSBASE
 10
0.0
 20
0.0
 30
0.0
  9
$EXTMIN
 10
0.0
 20
-1.4802182810368341
 30
0.0
  9
$EXTMAX
 10
49.103109025534621
 20
37.007292093342592
 30
0.0
  9
$LIMMIN
 10
0.0
 20
0.0
  9
$LIMMAX
 10
12.0
 20
9.0
  9
$ORTHOMODE
 70
     0
  9
$REGENMODE
 70
     1
  9
$FILLMODE
 70
     1
  9
$QTEXTMODE
 70
     0
  9
$MIRRTEXT
 70
     0
  9
$DRAGMODE
 70
     2
  9
$LTSCALE
 40
5.0
  9
$OSMODE
 70
  3071
  9
$ATTMODE
 70
     1
  9
$TEXTSIZE
 40
0.2
  9
$TRACEWID
 40
0.05
  9
$TEXTSTYLE
  7
STANDARD
  9
$CLAYER
  8
0
  9
$CELTYPE
  6
BYLAYER
  9
$CECOLOR
 62
   256
  9
$DIMSCALE
 40
1.0
  9
$DIMASZ
 40
0.18
  9
$DIMEXO
 40
0.0625
  9
$DIMDLI
 40
0.38
  9
$DIMRND
 40
0.0
  9
$DIMDLE
 40
0.0
  9
$DIMEXE
 40
0.18
  9
$DIMTP
 40
0.0
  9
$DIMTM
 40
0.0
  9
$DIMTXT
 40
0.18
  9
$DIMCEN
 40
0.09
  9
$DIMTSZ
 40
0.0
  9
$DIMTOL
 70
     0
  9
$DIMLIM
 70
     0
  9
$DIMTIH
 70
     1
  9
$DIMTOH
 70
     1
  9
$DIMSE1
 70
     0
  9
$DIMSE2
 70
     0
  9
$DIMTAD
 70
     0
  9
$DIMZIN
 70
     0
  9
$DIMBLK
  1

  9
$DIMASO
 70
     1
  9
$DIMSHO
 70
     1
  9
$DIMPOST
  1

  9
$DIMAPOST
  1

  9
$DIMALT
 70
     0
  9
$DIMALTD
 70
     2
  9
$DIMALTF
 40
25.399999999999999
  9
$DIMLFAC
 40
1.0
  9
$DIMTOFL
 70
     0
  9
$DIMTVP
 40
0.0
  9
$DIMTIX
 70
     0
  9
$DIMSOXD
 70
     0
  9
$DIMSAH
 70
     0
  9
$DIMBLK1
  1

  9
$DIMBLK2
  1

  9
$DIMSTYLE
  2
STANDARD
  9
$DIMCLRD
 70
     0
  9
$DIMCLRE
 70
     0
  9
$DIMCLRT
 70
     0
  9
$DIMTFAC
 40
1.0
  9
$DIMGAP
 40
0.09
  9
$LUNITS
 70
     2
  9
$LUPREC
 70
     4
  9
$SKETCHINC
 40
0.1
  9
$FILLETRAD
 40
2.5
  9
$AUNITS
 70
     0
  9
$AUPREC
 70
     0
  9
$MENU
  1
.
  9
$ELEVATION
 40
0.0
  9
$PELEVATION
 40
0.0
  9
$THICKNESS
 40
0.0
  9
$LIMCHECK
 70
     0
  9
$BLIPMODE
 70
     0
  9
$CHAMFERA
 40
0.25
  9
$CHAMFERB
 40
0.25
  9
$SKPOLY
 70
     0
  9
$TDCREATE
 40
2453083.4120647679
  9
$TDUPDATE
 40
2456598.5866454048
  9
$TDINDWG
 40
0.4153015625
  9
$TDUSRTIMER
 40
0.4153014468
  9
$USRTIMER
 70
     1
  9
$ANGBASE
 50
0.0
  9
$ANGDIR
 70
     0
  9
$PDMODE
 70
     0
  9
$PDSIZE
 40
0.0
  9
$PLINEWID
 40
0.0
  9
$COORDS
 70
     1
  9
$SPLFRAME
 70
     0
  9
$SPLINETYPE
 70
     6
  9
$SPLINESEGS
 70
     8
  9
$ATTDIA
 70
     0
  9
$ATTREQ
 70
     1
  9
$HANDLING
 70
     1
  9
$HANDSEED
  5
2741
  9
$SURFTAB1
 70
     6
  9
$SURFTAB2
 70
     6
  9
$SURFTYPE
 70
     6
  9
$SURFU
 70
     6
  9
$SURFV
 70
     6
  9
$UCSNAME
  2

  9
$UCSORG
 10
0.0
 20
0.0
 30
0.0
  9
$UCSXDIR
 10
1.0
 20
0.0
 30
0.0
  9
$UCSYDIR
 10
0.0
 20
1.0
 30
0.0
  9
$PUCSNAME
  2

  9
$PUCSORG
 10
0.0
 20
0.0
 30
0.0
  9
$PUCSXDIR
 10
1.0
 20
0.0
 30
0.0
  9
$PUCSYDIR
 10
0.0
 20
1.0
 30
0.0
  9
$USERI1
 70
     0
  9
$USERI2
 70
     1
  9
$USERI3
 70
     0
  9
$USERI4
 70
     0
  9
$USERI5
 70
     0
  9
$USERR1
 40
0.0
  9
$USERR2
 40
0.0
  9
$USERR3
 40
0.0
  9
$USERR4
 40
0.0
  9
$USERR5
 40
0.0
  9
$WORLDVIEW
 70
     1
  9
$SHADEDGE
 70
     3
  9
$SHADEDIF
 70
    70
  9
$TILEMODE
 70
     1
  9
$MAXACTVP
 70
    64
  9
$PLIMCHECK
 70
     0
  9
$PEXTMIN
 10
0.0
 20
0.0
 30
0.0
  9
$PEXTMAX
 10
0.0
 20
0.0
 30
0.0
  9
$PLIMMIN
 10
0.0
 20
0.0
  9
$PLIMMAX
 10
12.0
 20
9.0
  9
$UNITMODE
 70
     0
  9
$VISRETAIN
 70
     1
  9
$PLINEGEN
 70
     0
  9
$PSLTSCALE
 70
     1
  0
ENDSEC
  0
SECTION
  2
TABLES
  0
TABLE
  2
VPORT
 70
     1
  0
VPORT
  2
*ACTIVE
 70
     0
 10
0.0
 20
0.0
 11
1.0
 21
1.0
 12
25.618044068140708
 22
17.763906864361541
 13
0.0
 23
0.0
 14
0.5
 24
0.5
 15
0.5
 25
0.5
 16
0.0
 26
0.0
 36
1.0
 17
0.0
 27
0.0
 37
0.0
 40
38.834222464723979
 41
1.831871345029239
 42
50.0
 43
0.0
 44
0.0
 50
0.0
 51
0.0
 71
     0
 72
  1000
 73
     1
 74
     2
 75
     0
 76
     0
 77
     0
 78
     0
  0
ENDTAB
  0
TABLE
  2
LTYPE
 70
     3
  0
LTYPE
  2
CONTINUOUS
 70
     0
  3
Solid Line
 72
    65
 73
     0
 40
0.0
  0
LTYPE
  2
CENTER
 70
     0
  3
____ _ ____ _ ____ _ ____ _ ____ _ ____ _ ____
 72
    65
 73
     4
 40
2.0
 49
1.25
 49
-0.25
 49
0.25
 49
-0.25
  0
LTYPE
  2
PHANTOM2
 70
     0
  3
___ _ _ ___ _ _ ___ _ _ ___ _ _
 72
    65
 73
     6
 40
1.25
 49
0.625
 49
-0.125
 49
0.125
 49
-0.125
 49
0.125
 49
-0.125
  0
ENDTAB
  0
TABLE
  2
LAYER
 70
     3
  0
LAYER
  2
0
 70
     0
 62
     7
  6
CONTINUOUS
  0
LAYER
  2
1
 70
     0
 62
     1
  6
CENTER
  0
LAYER
  2
3
 70
     0
 62
     3
  6
CONTINUOUS
  0
ENDTAB
  0
TABLE
  2
STYLE
 70
     2
  0
STYLE
  2
STANDARD
 70
     0
 40
0.0
 41
1.0
 50
0.0
 71
     0
 42
0.2
  3
simplex.shx
  4
bigfont.shx
  0
STYLE
  2
STANDARD1
 70
     0
 40
0.0
 41
1.0
 50
0.0
 71
     0
 42
3.0
  3
txt
  4

  0
ENDTAB
  0
TABLE
  2
VIEW
 70
     0
  0
ENDTAB
  0
TABLE
  2
UCS
 70
     0
  0
ENDTAB
  0
TABLE
  2
APPID
 70
     4
  0
APPID
  2
ACAD
 70
     0
  0
APPID
  2
DCO15
 70
     0
  0
APPID
  2
ACAD_MLEADERVER
 70
     0
  0
APPID
  2
ACAD_NAV_VCDISPLAY
 70
     0
  0
ENDTAB
  0
TABLE
  2
DIMSTYLE
 70
     1
  0
DIMSTYLE
  2
STANDARD
 70
     0
  3

  4

  5

  6

  7

 40
1.0
 41
0.18
 42
0.0625
 43
0.38
 44
0.18
 45
0.0
 46
0.0
 47
0.0
 48
0.0
140
0.18
141
0.09
142
0.0
143
25.399999999999999
144
1.0
145
0.0
146
1.0
147
0.09
 71
     0
 72
     0
 73
     1
 74
     1
 75
     0
 76
     0
 77
     0
 78
     0
170
     0
171
     2
172
     0
173
     0
174
     0
175
     0
176
     0
177
     0
178
     0
  0
ENDTAB
  0
ENDSEC
  0
SECTION
  2
BLOCKS
  0
BLOCK
  8
0
  2
$MODEL_SPACE
 70
     0
 10
0.0
 20
0.0
 30
0.0
  3
$MODEL_SPACE
  1

  0
ENDBLK
  5
21
  8
0
  0
BLOCK
 67
     1
  8
0
  2
$PAPER_SPACE
 70
     0
 10
0.0
 20
0.0
 30
0.0
  3
$PAPER_SPACE
  1

  0
ENDBLK
  5
5B
 67
     1
  8
0
  0
BLOCK
  8
0
  2
STDGX5
 70
     0
 10
0.0
 20
0.0
 30
0.0
  3
STDGX5
  1

  0
ENDBLK
  5
16DA
  8
0
  0
ENDSEC
  0
SECTION
  2
ENTITIES
  0
INSERT
  5
1747
  8
0
  2
STDGX5
 10
142.93956481232809
 20
0.1619180124085346
 30
0.0
  0
LINE
  5
25AE
  8
1
 10
49.103109025534621
 20
29.7447920933426
 30
0.0
 11
40.928109025534717
 21
29.7447920933426
 31
0.0
  0
LINE
  5
25AF
  8
1
 10
23.665609025534732
 20
37.007292093342592
 30
0.0
 11
23.665609025534732
 21
22.482292093342611
 31
0.0
  0
LINE
  5
25B0
  8
1
 10
16.40310902553475
 20
29.7447920933426
 30
0.0
 11
30.92810902553472
 21
29.7447920933426
 31
0.0
  0
LINE
  5
25B1
  8
0
 10
43.42810902553466
 20
28.23349209334237
 30
0.0
 11
44.939409025534673
 21
29.744792093342369
 31
0.0
  0
LINE
  5
25B2
  8
0
 10
44.939409025534673
 20
26.569792093342361
 30
0.0
 11
43.42810902553466
 21
28.08109209334237
 31
0.0
  0
LINE
  5
25B3
  8
0
 10
43.42810902553466
 20
28.08109209334237
 30
0.0
 11
43.42810902553466
 21
28.23349209334237
 31
0.0
  0
LINE
  5
25B4
  8
0
 10
44.939409025534673
 20
29.744792093342369
 30
0.0
 11
43.42810902553466
 21
31.256092093342382
 31
0.0
  0
LINE
  5
25B5
  8
0
 10
43.42810902553466
 20
31.408492093342321
 30
0.0
 11
44.939409025534673
 21
32.91979209334233
 31
0.0
  0
LINE
  5
25B6
  8
0
 10
43.42810902553466
 20
31.256092093342382
 30
0.0
 11
43.42810902553466
 21
31.408492093342321
 31
0.0
  0
LINE
  5
25B7
  8
0
 10
46.603109025534451
 20
33.745292093342641
 30
0.0
 11
46.603109025534728
 21
25.744292093342381
 31
0.0
  0
LINE
  5
25B8
  8
0
 10
46.09510902553469
 20
34.507292093342357
 30
0.0
 11
46.09510902553469
 21
24.98229209334238
 31
0.0
  0
LINE
  5
25B9
  8
0
 10
44.939409025534673
 20
24.98229209334232
 30
0.0
 11
44.939409025534673
 21
34.507292093342357
 31
0.0
  0
LINE
  5
25BA
  8
0
 10
46.603109025534728
 20
33.745292093342357
 30
0.0
 11
46.09510902553469
 21
34.253292093342338
 31
0.0
  0
LINE
  5
25BB
  8
0
 10
46.09510902553469
 20
25.236292093342339
 30
0.0
 11
46.603109025534728
 21
25.744292093342381
 31
0.0
  0
LINE
  5
25BC
  8
0
 10
46.09510902553469
 20
34.507292093342357
 30
0.0
 11
44.939409025534779
 21
34.507292093342357
 31
0.0
  0
LINE
  5
25BD
  8
0
 10
44.939409025534779
 20
24.98229209334238
 30
0.0
 11
46.09510902553469
 21
24.98229209334238
 31
0.0
  0
CIRCLE
  5
25BE
  8
0
 10
23.665609025534732
 20
29.7447920933426
 30
0.0
 40
4.7625000000000117
  0
LINE
  5
25BF
  8
3
 10
23.665609025534732
 20
32.919792093342551
 30
0.0
 11
20.49060902553467
 21
32.919792093342551
 31
0.0
  0
LINE
  5
25C0
  8
3
 10
20.490609025534781
 20
26.569792093342588
 30
0.0
 11
20.49060902553467
 21
29.7447920933426
 31
0.0
  0
LINE
  5
25C1
  8
3
 10
22.001909025534669
 20
28.233492093342591
 30
0.0
 11
22.001909025534669
 21
28.08109209334259
 31
0.0
  0
LINE
  5
25C2
  8
3
 10
22.154309025534729
 20
31.408492093342549
 30
0.0
 11
22.001909025534669
 21
31.408492093342549
 31
0.0
  0
LINE
  5
25C3
  8
3
 10
22.154309025534729
 20
28.08109209334259
 30
0.0
 11
22.154309025534729
 21
28.233492093342591
 31
0.0
  0
LINE
  5
25C4
  8
3
 10
23.665609025534732
 20
26.569792093342588
 30
0.0
 11
23.665609025534732
 21
29.7447920933426
 31
0.0
  0
LINE
  5
25C5
  8
3
 10
26.84060902553469
 20
29.7447920933426
 30
0.0
 11
26.84060902553469
 21
32.919792093342551
 31
0.0
  0
LINE
  5
25C6
  8
3
 10
26.84060902553469
 20
26.569792093342588
 30
0.0
 11
26.84060902553469
 21
29.7447920933426
 31
0.0
  0
LINE
  5
25C7
  8
3
 10
22.154309025534729
 20
31.256092093342598
 30
0.0
 11
22.154309025534729
 21
31.408492093342549
 31
0.0
  0
LINE
  5
25C8
  8
3
 10
23.665609025534732
 20
29.7447920933426
 30
0.0
 11
23.665609025534732
 21
32.919792093342551
 31
0.0
  0
LINE
  5
25C9
  8
3
 10
22.154309025534729
 20
31.408492093342549
 30
0.0
 11
23.665609025534732
 21
32.919792093342551
 31
0.0
  0
LINE
  5
25CA
  8
3
 10
23.665609025534732
 20
26.569792093342588
 30
0.0
 11
20.490609025534781
 21
26.569792093342588
 31
0.0
  0
LINE
  5
25CB
  8
3
 10
23.665609025534732
 20
26.569792093342588
 30
0.0
 11
22.154309025534729
 21
28.08109209334259
 31
0.0
  0
LINE
  5
25CC
  8
3
 10
22.154309025534729
 20
28.08109209334259
 30
0.0
 11
22.001909025534669
 21
28.08109209334259
 31
0.0
  0
LINE
  5
25CD
  8
3
 10
22.001909025534669
 20
28.08109209334259
 30
0.0
 11
20.490609025534781
 21
26.569792093342588
 31
0.0
  0
LINE
  5
25CE
  8
3
 10
22.154309025534729
 20
28.233492093342591
 30
0.0
 11
22.001909025534669
 21
28.233492093342591
 31
0.0
  0
LINE
  5
25CF
  8
3
 10
22.154309025534729
 20
28.233492093342591
 30
0.0
 11
23.665609025534732
 21
29.7447920933426
 31
0.0
  0
LINE
  5
25D0
  8
3
 10
20.49060902553467
 20
29.7447920933426
 30
0.0
 11
22.001909025534669
 21
28.233492093342591
 31
0.0
  0
LINE
  5
25D1
  8
3
 10
26.84060902553469
 20
29.7447920933426
 30
0.0
 11
25.329309025534691
 21
31.256092093342598
 31
0.0
  0
LINE
  5
25D2
  8
3
 10
25.176909025534631
 20
31.256092093342598
 30
0.0
 11
23.665609025534732
 21
29.7447920933426
 31
0.0
  0
LINE
  5
25D3
  8
3
 10
25.329309025534691
 20
31.408492093342549
 30
0.0
 11
26.84060902553469
 21
32.919792093342551
 31
0.0
  0
LINE
  5
25D4
  8
3
 10
26.84060902553469
 20
32.919792093342551
 30
0.0
 11
23.665609025534732
 21
32.919792093342551
 31
0.0
  0
LINE
  5
25D5
  8
3
 10
23.665609025534732
 20
32.919792093342551
 30
0.0
 11
25.176909025534631
 21
31.408492093342549
 31
0.0
  0
LINE
  5
25D6
  8
3
 10
25.329309025534691
 20
28.08109209334259
 30
0.0
 11
25.329309025534691
 21
28.233492093342591
 31
0.0
  0
LINE
  5
25D7
  8
3
 10
25.176909025534631
 20
28.233492093342591
 30
0.0
 11
25.176909025534631
 21
28.08109209334259
 31
0.0
  0
LINE
  5
25D8
  8
3
 10
25.329309025534691
 20
31.256092093342598
 30
0.0
 11
25.176909025534631
 21
31.256092093342598
 31
0.0
  0
LINE
  5
25D9
  8
3
 10
25.329309025534691
 20
31.256092093342598
 30
0.0
 11
25.329309025534691
 21
31.408492093342549
 31
0.0
  0
LINE
  5
25DA
  8
3
 10
25.329309025534691
 20
31.408492093342549
 30
0.0
 11
25.176909025534631
 21
31.408492093342549
 31
0.0
  0
LINE
  5
25DB
  8
3
 10
25.176909025534631
 20
31.408492093342549
 30
0.0
 11
25.176909025534631
 21
31.256092093342598
 31
0.0
  0
LINE
  5
25DC
  8
3
 10
26.84060902553469
 20
26.569792093342588
 30
0.0
 11
23.665609025534732
 21
26.569792093342588
 31
0.0
  0
LINE
  5
25DD
  8
3
 10
26.84060902553469
 20
26.569792093342588
 30
0.0
 11
25.329309025534691
 21
28.08109209334259
 31
0.0
  0
LINE
  5
25DE
  8
3
 10
25.329309025534691
 20
28.08109209334259
 30
0.0
 11
25.176909025534631
 21
28.08109209334259
 31
0.0
  0
LINE
  5
25DF
  8
3
 10
25.176909025534631
 20
28.08109209334259
 30
0.0
 11
23.665609025534732
 21
26.569792093342588
 31
0.0
  0
LINE
  5
25E0
  8
3
 10
25.329309025534691
 20
28.233492093342591
 30
0.0
 11
25.176909025534631
 21
28.233492093342591
 31
0.0
  0
LINE
  5
25E1
  8
3
 10
25.329309025534691
 20
28.233492093342591
 30
0.0
 11
26.84060902553469
 21
29.7447920933426
 31
0.0
  0
LINE
  5
25E2
  8
3
 10
26.84060902553469
 20
29.7447920933426
 30
0.0
 11
23.665609025534732
 21
29.7447920933426
 31
0.0
  0
LINE
  5
25E3
  8
3
 10
23.665609025534732
 20
29.7447920933426
 30
0.0
 11
25.176909025534631
 21
28.233492093342591
 31
0.0
  0
LINE
  5
25E4
  8
3
 10
23.665609025534732
 20
29.7447920933426
 30
0.0
 11
20.490609025534781
 21
29.7447920933426
 31
0.0
  0
LINE
  5
25E5
  8
3
 10
23.665609025534732
 20
29.7447920933426
 30
0.0
 11
22.154309025534729
 21
31.256092093342598
 31
0.0
  0
LINE
  5
25E6
  8
3
 10
22.154309025534729
 20
31.256092093342598
 30
0.0
 11
22.001909025534669
 21
31.256092093342598
 31
0.0
  0
LINE
  5
25E7
  8
3
 10
20.49060902553467
 20
29.7447920933426
 30
0.0
 11
20.490609025534781
 21
32.919792093342551
 31
0.0
  0
LINE
  5
25E8
  8
3
 10
22.001909025534669
 20
31.256092093342598
 30
0.0
 11
20.49060902553467
 21
29.7447920933426
 31
0.0
  0
LINE
  5
25E9
  8
3
 10
22.001909025534669
 20
31.408492093342549
 30
0.0
 11
22.001909025534669
 21
31.256092093342598
 31
0.0
  0
LINE
  5
25EA
  8
3
 10
20.490609025534781
 20
32.919792093342551
 30
0.0
 11
22.001909025534669
 21
31.408492093342549
 31
0.0
  0
TEXT
  5
26AD
  8
0
 62
     3
 10
0.0
 20
0.0
 30
0.0
 40
5.0
  1
CC-3-4
  7
STANDARD1
  0
ENDSEC
  0
EOF
